  0
SECTION
  2
HEADER
  9
$ACADVER
  1
AC1009
  9
$INSBASE
 10
0
 20
0
 30
0
  9
$EXTMIN
 10
0
 20
0
  9
$EXTMAX
 10
420
 20
297
  9
$LIMMIN
 10
0
 20
0
  9
$LIMMAX
 10
420
 20
297
  9
$LTSCALE
 40
1
  0
ENDSEC
  0
SECTION
  2
TABLES
  0
TABLE
  2
LTYPE
 70
     9
  0
LTYPE
  2
CONTINUOUS
 70
    64
  3
実線
 72
    65
 73
     0
 40
0.0
  0
LTYPE
  2
DASHED1
 70
    64
  3
--  --  --  --  --  --  --  --  
 72
    65
 73
     2
 40
2.5
 49
1.25
 49
-1.25
  0
LTYPE
  2
DASHED2
 70
    64
  3
----    ----    ----    ----    
 72
    65
 73
     2
 40
5.0
 49
2.5
 49
-2.5
  0
LTYPE
  2
DASHED3
 70
    64
  3
------  ------  ------  ------  
 72
    65
 73
     2
 40
5.0
 49
3.75
 49
-1.25
  0
LTYPE
  2
CENTER1
 70
    64
  3
----- - ----- - ----- - ----- - 
 72
    65
 73
     4
 40
10.0
 49
6.25
 49
-1.25
 49
1.25
 49
-1.25
  0
LTYPE
  2
CENTER2
 70
    64
  3
----------  --  ----------  --  
 72
    65
 73
     4
 40
20.0
 49
12.5
 49
-2.5
 49
2.5
 49
-2.5
  0
LTYPE
  2
PHANTOM1
 70
    64
  3
--- - - --- - - --- - - --- - - 
 72
    65
 73
     6
 40
10.0
 49
3.25
 49
-1.25
 49
1.25
 49
-1.25
 49
1.25
 49
-1.25
  0
LTYPE
  2
PHANTOM2
 70
    64
  3
--------  -  -  --------  -  -  
 72
    65
 73
     6
 40
20.0
 49
10.0
 49
-2.5
 49
1.25
 49
-2.5
 49
1.25
 49
-2.5
  0
LTYPE
  2
DOT
 70
    64
  3
-   -   -   -   -   -   -   -   
 72
    65
 73
     2
 40
2.5
 49
0.625
 49
-1.875
  0
LTYPE
  2
DUMMY
 70
    64
  3
ダミー
 72
    65
 73
     0
 40
0.0
  0
LTYPE
  2
RAND1
 70
    64
  3
ランダム線1
 72
    65
 73
     4
 40
10.0
 49
1.0
 49
-2.0
 49
3.0
 49
-4.0
  0
LTYPE
  2
RAND2
 70
    64
  3
ランダム線2
 72
    65
 73
     4
 40
14.0
 49
2.0
 49
-3.0
 49
4.0
 49
-5.0
  0
LTYPE
  2
RAND3
 70
    64
  3
ランダム線3
 72
    65
 73
     4
 40
18.0
 49
3.0
 49
-4.0
 49
5.0
 49
-6.0
  0
LTYPE
  2
RAND4
 70
    64
  3
ランダム線4
 72
    65
 73
     4
 40
22.0
 49
4.0
 49
-5.0
 49
6.0
 49
-7.0
  0
LTYPE
  2
RAND5
 70
    64
  3
ランダム線5
 72
    65
 73
     4
 40
26.0
 49
5.0
 49
-6.0
 49
7.0
 49
-8.0
  0
LTYPE
  2
LONG1
 70
    64
  3
----------  --  ----------  --  
 72
    65
 73
     4
 40
40.0
 49
32.5
 49
-2.5
 49
2.5
 49
-2.5
  0
LTYPE
  2
LONG2
 70
    64
  3
--------  -  -  --------  -  -  
 72
    65
 73
     6
 40
40.0
 49
30.0
 49
-2.5
 49
1.25
 49
-2.5
 49
1.25
 49
-2.5
  0
LTYPE
  2
LONG3
 70
    64
  3
+++++++++++++++..+++++++++++++++
 72
    65
 73
     2
 40
40.0
 49
37.5
 49
-2.5
  0
LTYPE
  2
LONG4
 70
    64
  3
+++++++++++++++..+++++++++++++++
 72
    65
 73
     2
 40
80.0
 49
75.0
 49
-5.0
  0
LTYPE
  2
LONG5
 70
    64
  3
----------  --  ----------  --  
 72
    65
 73
     4
 40
60.0
 49
37.5
 49
-7.5
 49
7.5
 49
-7.5
  0
LTYPE
  2
dashed
 70
   64
  3
-------   -------------   ------
 72
   65
 73
    2
 40
7.5
 49
6
 49
-1.5
  0
LTYPE
  2
dashed_spaced
 70
   64
  3
----        --------        ----
 72
   65
 73
    2
 40
12
 49
6
 49
-6
  0
LTYPE
  2
long_dashed_dotted
 70
   64
  3
------------- --- --------------
 72
   65
 73
    4
 40
15.25
 49
12
 49
-1.5
 49
0.25
 49
-1.5
  0
LTYPE
  2
long_dashed_double-dotted
 70
   64
  3
----------- --- --- ------------
 72
   65
 73
    6
 40
17
 49
12
 49
-1.5
 49
0.25
 49
-1.5
 49
0.25
 49
-1.5
  0
LTYPE
  2
long_dashed_triplicate-dotted
 70
   64
  3
--------- --- --- --- ----------
 72
   65
 73
    8
 40
18.75
 49
12
 49
-1.5
 49
0.25
 49
-1.5
 49
0.25
 49
-1.5
 49
0.25
 49
-1.5
  0
LTYPE
  2
dotted
 70
   64
  3
   -       -       -       -    
 72
   65
 73
    2
 40
1.75
 49
0.25
 49
-1.5
  0
LTYPE
  2
chain
 70
   64
  3
-------------- -- --------------
 72
   65
 73
    4
 40
18.5
 49
12
 49
-1.5
 49
3.5
 49
-1.5
  0
LTYPE
  2
chain_double_dash
 70
   64
  3
------------ -- -- -------------
 72
   65
 73
    6
 40
23.5
 49
12
 49
-1.5
 49
3.5
 49
-1.5
 49
3.5
 49
-1.5
  0
LTYPE
  2
dashed_dotted
 70
   64
  3
-----------     -     ----------
 72
   65
 73
    4
 40
9.25
 49
6
 49
-1.5
 49
0.25
 49
-1.5
  0
LTYPE
  2
double-dashed_dotted
 70
   64
  3
------   -----------   -   -----
 72
   65
 73
    6
 40
16.75
 49
6
 49
-1.5
 49
6
 49
-1.5
 49
0.25
 49
-1.5
  0
LTYPE
  2
dashed_double-dotted
 70
   64
  3
---------    -    -    ---------
 72
   65
 73
    6
 40
11
 49
6
 49
-1.5
 49
0.25
 49
-1.5
 49
0.25
 49
-1.5
  0
LTYPE
  2
double-dashed_double-dotted
 70
   64
  3
-----   ---------   -   -   ----
 72
   65
 73
    8
 40
18.5
 49
6
 49
-1.5
 49
6
 49
-1.5
 49
0.25
 49
-1.5
 49
0.25
 49
-1.5
  0
LTYPE
  2
dashed_triplicate-dotted
 70
   64
  3
-------    -    -    -    ------
 72
   65
 73
    8
 40
12.75
 49
6
 49
-1.5
 49
0.25
 49
-1.5
 49
0.25
 49
-1.5
 49
0.25
 49
-1.5
  0
LTYPE
  2
double-dashed_triplicate-dotted
 70
   64
  3
-----  ---------  -  -  -  -----
 72
   65
 73
   10
 40
20.25
 49
6
 49
-1.5
 49
6
 49
-1.5
 49
0.25
 49
-1.5
 49
0.25
 49
-1.5
 49
0.25
 49
-1.5
  0
LTYPE
  2
undefined
 70
   64
  3
--------------------------------
 72
   65
 73
    0
 40
0
  0
ENDTAB
  0
TABLE
  2
STYLE
  5
3
100
AcDbSymbolTable
 70
     1
  0
STYLE
  5
10
100
AcDbSymbolTableRecord
100
AcDbTextStyleTableRecord
  2
STANDARD
 70
     0
 40
0.0
 41
1.0
 50
0.0
 71
     0
 42
0.2
  3
txt
  4
bigfont.shx
  0
STYLE
  5
26
100
AcDbSymbolTableRecord
100
AcDbTextStyleTableRecord
  2
TATEGAKI
 70
    68
 40
0.0
 41
1.0
 50
0.0
 71
     0
 42
1.0
  3
txt
  4
bigfont.shx
  0
ENDTAB
  0
TABLE
  2
LAYER
 70
    7
  0
LAYER
  2
_0-0_
 70
   64
 62
    7
  6
CONTINUOUS
  0
LAYER
  2
_1-0_
 70
   64
 62
    7
  6
CONTINUOUS
  0
LAYER
  2
_1-1_
 70
   64
 62
    7
  6
CONTINUOUS
  0
LAYER
  2
_1-2_
 70
   64
 62
    7
  6
CONTINUOUS
  0
LAYER
  2
_1-3_
 70
   64
 62
    7
  6
CONTINUOUS
  0
LAYER
  2
_1-4_
 70
   64
 62
    7
  6
CONTINUOUS
  0
LAYER
  2
ADD_LINE
 70
   64
 62
    7
  6
CONTINUOUS
  0
ENDTAB
  0
ENDSEC
  0
SECTION
  2
BLOCKS
  0
ENDSEC
  0
SECTION
  2
ENTITIES
  0
LINE
  8
_1-1_
  6
CONTINUOUS
 62
    7
 10
201.84669700828761
 20
201.85961336702914
 11
202.24669585356841
 21
201.85961336702914
  0
LINE
  8
_0-0_
  6
CONTINUOUS
 62
    5
 10
6.7567526327597136
 20
280.13513513513516
 11
406.75677325274495
 21
280.13513513513516
  0
LINE
  8
_0-0_
  6
CONTINUOUS
 62
    5
 10
406.75677325274495
 20
10.13513513513513
 11
6.7567526327597136
 21
10.13513513513513
  0
LINE
  8
_0-0_
  6
CONTINUOUS
 62
    5
 10
406.75677325274495
 20
30.135133073136615
 11
6.7567402607685949
 21
30.135133073136615
  0
LINE
  8
_0-0_
  6
CONTINUOUS
 62
    5
 10
371.75678150073907
 20
10.13513513513513
 11
371.75678150073907
 21
30.135133073136615
  0
LINE
  8
_0-0_
  6
CONTINUOUS
 62
    5
 10
137.02703939901818
 20
30.135133073136615
 11
137.02703939901818
 21
10.13513513513513
  0
LINE
  8
_0-0_
  6
CONTINUOUS
 62
    5
 10
214.86486486486487
 20
30.135133073136615
 11
214.86486486486487
 21
10.13513513513513
  0
LINE
  8
_0-0_
  6
CONTINUOUS
 62
    5
 10
396.48648648648651
 20
25.945945945945951
 11
383.91891891891896
 21
13.378379924877265
  0
LINE
  8
_1-0_
  6
CONTINUOUS
 62
    7
 10
47.774753055057005
 20
110.45587488122889
 11
46.297438337996198
 21
113.73879510003168
  0
LINE
  8
_1-0_
  6
CONTINUOUS
 62
    7
 10
46.297438337996198
 20
113.73879510003168
 11
50.674661172402864
 21
115.70853980811867
  0
LINE
  8
_1-0_
  6
CONTINUOUS
 62
    7
 10
50.674661172402864
 20
115.70853980811867
 11
52.151975889463699
 21
112.42561958931589
  0
LINE
  8
_1-0_
  6
CONTINUOUS
 62
    7
 10
52.151975889463699
 20
112.42561958931589
 11
47.774753055057005
 21
110.45587488122889
  0
LINE
  8
_1-0_
  6
CONTINUOUS
 62
    7
 10
46.297438337996198
 20
113.73879510003168
 11
52.151975889463699
 21
112.42561958931589
  0
LINE
  8
_1-0_
  6
CONTINUOUS
 62
    7
 10
98.094573149809975
 20
137.04750267235011
 11
99.571887866870782
 21
133.76458245354729
  0
LINE
  8
_1-0_
  6
CONTINUOUS
 62
    7
 10
99.571887866870782
 20
133.76458245354729
 11
95.194652660472983
 21
131.79483774546031
  0
LINE
  8
_1-0_
  6
CONTINUOUS
 62
    7
 10
145.51448512721706
 20
158.38646553658151
 11
146.99179984427789
 21
155.10354531777872
  0
LINE
  8
_1-0_
  6
CONTINUOUS
 62
    7
 10
146.99179984427789
 20
155.10354531777872
 11
142.61456463788008
 21
153.13380060969172
  0
LINE
  8
_1-2_
  6
CONTINUOUS
 62
    3
 10
51.773219752956095
 20
113.46732887061867
 11
53.592768488703541
 21
114.0791485760663
  0
LINE
  8
ADD_LINE
  6
DOT
 62
    7
 10
50.112948031038854
 20
118.71159321552999
 11
49.940259778821797
 21
119.28651964342272
  0
LINE
  8
_1-2_
  6
CONTINUOUS
 62
    3
 10
49.940259778821797
 20
119.28651964342272
 11
50.112948031038854
 21
118.71159321552999
  0
LINE
  8
_1-2_
  6
CONTINUOUS
 62
    3
 10
50.976463524070937
 20
115.83688684411952
 11
51.775793127111484
 21
113.45967060810811
  0
LINE
  8
_1-2_
  6
CONTINUOUS
 62
    3
 10
49.940259778821797
 20
119.28651964342272
 11
51.836960251266902
 21
119.92429578626479
  0
LINE
  8
_1-2_
  6
CONTINUOUS
 62
    3
 10
53.592768488703541
 20
114.0791485760663
 11
51.836960251266902
 21
119.92429578626479
  0
LINE
  8
_1-0_
  6
CONTINUOUS
 62
    7
 10
98.094573149809975
 20
137.04749030035896
 11
99.571887866870782
 21
133.76457008155617
  0
LINE
  8
_1-0_
  6
CONTINUOUS
 62
    7
 10
99.571887866870782
 20
133.76457008155617
 11
95.194652660472983
 21
131.79482537346917
  0
LINE
  8
_1-2_
  6
CONTINUOUS
 62
    3
 10
99.184050688872475
 20
134.8029512972445
 11
100.9982052364865
 21
135.43061952333193
  0
LINE
  8
ADD_LINE
  6
DOT
 62
    7
 10
97.478101575696797
 20
140.03253008868245
 11
97.300365551097983
 21
140.60592238967484
  0
LINE
  8
_1-2_
  6
CONTINUOUS
 62
    3
 10
97.300365551097983
 20
140.60592238967484
 11
97.478101575696797
 21
140.03253008868245
  0
LINE
  8
_1-2_
  6
CONTINUOUS
 62
    3
 10
98.366657978779571
 20
137.16545723580026
 11
99.186698294974661
 21
134.79530540672511
  0
LINE
  8
_1-2_
  6
CONTINUOUS
 62
    3
 10
42.723132984058282
 20
117.06460901208827
 11
43.479519405880495
 21
117.32632611248945
  0
LINE
  8
_1-2_
  6
CONTINUOUS
 62
    3
 10
44.641818484744505
 20
118.57719627586572
 11
98.366657978779571
 21
137.16545723580026
  0
LINE
  8
_1-2_
  6
CONTINUOUS
 62
    3
 10
43.617034087309975
 20
116.88269125448691
 11
43.479519405880495
 21
117.32632611248945
  0
LINE
  8
_1-2_
  6
CONTINUOUS
 62
    3
 10
42.864482982738593
 20
116.60851555901606
 11
42.723132984058282
 21
117.06460901208827
  0
LINE
  8
_1-2_
  6
CONTINUOUS
 62
    3
 10
44.346226872624584
 20
116.91645441828548
 11
43.87348071948901
 21
116.75287195154139
  0
LINE
  8
_1-2_
  6
CONTINUOUS
 62
    3
 10
44.471864442567579
 20
117.16466130437078
 11
44.264881030933282
 21
117.83255087362754
  0
LINE
  8
_1-2_
  6
CONTINUOUS
 62
    3
 10
42.266062143686668
 20
116.19672620618667
 11
42.738833040804479
 21
116.36030867293076
  0
LINE
  8
_1-2_
  6
CONTINUOUS
 62
    3
 10
97.478101575696797
 20
140.03253008868245
 11
40.746002197265625
 21
120.40377230257602
  0
LINE
  8
_1-2_
  6
CONTINUOUS
 62
    3
 10
42.009627883498752
 20
116.32653313714106
 11
40.746002197265625
 21
120.40377230257602
  0
LINE
  8
_1-2_
  6
CONTINUOUS
 62
    3
 10
100.9982052364865
 20
135.43061952333193
 11
99.191449139569258
 21
141.26022751266893
  0
LINE
  8
_1-2_
  6
CONTINUOUS
 62
    7
 10
40.746002197265625
 20
120.40377230257602
 11
36.03759353225297
 21
134.01224497202281
  0
LINE
  8
_1-0_
  6
CONTINUOUS
 62
    7
 10
95.194652660472983
 20
131.79483774546031
 11
93.734485523120782
 21
135.03968934755068
  0
LINE
  8
_1-0_
  6
CONTINUOUS
 62
    7
 10
95.194652660472983
 20
131.79482537346917
 11
93.734460779138516
 21
135.03967697555956
  0
LINE
  8
_1-0_
  6
CONTINUOUS
 62
    7
 10
93.734485523120782
 20
135.03968934755068
 11
99.571887866870782
 21
133.76458245354729
  0
LINE
  8
_1-2_
  6
CONTINUOUS
 62
    7
 10
51.836960251266902
 20
119.92429578626479
 11
51.492895177892734
 21
120.94759554476352
  0
LINE
  8
_1-0_
  6
CONTINUOUS
 62
    7
 10
49.940259778821797
 20
119.28651964342272
 11
49.634448902027032
 21
120.30459842166385
  0
LINE
  8
_1-0_
  6
CONTINUOUS
 62
    7
 10
145.51448512721706
 20
158.38646553658151
 11
146.99179984427789
 21
155.10354531777872
  0
LINE
  8
_1-0_
  6
CONTINUOUS
 62
    7
 10
146.99179984427789
 20
155.10354531777872
 11
142.61456463788008
 21
153.13380060969172
  0
LINE
  8
_1-0_
  6
CONTINUOUS
 62
    7
 10
145.51448512721706
 20
158.38645316459039
 11
146.99179984427789
 21
155.10353294578761
  0
LINE
  8
_1-0_
  6
CONTINUOUS
 62
    7
 10
146.99179984427789
 20
155.10353294578761
 11
142.61456463788008
 21
153.1337882377006
  0
LINE
  8
_1-2_
  6
CONTINUOUS
 62
    3
 10
144.78008373363599
 20
161.96443299989443
 11
144.95277198585305
 21
161.38950657200169
  0
LINE
  8
_1-2_
  6
CONTINUOUS
 62
    3
 10
146.60396266627956
 20
156.14191416147594
 11
148.41811721389359
 21
156.76958238756336
  0
LINE
  8
ADD_LINE
  6
DOT
 62
    7
 10
144.89801355310388
 20
161.37149295291385
 11
144.72027752850508
 21
161.94488525390625
  0
LINE
  8
_1-2_
  6
CONTINUOUS
 62
    3
 10
144.72027752850508
 20
161.94488525390625
 11
144.89801355310388
 21
161.37149295291385
  0
LINE
  8
_1-2_
  6
CONTINUOUS
 62
    3
 10
145.78656995618667
 20
158.50442010003169
 11
146.60661027238177
 21
156.13426827095651
  0
LINE
  8
_1-2_
  6
CONTINUOUS
 62
    3
 10
90.143044961465378
 20
138.40357187631969
 11
90.899443755278725
 21
138.66528897672086
  0
LINE
  8
_1-2_
  6
CONTINUOUS
 62
    3
 10
92.061718090160483
 20
139.91615914009714
 11
145.78656995618667
 21
158.50442010003169
  0
LINE
  8
_1-2_
  6
CONTINUOUS
 62
    3
 10
91.036946064717071
 20
138.22165411871833
 11
90.899443755278725
 21
138.66528897672086
  0
LINE
  8
_1-2_
  6
CONTINUOUS
 62
    3
 10
90.284407332136823
 20
137.94747842324747
 11
90.143044961465378
 21
138.40357187631969
  0
LINE
  8
_1-2_
  6
CONTINUOUS
 62
    3
 10
91.766126478040547
 20
138.2554172825169
 11
91.29339269689612
 21
138.09183481577281
  0
LINE
  8
_1-2_
  6
CONTINUOUS
 62
    3
 10
91.891776419974661
 20
138.50362416860222
 11
91.684793008340378
 21
139.17151373785896
  0
LINE
  8
_1-2_
  6
CONTINUOUS
 62
    3
 10
89.68597412109375
 20
137.53568907041807
 11
90.158757390202709
 21
137.69927153716216
  0
LINE
  8
_1-2_
  6
CONTINUOUS
 62
    3
 10
144.89801355310388
 20
161.37149295291385
 11
88.165926546663854
 21
141.74273516680745
  0
LINE
  8
_1-2_
  6
CONTINUOUS
 62
    3
 10
89.429552232896967
 20
137.66549600137247
 11
88.165926546663854
 21
141.74273516680745
  0
LINE
  8
_1-2_
  6
CONTINUOUS
 62
    3
 10
148.41811721389359
 20
156.76958238756336
 11
146.61136111697635
 21
162.59919037690034
  0
LINE
  8
_1-2_
  6
CONTINUOUS
 62
    7
 10
88.165926546663854
 20
141.74273516680745
 11
83.457493137668919
 21
155.35120783625422
  0
LINE
  8
_1-0_
  6
CONTINUOUS
 62
    7
 10
142.61456463788008
 20
153.13380060969172
 11
141.15439750052789
 21
156.37865221178211
  0
LINE
  8
_1-0_
  6
CONTINUOUS
 62
    7
 10
142.61456463788008
 20
153.1337882377006
 11
141.15437275654563
 21
156.37863983979096
  0
LINE
  8
_1-0_
  6
CONTINUOUS
 62
    7
 10
141.15437275654563
 20
156.37863983979096
 11
145.48590582770271
 21
158.37343782991977
  0
LINE
  8
_1-0_
  6
CONTINUOUS
 62
    7
 10
141.15439750052789
 20
156.37865221178211
 11
146.99179984427789
 21
155.10354531777872
  0
LINE
  8
_1-0_
  6
CONTINUOUS
 62
    7
 10
194.41173656566724
 20
176.44250818201016
 11
190.03450135926943
 21
174.47276347392315
  0
LINE
  8
ADD_LINE
  6
DOT
 62
    7
 10
195.83805393528294
 20
178.10854525179477
 11
192.39742794552365
 21
189.21010610219597
  0
LINE
  8
_1-2_
  6
CONTINUOUS
 62
    3
 10
194.02389938766893
 20
177.48086465371622
 11
195.83805393528294
 21
178.10854525179477
  0
LINE
  8
ADD_LINE
  6
DOT
 62
    7
 10
192.31795027449326
 20
182.71045581714529
 11
192.14021424989443
 21
183.28384811813768
  0
LINE
  8
_1-2_
  6
CONTINUOUS
 62
    3
 10
192.14021424989443
 20
183.28384811813768
 11
192.31795027449326
 21
182.71045581714529
  0
LINE
  8
_1-2_
  6
CONTINUOUS
 62
    3
 10
193.20650667757602
 20
179.84337059227198
 11
194.02654699377112
 21
177.47324350717906
  0
LINE
  8
_1-2_
  6
CONTINUOUS
 62
    3
 10
137.56298168285474
 20
159.74253474055109
 11
138.31935573268581
 21
160.00425184095229
  0
LINE
  8
_1-2_
  6
CONTINUOUS
 62
    3
 10
138.45688278610643
 20
159.56061698294977
 11
138.31935573268581
 21
160.00425184095229
  0
LINE
  8
_1-2_
  6
CONTINUOUS
 62
    3
 10
139.18608794341216
 20
159.59438014674831
 11
138.71332941828547
 21
159.43079768000422
  0
LINE
  8
_1-2_
  6
CONTINUOUS
 62
    3
 10
139.31171314136404
 20
159.84258703283362
 11
139.10472972972974
 21
160.51047660209039
  0
LINE
  8
_1-2_
  6
CONTINUOUS
 62
    3
 10
192.31795027449326
 20
182.71045581714529
 11
135.58583852407097
 21
163.08169803103885
  0
LINE
  8
_1-2_
  6
CONTINUOUS
 62
    3
 10
136.84946421030406
 20
159.00445886560388
 11
135.58583852407097
 21
163.08169803103885
  0
LINE
  8
_1-2_
  6
CONTINUOUS
 62
    3
 10
192.14021424989443
 20
183.28384811813768
 11
194.03129783836573
 21
183.93815324113177
  0
LINE
  8
_1-2_
  6
CONTINUOUS
 62
    3
 10
195.83805393528294
 20
178.10854525179477
 11
194.03129783836573
 21
183.93815324113177
  0
LINE
  8
_1-2_
  6
CONTINUOUS
 62
    7
 10
135.58583852407097
 20
163.08169803103885
 11
130.87745460304055
 21
176.69017070048565
  0
LINE
  8
_1-2_
  6
CONTINUOUS
 62
    7
 10
189.51905946473818
 20
196.97961755701016
 11
130.87745460304055
 21
176.69017070048565
  0
LINE
  8
_1-2_
  6
CONTINUOUS
 62
    7
 10
194.03129783836573
 20
183.93815324113177
 11
189.51905946473818
 21
196.97961755701016
  0
LINE
  8
_1-0_
  6
CONTINUOUS
 62
    7
 10
190.03450135926943
 20
174.47276347392315
 11
188.57433422191724
 21
177.71761507601352
  0
LINE
  8
_1-2_
  6
CONTINUOUS
 62
    7
 10
84.981524493243242
 20
150.9463830896326
 11
36.03759353225297
 21
134.01224497202281
  0
LINE
  8
_1-2_
  6
CONTINUOUS
 62
    7
 10
99.191449139569258
 20
141.26022751266893
 11
98.84451376425254
 21
142.26292790593328
  0
LINE
  8
_1-2_
  6
CONTINUOUS
 62
    3
 10
97.300365551097983
 20
140.60592238967484
 11
99.191473883551524
 21
141.26022751266893
  0
LINE
  8
ADD_LINE
  6
DOT
 62
    7
 10
100.9982052364865
 20
135.43061952333193
 11
99.191473883551524
 21
141.26022751266893
  0
LINE
  8
_1-2_
  6
CONTINUOUS
 62
    7
 10
97.300365551097983
 20
140.60592238967484
 11
96.986092232369089
 21
141.61994315482477
  0
LINE
  8
ADD_LINE
  6
DOT
 62
    7
 10
148.41811721389359
 20
156.76958238756336
 11
146.61138586095862
 21
162.59919037690034
  0
LINE
  8
_1-2_
  6
CONTINUOUS
 62
    3
 10
144.72027752850508
 20
161.94488525390625
 11
146.61138586095862
 21
162.59919037690034
  0
LINE
  8
_1-2_
  6
CONTINUOUS
 62
    7
 10
132.4014612146326
 20
172.28534595386404
 11
83.457493137668919
 21
155.35120783625422
  0
LINE
  8
_1-2_
  6
CONTINUOUS
 62
    7
 10
146.61136111697635
 20
162.59919037690034
 11
146.26442574165964
 21
163.60189077016472
  0
LINE
  8
_1-0_
  6
CONTINUOUS
 62
    7
 10
188.57430947793497
 20
177.71761507601352
 11
192.93434761665964
 21
179.72553974873313
  0
LINE
  8
_1-0_
  6
CONTINUOUS
 62
    7
 10
194.41171182168497
 20
176.44250818201016
 11
190.05669671135982
 21
174.4827600427576
  0
LINE
  8
_1-0_
  6
CONTINUOUS
 62
    7
 10
190.05669671135982
 20
174.4827600427576
 11
190.03447661528716
 21
174.47276347392315
  0
LINE
  8
_1-0_
  6
CONTINUOUS
 62
    7
 10
93.734460779138516
 20
135.03967697555956
 11
98.094548405827709
 21
137.04761402027029
  0
LINE
  8
_1-3_
  6
CONTINUOUS
 62
    7
 10
74.27215576171875
 20
141.42857319599875
 11
64.12578685863599
 21
169.30545291385135
  0
LINE
  8
_1-3_
  6
CONTINUOUS
 62
    7
 10
64.12578685863599
 20
169.30545291385135
 11
62.851917163745782
 21
169.30545291385135
  0
LINE
  8
_1-0_
  6
CONTINUOUS
 62
    7
 10
26.702344739759297
 20
100.97328804634714
 11
190.0594185494088
 21
174.48397249788852
  0
LINE
  8
_1-2_
  6
CONTINUOUS
 62
    3
 10
26.702344739759297
 20
107.67476262273016
 11
50.976463524070937
 21
115.83688684411952
  0
LINE
  8
_1-2_
  6
CONTINUOUS
 62
    3
 10
50.112948031038854
 20
118.71159321552999
 11
26.702344739759297
 21
110.83982725401184
  0
LINE
  8
_1-2_
  6
CONTINUOUS
 62
    7
 10
37.67169849292651
 20
129.72050022434544
 11
26.702344739759297
 21
126.0320756242082
  0
LINE
  8
_1-0_
  6
CONTINUOUS
 62
    7
 10
26.702344739759297
 20
83.427924078864024
 11
197.54670014252534
 21
160.30787287531672
  0
LINE
  8
_1-0_
  6
CONTINUOUS
 62
    7
 10
26.702344739759297
 20
96.586947054476354
 11
197.54670014252534
 21
173.46692059491133
  0
LINE
  8
_1-0_
  6
CONTINUOUS
 62
    7
 10
26.702344739759297
 20
99.218754123997044
 11
197.54670014252534
 21
176.09871529244089
  0
LINE
  8
_1-0_
  6
CONTINUOUS
 62
    7
 10
26.702344739759297
 20
100.31534555796031
 11
197.54670014252534
 21
177.19529435441302
  0
LINE
  8
_1-0_
  6
CONTINUOUS
 62
    7
 10
190.0594185494088
 20
174.48397249788852
 11
197.54670014252534
 21
177.85323684279984
  0
LINE
  8
_1-0_
  6
CONTINUOUS
 62
    7
 10
347.31865960198479
 20
110.45587488122889
 11
348.79597431904563
 21
113.73879510003168
  0
LINE
  8
_1-0_
  6
CONTINUOUS
 62
    7
 10
348.79597431904563
 20
113.73879510003168
 11
344.41873911264781
 21
115.70853980811867
  0
LINE
  8
_1-0_
  6
CONTINUOUS
 62
    7
 10
344.41873911264781
 20
115.70853980811867
 11
342.94142439558703
 21
112.42561958931589
  0
LINE
  8
_1-0_
  6
CONTINUOUS
 62
    7
 10
342.94142439558703
 20
112.42561958931589
 11
347.31865960198479
 21
110.45587488122889
  0
LINE
  8
_1-0_
  6
CONTINUOUS
 62
    7
 10
348.79597431904563
 20
113.73879510003168
 11
342.94142439558703
 21
112.42561958931589
  0
LINE
  8
_1-0_
  6
CONTINUOUS
 62
    7
 10
296.99882713524073
 20
137.04750267235011
 11
295.5215124181799
 21
133.76458245354729
  0
LINE
  8
_1-0_
  6
CONTINUOUS
 62
    7
 10
295.5215124181799
 20
133.76458245354729
 11
299.89874762457771
 21
131.79483774546031
  0
LINE
  8
_1-0_
  6
CONTINUOUS
 62
    7
 10
249.57891515783362
 20
158.38646553658151
 11
248.10160044077281
 21
155.10354531777872
  0
LINE
  8
_1-0_
  6
CONTINUOUS
 62
    7
 10
248.10160044077281
 20
155.10354531777872
 11
252.47883564717063
 21
153.13380060969172
  0
LINE
  8
_1-2_
  6
CONTINUOUS
 62
    3
 10
343.32018053209464
 20
113.46732887061867
 11
341.50063179634714
 21
114.0791485760663
  0
LINE
  8
ADD_LINE
  6
DOT
 62
    7
 10
344.98045225401182
 20
118.71159321552999
 11
345.15314050622891
 21
119.28651964342272
  0
LINE
  8
_1-2_
  6
CONTINUOUS
 62
    3
 10
345.15314050622891
 20
119.28651964342272
 11
344.98045225401182
 21
118.71159321552999
  0
LINE
  8
_1-2_
  6
CONTINUOUS
 62
    3
 10
344.11693676097974
 20
115.83688684411952
 11
343.31760715793922
 21
113.45967060810811
  0
LINE
  8
_1-2_
  6
CONTINUOUS
 62
    3
 10
345.15314050622891
 20
119.28651964342272
 11
343.2564400337838
 21
119.92429578626479
  0
LINE
  8
_1-2_
  6
CONTINUOUS
 62
    3
 10
341.50063179634714
 20
114.0791485760663
 11
343.2564400337838
 21
119.92429578626479
  0
LINE
  8
_1-0_
  6
CONTINUOUS
 62
    7
 10
296.99882713524073
 20
137.04749030035896
 11
295.5215124181799
 21
133.76457008155617
  0
LINE
  8
_1-0_
  6
CONTINUOUS
 62
    7
 10
295.5215124181799
 20
133.76457008155617
 11
299.89874762457771
 21
131.79482537346917
  0
LINE
  8
_1-2_
  6
CONTINUOUS
 62
    3
 10
295.90934959617823
 20
134.8029512972445
 11
294.09519504856422
 21
135.43061952333193
  0
LINE
  8
ADD_LINE
  6
DOT
 62
    7
 10
297.61529870935391
 20
140.03253008868245
 11
297.79303473395271
 21
140.60592238967484
  0
LINE
  8
_1-2_
  6
CONTINUOUS
 62
    3
 10
297.79303473395271
 20
140.60592238967484
 11
297.61529870935391
 21
140.03253008868245
  0
LINE
  8
_1-2_
  6
CONTINUOUS
 62
    3
 10
296.72674230627115
 20
137.16545723580026
 11
295.90670199007604
 21
134.79530540672511
  0
LINE
  8
_1-2_
  6
CONTINUOUS
 62
    3
 10
352.3702673009924
 20
117.06460901208827
 11
351.61386850717906
 21
117.32632611248945
  0
LINE
  8
_1-2_
  6
CONTINUOUS
 62
    3
 10
350.45159417229729
 20
118.57719627586572
 11
296.72674230627115
 21
137.16545723580026
  0
LINE
  8
_1-2_
  6
CONTINUOUS
 62
    3
 10
351.47636619774073
 20
116.88269125448691
 11
351.61386850717906
 21
117.32632611248945
  0
LINE
  8
_1-2_
  6
CONTINUOUS
 62
    3
 10
352.22890493032099
 20
116.60851555901606
 11
352.3702673009924
 21
117.06460901208827
  0
LINE
  8
_1-2_
  6
CONTINUOUS
 62
    3
 10
350.74718578441724
 20
116.91645441828548
 11
351.21991956556167
 21
116.75287195154139
  0
LINE
  8
_1-2_
  6
CONTINUOUS
 62
    3
 10
350.62153584248313
 20
117.16466130437078
 11
350.8285192541174
 21
117.83255087362754
  0
LINE
  8
_1-2_
  6
CONTINUOUS
 62
    3
 10
352.82733814136407
 20
116.19672620618667
 11
352.35455487225511
 21
116.36030867293076
  0
LINE
  8
_1-2_
  6
CONTINUOUS
 62
    3
 10
297.61529870935391
 20
140.03253008868245
 11
354.34738571579396
 21
120.40377230257602
  0
LINE
  8
_1-2_
  6
CONTINUOUS
 62
    3
 10
353.08376002956084
 20
116.32653313714106
 11
354.34738571579396
 21
120.40377230257602
  0
LINE
  8
_1-2_
  6
CONTINUOUS
 62
    3
 10
294.09519504856422
 20
135.43061952333193
 11
295.90195114548146
 21
141.26022751266893
  0
LINE
  8
_1-2_
  6
CONTINUOUS
 62
    7
 10
354.34738571579396
 20
120.40377230257602
 11
359.05581912478885
 21
134.01224497202281
  0
LINE
  8
_1-0_
  6
CONTINUOUS
 62
    7
 10
299.89874762457771
 20
131.79483774546031
 11
301.3589147619299
 21
135.03968934755068
  0
LINE
  8
_1-0_
  6
CONTINUOUS
 62
    7
 10
299.89874762457771
 20
131.79482537346917
 11
301.35893950591219
 21
135.03967697555956
  0
LINE
  8
_1-0_
  6
CONTINUOUS
 62
    7
 10
301.3589147619299
 20
135.03968934755068
 11
295.5215124181799
 21
133.76458245354729
  0
LINE
  8
_1-0_
  6
CONTINUOUS
 62
    7
 10
345.15314050622891
 20
119.28651964342272
 11
345.45895138302365
 21
120.30459842166385
  0
LINE
  8
_1-0_
  6
CONTINUOUS
 62
    7
 10
249.57891515783362
 20
158.38646553658151
 11
248.10160044077281
 21
155.10354531777872
  0
LINE
  8
_1-0_
  6
CONTINUOUS
 62
    7
 10
248.10160044077281
 20
155.10354531777872
 11
252.47883564717063
 21
153.13380060969172
  0
LINE
  8
_1-0_
  6
CONTINUOUS
 62
    7
 10
249.57891515783362
 20
158.38645316459039
 11
248.10160044077281
 21
155.10353294578761
  0
LINE
  8
_1-0_
  6
CONTINUOUS
 62
    7
 10
248.10160044077281
 20
155.10353294578761
 11
252.47883564717063
 21
153.1337882377006
  0
LINE
  8
_1-2_
  6
CONTINUOUS
 62
    3
 10
250.31331655141472
 20
161.96443299989443
 11
250.14062829919766
 21
161.38950657200169
  0
LINE
  8
_1-2_
  6
CONTINUOUS
 62
    3
 10
248.48943761877112
 20
156.14191416147594
 11
246.67528307115711
 21
156.76958238756336
  0
LINE
  8
ADD_LINE
  6
DOT
 62
    7
 10
250.1953867319468
 20
161.37149295291385
 11
250.37312275654563
 21
161.94488525390625
  0
LINE
  8
_1-2_
  6
CONTINUOUS
 62
    3
 10
250.37312275654563
 20
161.94488525390625
 11
250.1953867319468
 21
161.37149295291385
  0
LINE
  8
_1-2_
  6
CONTINUOUS
 62
    3
 10
249.30683032886404
 20
158.50442010003169
 11
248.48679001266893
 21
156.13426827095651
  0
LINE
  8
_1-2_
  6
CONTINUOUS
 62
    3
 10
304.95035532358531
 20
138.40357187631969
 11
304.19395652977198
 21
138.66528897672086
  0
LINE
  8
_1-2_
  6
CONTINUOUS
 62
    3
 10
303.03168219489021
 20
139.91615914009714
 11
249.30683032886404
 21
158.50442010003169
  0
LINE
  8
_1-2_
  6
CONTINUOUS
 62
    3
 10
304.05645422033365
 20
138.22165411871833
 11
304.19395652977198
 21
138.66528897672086
  0
LINE
  8
_1-2_
  6
CONTINUOUS
 62
    3
 10
304.80899295291385
 20
137.94747842324747
 11
304.95035532358531
 21
138.40357187631969
  0
LINE
  8
_1-2_
  6
CONTINUOUS
 62
    3
 10
303.32727380701016
 20
138.2554172825169
 11
303.80000758815459
 21
138.09183481577281
  0
LINE
  8
_1-2_
  6
CONTINUOUS
 62
    3
 10
303.20162386507604
 20
138.50362416860222
 11
303.40860727671031
 21
139.17151373785896
  0
LINE
  8
_1-2_
  6
CONTINUOUS
 62
    3
 10
305.40742616395693
 20
137.53568907041807
 11
304.93464289484797
 21
137.69927153716216
  0
LINE
  8
_1-2_
  6
CONTINUOUS
 62
    3
 10
250.1953867319468
 20
161.37149295291385
 11
306.92747373838682
 21
141.74273516680745
  0
LINE
  8
_1-2_
  6
CONTINUOUS
 62
    3
 10
305.66384805215375
 20
137.66549600137247
 11
306.92747373838682
 21
141.74273516680745
  0
LINE
  8
_1-2_
  6
CONTINUOUS
 62
    3
 10
246.67528307115711
 20
156.76958238756336
 11
248.48203916807435
 21
162.59919037690034
  0
LINE
  8
_1-2_
  6
CONTINUOUS
 62
    7
 10
306.92747373838682
 20
141.74273516680745
 11
311.63590714738177
 21
155.35120783625422
  0
LINE
  8
_1-0_
  6
CONTINUOUS
 62
    7
 10
252.47883564717063
 20
153.13380060969172
 11
253.93900278452281
 21
156.37865221178211
  0
LINE
  8
_1-0_
  6
CONTINUOUS
 62
    7
 10
252.47883564717063
 20
153.1337882377006
 11
253.93902752850508
 21
156.37863983979096
  0
LINE
  8
_1-0_
  6
CONTINUOUS
 62
    7
 10
253.93902752850508
 20
156.37863983979096
 11
249.607494457348
 21
158.37343782991977
  0
LINE
  8
_1-0_
  6
CONTINUOUS
 62
    7
 10
253.93900278452281
 20
156.37865221178211
 11
248.10160044077281
 21
155.10354531777872
  0
LINE
  8
_1-0_
  6
CONTINUOUS
 62
    7
 10
200.68166371938347
 20
176.44250818201016
 11
205.05889892578125
 21
174.47276347392315
  0
LINE
  8
ADD_LINE
  6
DOT
 62
    7
 10
199.25534634976773
 20
178.10854525179477
 11
202.69597233952703
 21
189.21010610219597
  0
LINE
  8
_1-2_
  6
CONTINUOUS
 62
    3
 10
201.06950089738177
 20
177.48086465371622
 11
199.25534634976773
 21
178.10854525179477
  0
LINE
  8
ADD_LINE
  6
DOT
 62
    7
 10
202.77545001055745
 20
182.71045581714529
 11
202.95318603515625
 21
183.28384811813768
  0
LINE
  8
_1-2_
  6
CONTINUOUS
 62
    3
 10
202.95318603515625
 20
183.28384811813768
 11
202.77545001055745
 21
182.71045581714529
  0
LINE
  8
_1-2_
  6
CONTINUOUS
 62
    3
 10
201.88689360747466
 20
179.84337059227198
 11
201.06685329127959
 21
177.47324350717906
  0
LINE
  8
_1-2_
  6
CONTINUOUS
 62
    3
 10
257.53041860219594
 20
159.74253474055109
 11
256.7740445523649
 21
160.00425184095229
  0
LINE
  8
_1-2_
  6
CONTINUOUS
 62
    3
 10
255.61172072951859
 20
161.25512200432857
 11
201.88689360747466
 21
179.84337059227198
  0
LINE
  8
_1-2_
  6
CONTINUOUS
 62
    3
 10
256.63651749894427
 20
159.56061698294977
 11
256.7740445523649
 21
160.00425184095229
  0
LINE
  8
_1-2_
  6
CONTINUOUS
 62
    3
 10
257.38908097550677
 20
159.28644128747891
 11
257.53041860219594
 21
159.74253474055109
  0
LINE
  8
_1-2_
  6
CONTINUOUS
 62
    3
 10
255.90731234163852
 20
159.59438014674831
 11
256.38007086676521
 21
159.43079768000422
  0
LINE
  8
_1-2_
  6
CONTINUOUS
 62
    3
 10
255.78168714368667
 20
159.84258703283362
 11
255.98867055532097
 21
160.51047660209039
  0
LINE
  8
_1-2_
  6
CONTINUOUS
 62
    3
 10
257.98748944256761
 20
158.87465193464951
 11
257.51473091744089
 21
159.03823440139359
  0
LINE
  8
_1-2_
  6
CONTINUOUS
 62
    3
 10
202.77545001055745
 20
182.71045581714529
 11
259.50756176097974
 21
163.08169803103885
  0
LINE
  8
_1-2_
  6
CONTINUOUS
 62
    3
 10
258.24393607474661
 20
159.00445886560388
 11
259.50756176097974
 21
163.08169803103885
  0
LINE
  8
_1-2_
  6
CONTINUOUS
 62
    3
 10
202.95318603515625
 20
183.28384811813768
 11
201.06210244668497
 21
183.93815324113177
  0
LINE
  8
_1-2_
  6
CONTINUOUS
 62
    3
 10
199.25534634976773
 20
178.10854525179477
 11
201.06210244668497
 21
183.93815324113177
  0
LINE
  8
_1-2_
  6
CONTINUOUS
 62
    7
 10
259.50756176097974
 20
163.08169803103885
 11
264.21594568201016
 21
176.69017070048565
  0
LINE
  8
_1-2_
  6
CONTINUOUS
 62
    7
 10
205.5743408203125
 20
196.97961755701016
 11
264.21594568201016
 21
176.69017070048565
  0
LINE
  8
_1-2_
  6
CONTINUOUS
 62
    7
 10
201.06210244668497
 20
183.93815324113177
 11
205.5743408203125
 21
196.97961755701016
  0
LINE
  8
_1-2_
  6
CONTINUOUS
 62
    7
 10
310.11187579180745
 20
150.9463830896326
 11
359.05581912478885
 21
134.01224497202281
  0
LINE
  8
_1-2_
  6
CONTINUOUS
 62
    7
 10
295.90195114548146
 20
141.26022751266893
 11
296.24888652079818
 21
142.26292790593328
  0
LINE
  8
_1-2_
  6
CONTINUOUS
 62
    3
 10
297.79303473395271
 20
140.60592238967484
 11
295.90192640149917
 21
141.26022751266893
  0
LINE
  8
ADD_LINE
  6
DOT
 62
    7
 10
294.09519504856422
 20
135.43061952333193
 11
295.90192640149917
 21
141.26022751266893
  0
LINE
  8
_1-2_
  6
CONTINUOUS
 62
    7
 10
297.79303473395271
 20
140.60592238967484
 11
298.10730805268162
 21
141.61994315482477
  0
LINE
  8
ADD_LINE
  6
DOT
 62
    7
 10
246.67528307115711
 20
156.76958238756336
 11
248.48201442409209
 21
162.59919037690034
  0
LINE
  8
_1-2_
  6
CONTINUOUS
 62
    3
 10
250.37312275654563
 20
161.94488525390625
 11
248.48201442409209
 21
162.59919037690034
  0
LINE
  8
_1-2_
  6
CONTINUOUS
 62
    7
 10
262.69193907041807
 20
172.28534595386404
 11
311.63590714738177
 21
155.35120783625422
  0
LINE
  8
_1-2_
  6
CONTINUOUS
 62
    7
 10
248.48203916807435
 20
162.59919037690034
 11
248.82897454339107
 21
163.60189077016472
  0
LINE
  8
_1-0_
  6
CONTINUOUS
 62
    7
 10
206.51909080711573
 20
177.71761507601352
 11
202.15905266839107
 21
179.72553974873313
  0
LINE
  8
_1-0_
  6
CONTINUOUS
 62
    7
 10
200.68168846336573
 20
176.44250818201016
 11
205.03670357369089
 21
174.4827600427576
  0
LINE
  8
_1-0_
  6
CONTINUOUS
 62
    7
 10
205.03670357369089
 20
174.4827600427576
 11
205.05892366976352
 21
174.47276347392315
  0
LINE
  8
_1-0_
  6
CONTINUOUS
 62
    7
 10
301.35893950591219
 20
135.03967697555956
 11
296.99885187922297
 21
137.04761402027029
  0
LINE
  8
_1-3_
  6
CONTINUOUS
 62
    7
 10
320.82124452333193
 20
141.42857319599875
 11
330.96761342641469
 21
169.30545291385135
  0
LINE
  8
_1-3_
  6
CONTINUOUS
 62
    7
 10
330.96761342641469
 20
169.30545291385135
 11
332.2414831213049
 21
169.30545291385135
  0
LINE
  8
_1-0_
  6
CONTINUOUS
 62
    7
 10
368.39105554529141
 20
100.97328804634714
 11
205.0339817356419
 21
174.48397249788852
  0
LINE
  8
_1-2_
  6
CONTINUOUS
 62
    3
 10
368.39105554529141
 20
107.67476262273016
 11
344.11693676097974
 21
115.83688684411952
  0
LINE
  8
_1-2_
  6
CONTINUOUS
 62
    3
 10
344.98045225401182
 20
118.71159321552999
 11
368.39105554529141
 21
110.83982725401184
  0
LINE
  8
_1-2_
  6
CONTINUOUS
 62
    7
 10
357.42170179212417
 20
129.72050022434544
 11
368.39105554529141
 21
126.0320756242082
  0
LINE
  8
ADD_LINE
  6
DOT
 62
    7
 10
197.54670014252534
 20
181.17630417282518
 11
197.54670014252534
 21
218.48926441089529
  0
LINE
  8
_1-0_
  6
CONTINUOUS
 62
    7
 10
368.39105554529141
 20
83.427924078864024
 11
197.54670014252534
 21
160.30787287531672
  0
LINE
  8
_1-0_
  6
CONTINUOUS
 62
    7
 10
368.39105554529141
 20
96.586947054476354
 11
197.54670014252534
 21
173.46692059491133
  0
LINE
  8
_1-0_
  6
CONTINUOUS
 62
    7
 10
368.39105554529141
 20
99.218754123997044
 11
197.54670014252534
 21
176.09871529244089
  0
LINE
  8
_1-0_
  6
CONTINUOUS
 62
    7
 10
368.39105554529141
 20
100.31534555796031
 11
197.54670014252534
 21
177.19529435441302
  0
LINE
  8
_1-0_
  6
CONTINUOUS
 62
    7
 10
205.0339817356419
 20
174.48397249788852
 11
197.54670014252534
 21
177.85323684279984
  0
LINE
  8
_1-1_
  6
CONTINUOUS
 62
    7
 10
216.62574561866555
 20
193.1140879038218
 11
224.48621595228042
 21
192.1141340925887
  0
LINE
  8
_1-1_
  6
CONTINUOUS
 62
    7
 10
170.48622337547511
 20
192.11408460462417
 11
178.34670608108109
 21
193.1140879038218
  0
LINE
  8
_1-1_
  6
CONTINUOUS
 62
    7
 10
96.461996130041186
 20
134.27354142472552
 11
121.71837059227197
 21
64.882210396431589
  0
LINE
  8
_1-1_
  6
CONTINUOUS
 62
    7
 10
188.59021985853042
 20
211.4682336755701
 11
176.87583717139992
 21
243.65325102934969
  0
LINE
  8
_1-1_
  6
CONTINUOUS
 62
    7
 10
176.87583717139992
 20
243.65325102934969
 11
171.08108108108109
 21
243.65325102934969
  0
LINE
  8
_1-1_
  6
CONTINUOUS
 62
    7
 10
195.95953451620568
 20
191.04351146801099
 11
199.19983322555956
 21
191.04351146801099
  0
LINE
  8
_1-1_
  6
CONTINUOUS
 62
    7
 10
196.35953336148648
 20
190.64351262273016
 11
198.79983438027872
 21
190.64351262273016
  0
LINE
  8
_1-1_
  6
CONTINUOUS
 62
    7
 10
199.19983322555956
 20
177.438305004223
 11
199.19983322555956
 21
191.04351146801099
  0
LINE
  8
_1-1_
  6
CONTINUOUS
 62
    7
 10
198.79983438027872
 20
177.2893338590055
 11
198.79983438027872
 21
190.64351262273016
  0
LINE
  8
_1-0_
  6
CONTINUOUS
 62
    7
 10
206.51906606313347
 20
177.71761507601352
 11
201.17382152660474
 21
176.55000841295399
  0
LINE
  8
_1-0_
  6
CONTINUOUS
 62
    7
 10
200.68168846336573
 20
176.44250818201016
 11
200.68166371938347
 21
176.44250818201016
  0
LINE
  8
_1-0_
  6
CONTINUOUS
 62
    7
 10
202.15905266839107
 20
179.72553974873313
 11
200.80478977512669
 21
176.71607764991555
  0
LINE
  8
_1-0_
  6
CONTINUOUS
 62
    7
 10
205.18201260953336
 20
174.74633294182857
 11
206.51909080711573
 21
177.71761507601352
  0
LINE
  8
_1-1_
  6
CONTINUOUS
 62
    7
 10
209.92401123046875
 20
172.61244902739654
 11
209.80090991870779
 21
172.3388671875
  0
LINE
  8
_1-0_
  6
CONTINUOUS
 62
    7
 10
205.05889892578125
 20
174.47276347392315
 11
205.05889892578125
 21
174.47277584591427
  0
LINE
  8
_1-0_
  6
CONTINUOUS
 62
    7
 10
205.18201260953336
 20
174.74634531381969
 11
206.51906606313347
 21
177.71761507601352
  0
LINE
  8
_1-1_
  6
CONTINUOUS
 62
    7
 10
199.19983322555956
 20
177.438305004223
 11
209.92401123046875
 21
172.61244902739654
  0
LINE
  8
_1-0_
  6
CONTINUOUS
 62
    7
 10
202.15897843644427
 20
179.7254160288218
 11
200.80477740313557
 21
176.71609002190669
  0
LINE
  8
_1-0_
  6
CONTINUOUS
 62
    7
 10
202.15897843644427
 20
179.72544077280406
 11
200.80477740313557
 21
176.71607764991555
  0
LINE
  8
_1-1_
  6
CONTINUOUS
 62
    7
 10
196.35953336148648
 20
177.64801025390625
 11
196.35953336148648
 21
190.64351262273016
  0
LINE
  8
_1-1_
  6
CONTINUOUS
 62
    7
 10
196.35953336148648
 20
177.64801025390625
 11
196.35953336148648
 21
177.31901426573057
  0
LINE
  8
_1-1_
  6
CONTINUOUS
 62
    7
 10
195.95953451620568
 20
177.46801015493034
 11
195.95953451620568
 21
191.04351146801099
  0
LINE
  8
_1-0_
  6
CONTINUOUS
 62
    7
 10
188.57433422191724
 20
177.71761507601352
 11
193.9195540144637
 21
176.5500207849451
  0
LINE
  8
_1-0_
  6
CONTINUOUS
 62
    7
 10
194.41171182168497
 20
176.44250818201016
 11
194.41173656566724
 21
176.44250818201016
  0
LINE
  8
_1-0_
  6
CONTINUOUS
 62
    7
 10
192.93442184860643
 20
179.72544077280406
 11
194.28862288191513
 21
176.71609002190669
  0
LINE
  8
_1-0_
  6
CONTINUOUS
 62
    7
 10
192.93442184860643
 20
179.7254160288218
 11
194.28862288191513
 21
176.71610239389781
  0
LINE
  8
_1-0_
  6
CONTINUOUS
 62
    7
 10
192.93434761665964
 20
179.72553974873313
 11
194.28859813793287
 21
176.71609002190669
  0
LINE
  8
_1-1_
  6
CONTINUOUS
 62
    7
 10
185.16938905458193
 20
172.61243665540542
 11
195.95953451620568
 21
177.46801015493034
  0
LINE
  8
_1-1_
  6
CONTINUOUS
 62
    7
 10
185.16938905458193
 20
172.61243665540542
 11
185.29250273833404
 21
172.33885481550888
  0
LINE
  8
_1-0_
  6
CONTINUOUS
 62
    7
 10
190.03450135926943
 20
174.47273872994089
 11
190.03448898727831
 21
174.47275110193203
  0
LINE
  8
_1-0_
  6
CONTINUOUS
 62
    7
 10
189.9113753035262
 20
174.74634531381969
 11
188.57430947793497
 21
177.71761507601352
  0
LINE
  8
_1-1_
  6
CONTINUOUS
 62
    7
 10
196.94669568860854
 20
193.1140879038218
 11
198.14670459644216
 21
193.1140879038218
  0
LINE
  8
_1-1_
  6
CONTINUOUS
 62
    7
 10
196.94669568860854
 20
192.81409186285896
 11
198.14670459644216
 21
192.81409186285896
  0
LINE
  8
_1-1_
  6
CONTINUOUS
 62
    7
 10
196.94669568860854
 20
192.51409582189612
 11
198.14670459644216
 21
192.51409582189612
  0
LINE
  8
_1-1_
  6
CONTINUOUS
 62
    7
 10
196.94669568860854
 20
192.21409978093328
 11
198.14670459644216
 21
192.21409978093328
  0
LINE
  8
_1-1_
  6
CONTINUOUS
 62
    7
 10
196.94669568860854
 20
191.91410373997044
 11
198.14670459644216
 21
191.91410373997044
  0
LINE
  8
_1-1_
  6
CONTINUOUS
 62
    7
 10
196.94669568860854
 20
191.6141076990076
 11
198.14670459644216
 21
191.6141076990076
  0
LINE
  8
_1-1_
  6
CONTINUOUS
 62
    7
 10
196.94669568860854
 20
191.31411165804477
 11
198.14670459644216
 21
191.31411165804477
  0
LINE
  8
_1-1_
  6
CONTINUOUS
 62
    7
 10
196.94669568860854
 20
190.34351658176732
 11
198.14670459644216
 21
190.34351658176732
  0
LINE
  8
_1-1_
  6
CONTINUOUS
 62
    7
 10
196.94669568860854
 20
190.04352054080448
 11
198.14670459644216
 21
190.04352054080448
  0
LINE
  8
_1-1_
  6
CONTINUOUS
 62
    7
 10
196.94669568860854
 20
189.74352449984164
 11
198.14670459644216
 21
189.74352449984164
  0
LINE
  8
_1-1_
  6
CONTINUOUS
 62
    7
 10
196.94669568860854
 20
189.4435284588788
 11
198.14670459644216
 21
189.4435284588788
  0
LINE
  8
_1-1_
  6
CONTINUOUS
 62
    7
 10
196.94669568860854
 20
189.14353241791596
 11
198.14670459644216
 21
189.14353241791596
  0
LINE
  8
_1-1_
  6
CONTINUOUS
 62
    7
 10
196.94669568860854
 20
188.84353637695312
 11
198.14670459644216
 21
188.84353637695312
  0
LINE
  8
_1-1_
  6
CONTINUOUS
 62
    7
 10
196.94669568860854
 20
188.54354033599029
 11
198.14670459644216
 21
188.54354033599029
  0
LINE
  8
_1-1_
  6
CONTINUOUS
 62
    7
 10
196.94669568860854
 20
188.24354429502745
 11
198.14670459644216
 21
188.24354429502745
  0
LINE
  8
_1-1_
  6
CONTINUOUS
 62
    7
 10
196.94669568860854
 20
187.94354825406461
 11
198.14670459644216
 21
187.94354825406461
  0
LINE
  8
_1-1_
  6
CONTINUOUS
 62
    7
 10
196.94669568860854
 20
187.64355221310177
 11
198.14670459644216
 21
187.64355221310177
  0
LINE
  8
_1-1_
  6
CONTINUOUS
 62
    7
 10
196.94669568860854
 20
187.34355617213896
 11
198.14670459644216
 21
187.34355617213896
  0
LINE
  8
_1-1_
  6
CONTINUOUS
 62
    7
 10
196.94669568860854
 20
187.04356013117612
 11
198.14670459644216
 21
187.04356013117612
  0
LINE
  8
_1-1_
  6
CONTINUOUS
 62
    7
 10
196.94669568860854
 20
186.74356409021328
 11
198.14670459644216
 21
186.74356409021328
  0
LINE
  8
_1-1_
  6
CONTINUOUS
 62
    7
 10
196.94669568860854
 20
186.44356804925044
 11
198.14670459644216
 21
186.44356804925044
  0
LINE
  8
_1-1_
  6
CONTINUOUS
 62
    7
 10
196.94669568860854
 20
186.14357200828761
 11
198.14670459644216
 21
186.14357200828761
  0
LINE
  8
_1-1_
  6
CONTINUOUS
 62
    7
 10
196.94669568860854
 20
185.84357596732477
 11
198.14670459644216
 21
185.84357596732477
  0
LINE
  8
_1-1_
  6
CONTINUOUS
 62
    7
 10
196.94669568860854
 20
185.54357992636193
 11
198.14670459644216
 21
185.54357992636193
  0
LINE
  8
_1-1_
  6
CONTINUOUS
 62
    7
 10
196.94669568860854
 20
185.24358388539909
 11
198.14670459644216
 21
185.24358388539909
  0
LINE
  8
_1-1_
  6
CONTINUOUS
 62
    7
 10
196.94669568860854
 20
184.94358784443625
 11
198.14670459644216
 21
184.94358784443625
  0
LINE
  8
_1-1_
  6
CONTINUOUS
 62
    7
 10
196.94669568860854
 20
184.64359180347341
 11
198.14670459644216
 21
184.64359180347341
  0
LINE
  8
_1-1_
  6
CONTINUOUS
 62
    7
 10
196.94669568860854
 20
184.34359576251057
 11
198.14670459644216
 21
184.34359576251057
  0
LINE
  8
_1-1_
  6
CONTINUOUS
 62
    7
 10
196.94669568860854
 20
184.04359972154774
 11
198.14670459644216
 21
184.04359972154774
  0
LINE
  8
_1-1_
  6
CONTINUOUS
 62
    7
 10
196.94669568860854
 20
183.7436036805849
 11
198.14670459644216
 21
183.7436036805849
  0
LINE
  8
_1-1_
  6
CONTINUOUS
 62
    7
 10
196.94669568860854
 20
183.44360763962206
 11
198.14670459644216
 21
183.44360763962206
  0
LINE
  8
_1-1_
  6
CONTINUOUS
 62
    7
 10
196.94669568860854
 20
183.14361159865922
 11
198.14670459644216
 21
183.14361159865922
  0
LINE
  8
_1-1_
  6
CONTINUOUS
 62
    7
 10
196.94669568860854
 20
182.84361555769638
 11
198.14670459644216
 21
182.84361555769638
  0
LINE
  8
_1-1_
  6
CONTINUOUS
 62
    7
 10
196.94669568860854
 20
182.54361951673354
 11
198.14670459644216
 21
182.54361951673354
  0
LINE
  8
_1-1_
  6
CONTINUOUS
 62
    7
 10
196.94669568860854
 20
182.2436234757707
 11
198.14670459644216
 21
182.2436234757707
  0
LINE
  8
_1-1_
  6
CONTINUOUS
 62
    7
 10
196.94669568860854
 20
181.94362743480787
 11
198.14670459644216
 21
181.94362743480787
  0
LINE
  8
_1-1_
  6
CONTINUOUS
 62
    7
 10
196.94669568860854
 20
181.64363139384503
 11
198.14670459644216
 21
181.64363139384503
  0
LINE
  8
_1-1_
  6
CONTINUOUS
 62
    7
 10
196.94669568860854
 20
181.34363535288219
 11
198.14670459644216
 21
181.34363535288219
  0
LINE
  8
_1-1_
  6
CONTINUOUS
 62
    7
 10
196.94669568860854
 20
181.04363931191935
 11
198.14670459644216
 21
181.04363931191935
  0
LINE
  8
_1-1_
  6
CONTINUOUS
 62
    7
 10
196.94669568860854
 20
180.74364327095651
 11
198.14670459644216
 21
180.74364327095651
  0
LINE
  8
_1-1_
  6
CONTINUOUS
 62
    7
 10
196.94669568860854
 20
180.44364722999367
 11
198.14670459644216
 21
180.44364722999367
  0
LINE
  8
_1-1_
  6
CONTINUOUS
 62
    7
 10
196.94669568860854
 20
180.14365118903083
 11
198.14670459644216
 21
180.14365118903083
  0
LINE
  8
_1-1_
  6
CONTINUOUS
 62
    7
 10
196.94669568860854
 20
179.843655148068
 11
198.14670459644216
 21
179.843655148068
  0
LINE
  8
_1-1_
  6
CONTINUOUS
 62
    7
 10
196.94669568860854
 20
179.54365910710516
 11
198.14670459644216
 21
179.54365910710516
  0
LINE
  8
_1-1_
  6
CONTINUOUS
 62
    7
 10
196.94669568860854
 20
179.24366306614232
 11
198.14670459644216
 21
179.24366306614232
  0
LINE
  8
_1-1_
  6
CONTINUOUS
 62
    7
 10
196.94669568860854
 20
178.94366702517948
 11
198.14670459644216
 21
178.94366702517948
  0
LINE
  8
_1-1_
  6
CONTINUOUS
 62
    7
 10
196.94669568860854
 20
178.64367098421664
 11
198.14670459644216
 21
178.64367098421664
  0
LINE
  8
_1-1_
  6
CONTINUOUS
 62
    7
 10
196.94669568860854
 20
178.3436749432538
 11
198.14670459644216
 21
178.3436749432538
  0
LINE
  8
_1-1_
  6
CONTINUOUS
 62
    7
 10
196.94669568860854
 20
178.04367890229096
 11
198.14670459644216
 21
178.04367890229096
  0
LINE
  8
_1-1_
  6
CONTINUOUS
 62
    7
 10
196.94669568860854
 20
177.74368286132812
 11
197.30324410103464
 21
177.74368286132812
  0
LINE
  8
_1-1_
  6
CONTINUOUS
 62
    7
 10
197.79015618401607
 20
177.74368286132812
 11
198.14670459644216
 21
177.74368286132812
  0
LINE
  8
_1-1_
  6
CONTINUOUS
 62
    7
 10
196.94669568860854
 20
190.64351262273016
 11
196.94669568860854
 21
177.58323050834039
  0
LINE
  8
_1-1_
  6
CONTINUOUS
 62
    7
 10
198.14670459644216
 20
190.64351262273016
 11
198.14670459644216
 21
177.58323050834039
  0
LINE
  8
_1-1_
  6
DASHED1
 62
    7
 10
198.14670459644216
 20
215.11403676625847
 11
198.14670459644216
 21
199.33163204708615
  0
LINE
  8
_1-1_
  6
DASHED1
 62
    7
 10
196.94669568860854
 20
215.11403676625847
 11
196.94669568860854
 21
199.33163204708615
  0
LINE
  8
_1-1_
  6
DASHED1
 62
    7
 10
196.94669568860854
 20
199.33163204708615
 11
197.45919304925044
 21
198.76624442435602
  0
LINE
  8
_1-1_
  6
DASHED1
 62
    7
 10
198.14670459644216
 20
199.33163204708615
 11
197.45919304925044
 21
198.76624442435602
  0
LINE
  8
_1-1_
  6
CONTINUOUS
 62
    7
 10
195.76303018105997
 20
215.45317778716216
 11
199.28583093591641
 21
215.45317778716216
  0
LINE
  8
_1-1_
  6
CONTINUOUS
 62
    7
 10
195.76303018105997
 20
215.45317778716216
 11
195.76303018105997
 21
215.05974846917232
  0
LINE
  8
_1-1_
  6
CONTINUOUS
 62
    7
 10
199.28583093591641
 20
215.45317778716216
 11
199.28583093591641
 21
215.05482441670188
  0
LINE
  8
_1-1_
  6
CONTINUOUS
 62
    7
 10
197.54670014252534
 20
215.45317778716216
 11
208.0919915276605
 21
244.42612931535052
  0
LINE
  8
_1-1_
  6
CONTINUOUS
 62
    7
 10
198.77073545713682
 20
198.88386494404563
 11
208.79407728040542
 21
230.14927219700169
  0
LINE
  8
_1-1_
  6
CONTINUOUS
 62
    7
 10
178.65073539115289
 20
229.94624782252959
 11
194.81682029930323
 21
185.53030477987755
  0
LINE
  8
_1-1_
  6
CONTINUOUS
 62
    7
 10
194.81682029930323
 20
185.53030477987755
 11
197.18214705183701
 21
185.53030477987755
  0
LINE
  8
_1-1_
  6
CONTINUOUS
 62
    7
 10
158.68882462785052
 20
218.13394082559122
 11
170.83356702649917
 21
184.76654465134081
  0
LINE
  8
_1-1_
  6
CONTINUOUS
 62
    7
 10
170.83356702649917
 20
184.76654465134081
 11
187.30981775232266
 21
188.26854808910474
  0
LINE
  8
_1-1_
  6
CONTINUOUS
 62
    7
 10
208.0919915276605
 20
244.42612931535052
 11
213.02722827808279
 21
244.42612931535052
  0
LINE
  8
_1-1_
  6
CONTINUOUS
 62
    7
 10
208.79407728040542
 20
230.14927219700169
 11
213.85681977143159
 21
230.14927219700169
  0
LINE
  8
_1-1_
  6
CONTINUOUS
 62
    7
 10
178.65073539115289
 20
229.94624782252959
 11
174.86590823611698
 21
229.94624782252959
  0
LINE
  8
_1-1_
  6
CONTINUOUS
 62
    7
 10
158.68882462785052
 20
218.13394082559122
 11
153.71125092377534
 21
218.13394082559122
  0
LINE
  8
_1-1_
  6
CONTINUOUS
 62
    7
 10
194.84228185705237
 20
195.3983904864337
 11
199.0718697212838
 21
195.3983904864337
  0
LINE
  8
_1-1_
  6
CONTINUOUS
 62
    7
 10
193.2467032767631
 20
203.99839658994932
 11
201.84669700828761
 21
203.99839658994932
  0
LINE
  8
_1-1_
  6
CONTINUOUS
 62
    7
 10
201.84669700828761
 20
203.99839658994932
 11
201.84669700828761
 21
195.3983904864337
  0
LINE
  8
_1-1_
  6
CONTINUOUS
 62
    7
 10
201.84669700828761
 20
195.3983904864337
 11
193.2467032767631
 21
195.3983904864337
  0
LINE
  8
_1-1_
  6
CONTINUOUS
 62
    7
 10
202.24669585356841
 20
194.99839164115289
 11
192.84670443148227
 21
194.99839164115289
  0
LINE
  8
_1-1_
  6
CONTINUOUS
 62
    7
 10
192.84670443148227
 20
194.99839164115289
 11
192.84670443148227
 21
201.85961336702914
  0
LINE
  8
_1-1_
  6
CONTINUOUS
 62
    7
 10
202.24669585356841
 20
201.85961336702914
 11
202.24669585356841
 21
194.99839164115289
  0
LINE
  8
_1-1_
  6
CONTINUOUS
 62
    7
 10
192.84670443148227
 20
201.85961336702914
 11
193.2467032767631
 21
201.85961336702914
  0
LINE
  8
_1-1_
  6
CONTINUOUS
 62
    7
 10
196.94669568860854
 20
194.99839164115289
 11
196.94669568860854
 21
191.04351146801099
  0
LINE
  8
_1-1_
  6
CONTINUOUS
 62
    7
 10
198.14670459644216
 20
194.99839164115289
 11
198.14670459644216
 21
191.04351146801099
  0
LINE
  8
_1-1_
  6
CONTINUOUS
 62
    7
 10
193.2467032767631
 20
203.99839658994932
 11
201.84669700828761
 21
195.3983904864337
  0
LINE
  8
_1-1_
  6
CONTINUOUS
 62
    7
 10
201.84669700828761
 20
203.99839658994932
 11
193.2467032767631
 21
195.3983904864337
  0
LINE
  8
_1-1_
  6
CONTINUOUS
 62
    7
 10
193.2467032767631
 20
195.3983904864337
 11
193.2467032767631
 21
203.99839658994932
  0
LINE
  8
_1-1_
  6
DASHED1
 62
    7
 10
192.84670443148227
 20
199.52268033414273
 11
202.24669585356841
 21
199.52268033414273
  0
LINE
  8
_1-1_
  6
DASHED1
 62
    7
 10
192.84670443148227
 20
200.09112383868245
 11
202.24669585356841
 21
200.09112383868245
  0
LINE
  8
_1-2_
  6
CONTINUOUS
 62
    3
 10
137.7071524955131
 20
159.27729838603253
 11
137.56298168285474
 21
159.74253474055109
  0
LINE
  8
_1-1_
  6
CONTINUOUS
 62
    3
 10
137.5710729650549
 20
159.01882274730787
 11
137.10589847049198
 21
158.87465193464951
  0
LINE
  8
_1-2_
  6
CONTINUOUS
 62
    3
 10
139.48167955553211
 20
161.25512200432857
 11
193.20650667757602
 21
179.84337059227198
  0
ARC
  8
_1-2_
  6
CONTINUOUS
 62
    3
 10
44.837988776129635
 20
118.01017555030617
 40
0.599999959404404
 50
109.0858917236328
 51
197.21983337402344
  0
ARC
  8
_1-2_
  6
CONTINUOUS
 62
    3
 10
43.808094746357682
 20
116.94187886006124
 40
0.1999999904954755
 50
197.21757507324216
 51
289.0885009765625
  0
ARC
  8
_1-2_
  6
CONTINUOUS
 62
    3
 10
42.673422323690886
 20
116.54930320945947
 40
0.1999999904954755
 50
289.08401489257812
 51
17.217575073242223
  0
ARC
  8
_1-2_
  6
CONTINUOUS
 62
    3
 10
44.28081615551099
 20
117.10544895481419
 40
0.1999999904954755
 50
289.0885009765625
 51
17.219955444335916
  0
ARC
  8
_1-2_
  6
CONTINUOUS
 62
    3
 10
42.200663798564193
 20
116.38574548669764
 40
0.1999999904954755
 50
197.216552734375
 51
289.08514404296875
  0
ARC
  8
_1-2_
  6
CONTINUOUS
 62
    3
 10
92.257888381545612
 20
139.34913841453761
 40
0.599999959404404
 50
109.0858917236328
 51
197.21983337402344
  0
ARC
  8
_1-2_
  6
CONTINUOUS
 62
    3
 10
91.22799435177366
 20
138.28084172429266
 40
0.1999999904954755
 50
197.21757507324216
 51
289.0885009765625
  0
ARC
  8
_1-2_
  6
CONTINUOUS
 62
    3
 10
90.093334301097983
 20
137.88826607369089
 40
0.1999999904954755
 50
289.08401489257812
 51
17.217575073242223
  0
ARC
  8
_1-2_
  6
CONTINUOUS
 62
    3
 10
91.700728132918073
 20
138.44441181904563
 40
0.1999999904954755
 50
289.0885009765625
 51
17.219955444335916
  0
ARC
  8
_1-2_
  6
CONTINUOUS
 62
    3
 10
89.62057577597129
 20
137.72470835092906
 40
0.1999999904954755
 50
197.216552734375
 51
289.08514404296875
  0
ARC
  8
_1-2_
  6
CONTINUOUS
 62
    3
 10
139.67784984691724
 20
160.68810127876901
 40
0.599999959404404
 50
109.0858917236328
 51
197.21983337402344
  0
ARC
  8
_1-2_
  6
CONTINUOUS
 62
    3
 10
138.64795581714529
 20
159.61980458852409
 40
0.1999999904954755
 50
197.21757507324216
 51
289.0885009765625
  0
ARC
  8
_1-2_
  6
CONTINUOUS
 62
    3
 10
139.12066485430745
 20
159.78337468327703
 40
0.1999999904954755
 50
289.0885009765625
 51
17.219955444335916
  0
ARC
  8
_1-2_
  6
CONTINUOUS
 62
    3
 10
350.25542388091219
 20
118.01017555030617
 40
0.599999959404404
 50
342.78041076660162
 51
70.914352416992244
  0
ARC
  8
_1-2_
  6
CONTINUOUS
 62
    3
 10
351.28531791068411
 20
116.94187886006124
 40
0.1999999904954755
 50
250.91174316406253
 51
342.78266906738287
  0
ARC
  8
_1-2_
  6
CONTINUOUS
 62
    3
 10
352.41997796135979
 20
116.54930320945947
 40
0.1999999904954755
 50
162.78266906738281
 51
250.91622924804693
  0
ARC
  8
_1-2_
  6
CONTINUOUS
 62
    3
 10
350.81258412953974
 20
117.10544895481419
 40
0.1999999904954755
 50
162.78028869628909
 51
250.91174316406253
  0
ARC
  8
_1-2_
  6
CONTINUOUS
 62
    3
 10
352.89273648648651
 20
116.38574548669764
 40
0.1999999904954755
 50
250.91510009765628
 51
342.78369140625
  0
ARC
  8
_1-2_
  6
CONTINUOUS
 62
    3
 10
302.83551190350511
 20
139.34913841453761
 40
0.599999959404404
 50
342.78041076660162
 51
70.914352416992244
  0
ARC
  8
_1-2_
  6
CONTINUOUS
 62
    3
 10
303.86540593327703
 20
138.28084172429266
 40
0.1999999904954755
 50
250.91174316406253
 51
342.78266906738287
  0
ARC
  8
_1-2_
  6
CONTINUOUS
 62
    3
 10
305.00006598395271
 20
137.88826607369089
 40
0.1999999904954755
 50
162.78266906738281
 51
250.91622924804693
  0
ARC
  8
_1-2_
  6
CONTINUOUS
 62
    3
 10
303.3926721521326
 20
138.44441181904563
 40
0.1999999904954755
 50
162.78028869628909
 51
250.91174316406253
  0
ARC
  8
_1-2_
  6
CONTINUOUS
 62
    3
 10
305.47282450907943
 20
137.72470835092906
 40
0.1999999904954755
 50
250.91510009765628
 51
342.78369140625
  0
ARC
  8
_1-2_
  6
CONTINUOUS
 62
    3
 10
255.41555043813347
 20
160.68810127876901
 40
0.599999959404404
 50
342.78041076660162
 51
70.914352416992244
  0
ARC
  8
_1-2_
  6
CONTINUOUS
 62
    3
 10
256.44544446790542
 20
159.61980458852409
 40
0.1999999904954755
 50
250.91174316406253
 51
342.78266906738287
  0
ARC
  8
_1-2_
  6
CONTINUOUS
 62
    3
 10
257.58012926256333
 20
159.22722893792232
 40
0.1999999904954755
 50
162.78266906738281
 51
250.91622924804693
  0
ARC
  8
_1-2_
  6
CONTINUOUS
 62
    3
 10
255.97273543074326
 20
159.78337468327703
 40
0.1999999904954755
 50
162.78028869628909
 51
250.91174316406253
  0
ARC
  8
_1-2_
  6
CONTINUOUS
 62
    3
 10
258.05288778769005
 20
159.06367121516047
 40
0.1999999904954755
 50
250.91510009765628
 51
342.78369140625
  0
ARC
  8
_1-1_
  6
CONTINUOUS
 62
    7
 10
197.48622584987334
 20
187.76626999313768
 40
27.347822447080873
 50
9.1478271484375
 51
170.85218811035156
  0
ARC
  8
_1-1_
  6
CONTINUOUS
 62
    7
 10
197.48622584987334
 20
187.59459624419341
 40
19.919484112713789
 50
16.08660888671875
 51
163.91339111328125
  0
ARC
  8
_1-1_
  6
CONTINUOUS
 62
    7
 10
197.48622584987334
 20
187.69302780563768
 40
23.421057623785895
 50
12.185165405273436
 51
167.9019775390625
  0
ARC
  8
_1-1_
  6
CONTINUOUS
 62
    7
 10
197.51101932010135
 20
215.33767287795609
 40
0.8987746045396135
 50
7.3836669921875
 51
172.61633300781253
  0
ARC
  8
_1-1_
  6
CONTINUOUS
 62
    3
 10
137.04473134633659
 20
159.07200993718328
 40
0.2066213859094155
 50
199.0826416015625
 51
287.22077941894531
  0
ARC
  8
_1-1_
  6
CONTINUOUS
 62
    3
 10
137.50990584089951
 20
159.21618074984164
 40
0.2066213859094155
 50
287.21812438964844
 51
17.215789794921871
  0
TEXT
  8
_0-0_
 62
    7
 10
141.89189395389042
 20
14.594594594594582
 40
2.5
 41
1
 50
0
  1
縮尺
  0
TEXT
  8
_0-0_
 62
    7
 10
377.10214563318203
 20
22.865493362014362
 40
2.5
 41
1
 50
0
  1
ＮＯ
  0
TEXT
  8
_1-0_
 62
    7
 10
169.90681828679266
 20
13.3181144095756
 40
2.5
 41
1
 50
0
  1
1/5
  0
TEXT
  8
_0-0_
 62
    7
 10
25.556194717819636
 20
20.211577544341225
 40
2.5
 41
1
 50
0
  1
木造
  0
TEXT
  8
_0-0_
 62
    7
 10
383.97877873601146
 20
17.689098667454061
 40
2.5
 41
1
 50
0
  1
Ｓ
  0
TEXT
  8
_1-3_
 62
    7
 10
143.62013533308701
 20
63.815955084723399
 40
2.5
 41
1
 50
0
  1
60ｘ60
  0
TEXT
  8
_1-3_
 62
    7
 10
129.18697047877956
 20
69.81595013592694
 40
2.5
 41
1
 50
0
  1
野地板
  0
TEXT
  8
_1-3_
 62
    7
 10
143.62013533308701
 20
69.81595013592694
 40
2.5
 41
1
 50
0
  1
ｔ＝12
  0
TEXT
  8
_0-0_
 62
    7
 10
39.721903929839272
 20
15.395235628695104
 40
2.5
 41
1
 50
0
  1
棟
  0
TEXT
  8
_1-1_
 62
    7
 10
159.29457999564505
 20
242.6695540144637
 40
2.5
 41
1
 50
0
  1
７寸冠瓦
  0
TEXT
  8
_1-1_
 62
    7
 10
394.58313400680959
 20
15.796725298907319
 40
2.5
 41
1
 50
0
  1
10
  0
TEXT
  8
_1-1_
 62
    7
 10
50.59271580464133
 20
15.395235628695104
 40
2.5
 41
1
 50
0
  1
2
  0
LINE
  8
_1-1_
  6
DASHED1
 62
    7
 10
26.702344739759297
 20
99.717469086518165
 11
197.54670014252534
 21
176.59740551097974
  0
LINE
  8
_1-1_
  6
DASHED1
 62
    7
 10
197.54670014252534
 20
176.59740551097974
 11
243.14277404330824
 21
156.07916862682362
  0
LINE
  8
_1-1_
  6
DASHED1
 62
    7
 10
197.54670014252534
 20
176.34806039774315
 11
369.46923914737999
 21
98.982910382095724
  0
LINE
  8
_1-1_
  6
DASHED1
 62
    7
 10
197.54670014252534
 20
176.34806039774315
 11
151.95062500626031
 21
155.82982625910259
  0
POINT
  8
_1-3_
 62
    7
 10
168.86140919792032
 20
118.25031247941104
  0
POINT
  8
_1-3_
 62
    7
 10
214.45748309870314
 20
138.76854936356713
  0
LINE
  8
_1-3_
  6
CONTINUOUS
 62
    7
 10
168.86140919792032
 20
118.25031247941104
 11
154.89830151913256
 21
149.27943516676132
  0
LINE
  8
_1-3_
  6
CONTINUOUS
 62
    7
 10
214.45748309870314
 20
138.76854936356713
 11
200.49437541991537
 21
169.79767205091741
  0
LINE
  8
_1-3_
  6
CONTINUOUS
 62
    7
 10
168.86140919792032
 20
118.25031247941104
 11
214.45748309870314
 21
138.76854936356713
  0
TEXT
  8
_1-3_
 62
    7
 10
189.74441100819081
 20
128.19595777734105
 40
2.5
 41
1
 50
24.227749110000008
  1
250
  0
POINT
  8
_1-3_
 62
    7
 10
181.3877410522899
 20
140.68860232762205
  0
POINT
  8
_1-3_
 62
    7
 10
226.98381742403657
 20
120.17037093449737
  0
LINE
  8
_1-3_
  6
CONTINUOUS
 62
    7
 10
181.3877410522899
 20
140.68860232762205
 11
194.48073265831809
 21
169.78414344736692
  0
LINE
  8
_1-3_
  6
CONTINUOUS
 62
    7
 10
226.98381742403657
 20
120.17037093449737
 11
240.07680903006477
 21
149.26591205424222
  0
LINE
  8
_1-3_
  6
CONTINUOUS
 62
    7
 10
181.3877410522899
 20
140.68860232762205
 11
226.98381742403657
 21
120.17037093449737
  0
TEXT
  8
_1-3_
 62
    7
 10
206.9292573908979
 20
129.44458036259115
 40
2.5
 41
1
 50
-24.227742210000002
  1
250
  0
TEXT
  8
_1-3_
 62
    7
 10
129.18697254077807
 20
89.295129293283068
 40
2.5
 41
1
 50
0
  1
瓦桟
  0
TEXT
  8
_1-3_
 62
    7
 10
143.06162953427909
 20
85.563174169978367
 40
2.5
 41
1
 50
0
  1
※　地域により瓦桟木の大きさは、異なります
  0
LINE
  8
_1-3_
  6
CONTINUOUS
 62
    7
 10
125.77051935969173
 20
90.646125980888641
 11
112.34107389005091
 21
90.646125980888641
  0
LINE
  8
_1-3_
  6
CONTINUOUS
 62
    7
 10
125.77051935969173
 20
82.767519564241979
 11
115.20865159681412
 21
82.767519564241979
  0
LINE
  8
_1-3_
  6
CONTINUOUS
 62
    7
 10
125.77051935969173
 20
76.825202735694688
 11
117.37147765550165
 21
76.825202735694688
  0
LINE
  8
_1-3_
  6
CONTINUOUS
 62
    7
 10
125.77051935969173
 20
70.654338114970443
 11
119.61748829266891
 21
70.654338114970443
  0
LINE
  8
_1-3_
  6
CONTINUOUS
 62
    7
 10
121.71837059227197
 20
64.882210396431589
 11
125.77051935969173
 21
64.882210396431589
  0
TEXT
  8
_0-0_
 62
    7
 10
14.594594336844779
 20
24.324324324324323
 40
2.5
 41
1
 50
0
  1
Ｓ形
  0
TEXT
  8
_1-3_
 62
    7
 10
49.601897162360103
 20
168.13211801889781
 40
2.5
 41
1
 50
0
  1
Ｓ形　桟瓦
  0
TEXT
  8
_1-3_
 62
    7
 10
333.42349903003594
 20
168.05698291675466
 40
2.5
 41
1
 50
0
  1
Ｓ形　桟瓦
  0
TEXT
  8
_1-3_
 62
    7
 10
142.41434879187881
 20
89.162672469478707
 40
2.5
 41
1
 50
0
  1
１５×２１　（防腐処理）
  0
TEXT
  8
_1-3_
 62
    7
 10
129.18697047877956
 20
81.815952610325169
 40
2.5
 41
1
 50
0
  1
縦桟
  0
TEXT
  8
_1-3_
 62
    7
 10
129.18696841678104
 20
75.815957559121628
 40
2.5
 41
1
 50
0
  1
ルーフィング
  0
TEXT
  8
_1-3_
 62
    7
 10
129.18697254077807
 20
63.815955084723399
 40
2.5
 41
1
 50
0
  1
たる木
  0
TEXT
  8
_1-1_
 62
    7
 10
129.28638703736135
 20
49.573964829120428
 40
2.5
 41
1
 50
0
  1
棟部分のルーフィングは、両方向へそれぞれ250ｍｍ以上重ね合わせること。
  0
TEXT
  8
_1-1_
 62
    7
 10
129.37417868643229
 20
45.462640828117458
 40
2.5
 41
1
 50
0
  1
隅棟部分のルーフィングは、重ね貼りの上に両方向へそれぞれ250ｍｍ以上増し貼りをすること。
  0
TEXT
  8
_1-1_
 62
    7
 10
145.60918989703794
 20
216.69922979172262
 40
2.5
 41
1
 50
0
  1
葺き土
  0
TEXT
  8
_1-1_
 62
    7
 10
162.054202507745
 20
228.76896381792963
 40
2.5
 41
1
 50
0
  1
棟補強金具
  0
TEXT
  8
_1-1_
 62
    7
 10
214.34989310599661
 20
243.44594594594597
 40
2.5
 41
1
 50
0
  1
パッキン付ステンレスネジ
  0
TEXT
  8
_1-1_
 62
    7
 10
215.7161362106736
 20
229.48073928420609
 40
2.5
 41
1
 50
0
  1
棟補強芯材40ｘ40
  0
ARC
  8
_1-4_
  6
CONTINUOUS
 62
    7
 10
156.2938773698223
 20
186.92666005241421
 40
29.120986249636026
 50
346.31259764320373
 51
27.366757138142521
  0
LINE
  8
ADD_LINE
  6
DOT
 62
    4
 10
197.54670014252534
 20
218.48926441089529
 11
197.54670014252534
 21
241.88356159460653
  0
ARC
  8
_1-4_
  6
CONTINUOUS
 62
    7
 10
238.79952291522838
 20
186.92666005241421
 40
29.120986249636026
 50
152.83301811931602
 51
193.68740235679627
  0
ARC
  8
_1-4_
  6
CONTINUOUS
 62
    1
 10
156.2938773698223
 20
186.92666005241421
 40
29.120986249636026
 50
346.31259764320373
 51
27.366757138142521
  0
SOLID
  8
ADD_LINE
  6
DOT
 62
    8
 10
187.16791633224943
 20
190.629852412638
 11
184.58786168734557
 21
180.03592049912695
 12
192.31795027449326
 22
182.71045581714529
 13
192.31795027449326
 23
182.71045581714529
  0
SOLID
  8
ADD_LINE
  6
DOT
 62
    8
 10
187.16791633224943
 20
190.629852412638
 11
192.31795027449326
 21
182.71045581714529
 12
192.14021424989443
 22
183.28384811813768
 13
192.14021424989443
 23
183.28384811813768
  0
SOLID
  8
ADD_LINE
  6
DOT
 62
    8
 10
187.16791633224943
 20
190.629852412638
 11
192.14021424989443
 21
183.28384811813768
 12
194.03129783836573
 22
183.93815324113177
 13
194.03129783836573
 23
183.93815324113177
  0
SOLID
  8
ADD_LINE
  6
DOT
 62
    8
 10
187.16791633224943
 20
190.629852412638
 11
194.03129783836573
 21
183.93815324113177
 12
195.95953451620568
 22
191.04351146801099
 13
195.95953451620568
 23
191.04351146801099
  0
SOLID
  8
ADD_LINE
  6
DOT
 62
    8
 10
187.16791633224943
 20
190.629852412638
 11
195.95953451620568
 21
191.04351146801099
 12
182.15570813942205
 22
200.3131289443989
 13
182.15570813942205
 23
200.3131289443989
  0
SOLID
  8
ADD_LINE
  6
DOT
 62
    8
 10
195.95953451620568
 20
191.04351146801099
 11
194.03129783836573
 21
183.93815324113177
 12
195.83805393528294
 22
178.10854525179477
 13
195.83805393528294
 23
178.10854525179477
  0
SOLID
  8
ADD_LINE
  6
DOT
 62
    8
 10
195.95953451620568
 20
191.04351146801099
 11
195.83805393528294
 21
178.10854525179477
 12
195.95953451620568
 22
177.46801015493034
 13
195.95953451620568
 23
177.46801015493034
  0
SOLID
  8
ADD_LINE
  6
DOT
 62
    8
 10
195.83805393528294
 20
178.10854525179477
 11
194.02390900218543
 21
177.48086798024949
 12
195.95953451620568
 22
177.46801015493034
 13
194.28862288191513
 23
176.71609002190669
  0
SOLID
  8
ADD_LINE
  6
DOT
 62
    8
 10
182.15570813942207
 20
200.3131289443989
 11
195.95953451620568
 21
191.04351146801099
 12
196.94669568860854
 22
191.04351146801099
 13
196.94669568860854
 23
191.04351146801099
  0
SOLID
  8
ADD_LINE
  6
DOT
 62
    8
 10
196.94669568860854
 20
191.04351146801099
 11
196.94669568860854
 21
194.99839164115289
 12
192.84670443148227
 22
194.99839164115289
 13
192.84670443148227
 23
194.99839164115289
  0
SOLID
  8
ADD_LINE
  6
DOT
 62
    8
 10
196.94669568860854
 20
191.04351146801099
 11
192.84670443148227
 21
194.99839164115289
 12
182.15570813942207
 22
200.3131289443989
 13
182.15570813942207
 23
200.3131289443989
  0
SOLID
  8
ADD_LINE
  6
DOT
 62
    8
 10
182.15570813942205
 20
200.3131289443989
 11
192.84670443148227
 21
194.99839164115289
 12
182.15570813942207
 22
200.3131289443989
 13
192.84670443148227
 23
201.85961336702914
  0
SOLID
  8
ADD_LINE
  6
DOT
 62
    8
 10
192.84670443148227
 20
201.85961336702914
 11
193.2467032767631
 21
201.85961336702914
 12
193.2467032767631
 22
203.99839658994932
 13
193.2467032767631
 23
203.99839658994932
  0
SOLID
  8
ADD_LINE
  6
DOT
 62
    8
 10
192.84670443148227
 20
201.85961336702914
 11
193.2467032767631
 21
203.99839658994932
 12
182.15570813942207
 22
200.3131289443989
 13
182.15570813942207
 23
200.3131289443989
  0
SOLID
  8
ADD_LINE
  6
DOT
 62
    8
 10
182.15570813942207
 20
200.3131289443989
 11
193.2467032767631
 21
203.99839658994932
 12
196.94669568860854
 22
207.50677228102433
 13
196.94669568860854
 23
207.50677228102433
  0
SOLID
  8
ADD_LINE
  6
DOT
 62
    8
 10
182.15570813942207
 20
200.3131289443989
 11
196.94669568860854
 21
207.50677228102433
 12
195.47048531719156
 22
207.41313425900682
 13
195.47048531719156
 23
207.41313425900682
  0
SOLID
  8
ADD_LINE
  6
DOT
 62
    8
 10
182.15570813942207
 20
200.3131289443989
 11
195.47048531719156
 21
207.41313425900682
 12
194.3692895403056
 22
207.26381957739517
 13
194.3692895403056
 23
207.26381957739517
  0
SOLID
  8
ADD_LINE
  6
DOT
 62
    8
 10
182.15570813942207
 20
200.3131289443989
 11
194.3692895403056
 21
207.26381957739517
 12
193.21210075781525
 22
207.05851189017915
 13
193.21210075781525
 23
207.05851189017915
  0
SOLID
  8
ADD_LINE
  6
DOT
 62
    8
 10
182.15570813942207
 20
200.3131289443989
 11
193.21210075781525
 21
207.05851189017915
 12
192.14823365133219
 22
206.77854686215727
 13
192.14823365133219
 23
206.77854686215727
  0
SOLID
  8
ADD_LINE
  6
DOT
 62
    8
 10
182.15570813942207
 20
200.3131289443989
 11
192.14823365133219
 21
206.77854686215727
 12
190.99104486884187
 22
206.42392449332959
 13
190.99104486884187
 23
206.42392449332959
  0
SOLID
  8
ADD_LINE
  6
DOT
 62
    8
 10
182.15570813942207
 20
200.3131289443989
 11
190.99104486884187
 21
206.42392449332959
 12
189.75919874554569
 22
205.95731611329319
 13
189.75919874554569
 23
205.95731611329319
  0
SOLID
  8
ADD_LINE
  6
DOT
 62
    8
 10
182.15570813942207
 20
200.3131289443989
 11
189.75919874554569
 21
205.95731611329319
 12
188.54601695745097
 22
205.41605039245093
 13
188.54601695745097
 23
205.41605039245093
  0
SOLID
  8
ADD_LINE
  6
DOT
 62
    8
 10
182.15570813942207
 20
200.3131289443989
 11
188.54601695745097
 21
205.41605039245093
 12
187.74345054378833
 22
204.94944201241449
 13
187.74345054378833
 23
204.94944201241449
  0
SOLID
  8
ADD_LINE
  6
DOT
 62
    8
 10
182.15570813942207
 20
200.3131289443989
 11
187.74345054378833
 21
204.94944201241449
 12
186.82889811891692
 22
204.44550496197513
 13
186.82889811891692
 23
204.44550496197513
  0
SOLID
  8
ADD_LINE
  6
DOT
 62
    8
 10
182.15570813942207
 20
200.3131289443989
 11
186.82889811891692
 21
204.44550496197513
 12
185.54105899001638
 22
203.56828120750666
 13
185.54105899001638
 23
203.56828120750666
  0
SOLID
  8
ADD_LINE
  6
DOT
 62
    8
 10
182.15570813942207
 20
200.3131289443989
 11
185.54105899001638
 21
203.56828120750666
 12
184.32787720192169
 22
202.56040710662799
 13
184.32787720192169
 23
202.56040710662799
  0
SOLID
  8
ADD_LINE
  6
DOT
 62
    8
 10
182.15570813942207
 20
200.3131289443989
 11
184.32787720192169
 21
202.56040710662799
 12
183.3573317714459
 22
201.64585468175659
 13
183.3573317714459
 23
201.64585468175659
  0
SOLID
  8
ADD_LINE
  6
DOT
 62
    8
 10
196.94669568860854
 20
207.50677228102433
 11
193.2467032767631
 21
203.99839658994932
 12
196.94669568860854
 22
207.50677228102433
 13
196.94669568860854
 23
203.99839658994932
  0
SOLID
  8
ADD_LINE
  6
DOT
 62
    8
 10
196.35953336148648
 20
190.64351262273016
 11
196.35953336148648
 21
177.31901426573057
 12
196.94669568860854
 22
190.64351262273016
 13
196.94669568860854
 23
177.5832358299852
  0
ARC
  8
_1-4_
  6
CONTINUOUS
 62
    7
 10
238.79952291522838
 20
186.92666005241421
 40
29.120986249636026
 50
152.63324286185747
 51
193.68740235679627
  0
ARC
  8
_1-4_
  6
CONTINUOUS
 62
    1
 10
238.79952291522838
 20
186.92666005241421
 40
29.120986249636026
 50
152.63324286185747
 51
193.68740235679627
  0
SOLID
  8
ADD_LINE
  6
DOT
 62
    8
 10
207.92548395280124
 20
190.629852412638
 11
210.50553859770511
 21
180.03592049912695
 12
202.77545001055742
 22
182.71045581714529
 13
202.77545001055742
 23
182.71045581714529
  0
SOLID
  8
ADD_LINE
  6
DOT
 62
    8
 10
207.92548395280124
 20
190.629852412638
 11
202.77545001055742
 21
182.71045581714529
 12
202.95318603515625
 22
183.28384811813768
 13
202.95318603515625
 23
183.28384811813768
  0
SOLID
  8
ADD_LINE
  6
DOT
 62
    8
 10
207.92548395280124
 20
190.629852412638
 11
202.95318603515625
 21
183.28384811813768
 12
201.06210244668495
 22
183.93815324113177
 13
201.06210244668495
 23
183.93815324113177
  0
SOLID
  8
ADD_LINE
  6
DOT
 62
    8
 10
207.92548395280124
 20
190.629852412638
 11
201.06210244668495
 21
183.93815324113177
 12
199.133865768845
 22
191.04351146801099
 13
199.133865768845
 23
191.04351146801099
  0
SOLID
  8
ADD_LINE
  6
DOT
 62
    8
 10
207.92548395280124
 20
190.629852412638
 11
199.133865768845
 21
191.04351146801099
 12
212.93769214562863
 22
200.3131289443989
 13
212.93769214562863
 23
200.3131289443989
  0
SOLID
  8
ADD_LINE
  6
DOT
 62
    8
 10
199.133865768845
 20
191.04351146801099
 11
201.06210244668495
 21
183.93815324113177
 12
199.25534634976773
 22
178.10854525179477
 13
199.25534634976773
 23
178.10854525179477
  0
SOLID
  8
ADD_LINE
  6
DOT
 62
    8
 10
199.133865768845
 20
191.04351146801099
 11
199.25534634976773
 21
178.10854525179477
 12
199.133865768845
 22
177.46801015493034
 13
199.133865768845
 23
177.46801015493034
  0
SOLID
  8
ADD_LINE
  6
DOT
 62
    8
 10
199.25534634976773
 20
178.10854525179477
 11
201.06949128286524
 21
177.48086798024949
 12
199.133865768845
 22
177.46801015493034
 13
200.80477740313555
 23
176.71609002190669
  0
SOLID
  8
ADD_LINE
  6
DOT
 62
    8
 10
212.9376921456286
 20
200.3131289443989
 11
199.133865768845
 21
191.04351146801099
 12
198.14670459644213
 22
191.04351146801099
 13
198.14670459644213
 23
191.04351146801099
  0
SOLID
  8
ADD_LINE
  6
DOT
 62
    8
 10
198.14670459644213
 20
191.04351146801099
 11
198.14670459644213
 21
194.99839164115289
 12
202.24669585356841
 22
194.99839164115289
 13
202.24669585356841
 23
194.99839164115289
  0
SOLID
  8
ADD_LINE
  6
DOT
 62
    8
 10
198.14670459644213
 20
191.04351146801099
 11
202.24669585356841
 21
194.99839164115289
 12
212.9376921456286
 22
200.3131289443989
 13
212.9376921456286
 23
200.3131289443989
  0
SOLID
  8
ADD_LINE
  6
DOT
 62
    8
 10
212.93769214562863
 20
200.3131289443989
 11
202.24669585356841
 21
194.99839164115289
 12
212.9376921456286
 22
200.3131289443989
 13
202.24669585356841
 23
201.85961336702914
  0
SOLID
  8
ADD_LINE
  6
DOT
 62
    8
 10
202.24669585356841
 20
201.85961336702914
 11
201.84669700828758
 21
201.85961336702914
 12
201.84669700828758
 22
203.99839658994932
 13
201.84669700828758
 23
203.99839658994932
  0
SOLID
  8
ADD_LINE
  6
DOT
 62
    8
 10
202.24669585356841
 20
201.85961336702914
 11
201.84669700828758
 21
203.99839658994932
 12
212.9376921456286
 22
200.3131289443989
 13
212.9376921456286
 23
200.3131289443989
  0
SOLID
  8
ADD_LINE
  6
DOT
 62
    8
 10
212.9376921456286
 20
200.3131289443989
 11
201.84669700828758
 21
203.99839658994932
 12
198.14670459644213
 22
207.50677228102433
 13
198.14670459644213
 23
207.50677228102433
  0
SOLID
  8
ADD_LINE
  6
DOT
 62
    8
 10
212.9376921456286
 20
200.3131289443989
 11
198.14670459644213
 21
207.50677228102433
 12
199.62291496785912
 22
207.41313425900682
 13
199.62291496785912
 23
207.41313425900682
  0
SOLID
  8
ADD_LINE
  6
DOT
 62
    8
 10
212.9376921456286
 20
200.3131289443989
 11
199.62291496785912
 21
207.41313425900682
 12
200.72411074474508
 22
207.26381957739517
 13
200.72411074474508
 23
207.26381957739517
  0
SOLID
  8
ADD_LINE
  6
DOT
 62
    8
 10
212.9376921456286
 20
200.3131289443989
 11
200.72411074474508
 21
207.26381957739517
 12
201.88129952723543
 22
207.05851189017915
 13
201.88129952723543
 23
207.05851189017915
  0
SOLID
  8
ADD_LINE
  6
DOT
 62
    8
 10
212.9376921456286
 20
200.3131289443989
 11
201.88129952723543
 21
207.05851189017915
 12
202.94516663371849
 22
206.77854686215727
 13
202.94516663371849
 23
206.77854686215727
  0
SOLID
  8
ADD_LINE
  6
DOT
 62
    8
 10
212.9376921456286
 20
200.3131289443989
 11
202.94516663371849
 21
206.77854686215727
 12
204.10235541620881
 22
206.42392449332959
 13
204.10235541620881
 23
206.42392449332959
  0
SOLID
  8
ADD_LINE
  6
DOT
 62
    8
 10
212.9376921456286
 20
200.3131289443989
 11
204.10235541620881
 21
206.42392449332959
 12
205.33420153950499
 22
205.95731611329319
 13
205.33420153950499
 23
205.95731611329319
  0
SOLID
  8
ADD_LINE
  6
DOT
 62
    8
 10
212.9376921456286
 20
200.3131289443989
 11
205.33420153950499
 21
205.95731611329319
 12
206.5473833275997
 22
205.41605039245093
 13
206.5473833275997
 23
205.41605039245093
  0
SOLID
  8
ADD_LINE
  6
DOT
 62
    8
 10
212.9376921456286
 20
200.3131289443989
 11
206.5473833275997
 21
205.41605039245093
 12
207.34994974126235
 22
204.94944201241449
 13
207.34994974126235
 23
204.94944201241449
  0
SOLID
  8
ADD_LINE
  6
DOT
 62
    8
 10
212.9376921456286
 20
200.3131289443989
 11
207.34994974126235
 21
204.94944201241449
 12
208.26450216613375
 22
204.44550496197513
 13
208.26450216613375
 23
204.44550496197513
  0
SOLID
  8
ADD_LINE
  6
DOT
 62
    8
 10
212.9376921456286
 20
200.3131289443989
 11
208.26450216613375
 21
204.44550496197513
 12
209.5523412950343
 22
203.56828120750666
 13
209.5523412950343
 23
203.56828120750666
  0
SOLID
  8
ADD_LINE
  6
DOT
 62
    8
 10
212.9376921456286
 20
200.3131289443989
 11
209.5523412950343
 21
203.56828120750666
 12
210.76552308312898
 22
202.56040710662799
 13
210.76552308312898
 23
202.56040710662799
  0
SOLID
  8
ADD_LINE
  6
DOT
 62
    8
 10
212.9376921456286
 20
200.3131289443989
 11
210.76552308312898
 21
202.56040710662799
 12
211.73606851360478
 22
201.64585468175659
 13
211.73606851360478
 23
201.64585468175659
  0
SOLID
  8
ADD_LINE
  6
DOT
 62
    8
 10
198.14670459644213
 20
207.50677228102433
 11
201.84669700828758
 21
203.99839658994932
 12
198.14670459644213
 22
207.50677228102433
 13
198.14670459644213
 23
203.99839658994932
  0
SOLID
  8
ADD_LINE
  6
DOT
 62
    8
 10
198.73386692356419
 20
190.64351262273016
 11
198.73386692356419
 21
177.31901426573057
 12
198.14670459644213
 22
190.64351262273016
 13
198.14670459644213
 23
177.5832358299852
  0
ENDSEC
  0
EOF
