  0
SECTION
  2
HEADER
  9
$ACADVER
  1
AC1009
  9
$INSBASE
 10
0
 20
0
 30
0
  9
$EXTMIN
 10
0
 20
0
  9
$EXTMAX
 10
2100
 20
1485
  9
$LIMMIN
 10
0
 20
0
  9
$LIMMAX
 10
2100
 20
1485
  9
$LTSCALE
 40
5
  0
ENDSEC
  0
SECTION
  2
TABLES
  0
TABLE
  2
LTYPE
 70
     9
  0
LTYPE
  2
CONTINUOUS
 70
    64
  3
実線
 72
    65
 73
     0
 40
0.0
  0
LTYPE
  2
DASHED1
 70
    64
  3
--  --  --  --  --  --  --  --  
 72
    65
 73
     2
 40
2.5
 49
1.25
 49
-1.25
  0
LTYPE
  2
DASHED2
 70
    64
  3
----    ----    ----    ----    
 72
    65
 73
     2
 40
5.0
 49
2.5
 49
-2.5
  0
LTYPE
  2
DASHED3
 70
    64
  3
------  ------  ------  ------  
 72
    65
 73
     2
 40
5.0
 49
3.75
 49
-1.25
  0
LTYPE
  2
CENTER1
 70
    64
  3
----- - ----- - ----- - ----- - 
 72
    65
 73
     4
 40
10.0
 49
6.25
 49
-1.25
 49
1.25
 49
-1.25
  0
LTYPE
  2
CENTER2
 70
    64
  3
----------  --  ----------  --  
 72
    65
 73
     4
 40
20.0
 49
12.5
 49
-2.5
 49
2.5
 49
-2.5
  0
LTYPE
  2
PHANTOM1
 70
    64
  3
--- - - --- - - --- - - --- - - 
 72
    65
 73
     6
 40
10.0
 49
3.25
 49
-1.25
 49
1.25
 49
-1.25
 49
1.25
 49
-1.25
  0
LTYPE
  2
PHANTOM2
 70
    64
  3
--------  -  -  --------  -  -  
 72
    65
 73
     6
 40
20.0
 49
10.0
 49
-2.5
 49
1.25
 49
-2.5
 49
1.25
 49
-2.5
  0
LTYPE
  2
DOT
 70
    64
  3
-   -   -   -   -   -   -   -   
 72
    65
 73
     2
 40
2.5
 49
0.625
 49
-1.875
  0
LTYPE
  2
DUMMY
 70
    64
  3
ダミー
 72
    65
 73
     0
 40
0.0
  0
LTYPE
  2
RAND1
 70
    64
  3
ランダム線1
 72
    65
 73
     4
 40
10.0
 49
1.0
 49
-2.0
 49
3.0
 49
-4.0
  0
LTYPE
  2
RAND2
 70
    64
  3
ランダム線2
 72
    65
 73
     4
 40
14.0
 49
2.0
 49
-3.0
 49
4.0
 49
-5.0
  0
LTYPE
  2
RAND3
 70
    64
  3
ランダム線3
 72
    65
 73
     4
 40
18.0
 49
3.0
 49
-4.0
 49
5.0
 49
-6.0
  0
LTYPE
  2
RAND4
 70
    64
  3
ランダム線4
 72
    65
 73
     4
 40
22.0
 49
4.0
 49
-5.0
 49
6.0
 49
-7.0
  0
LTYPE
  2
RAND5
 70
    64
  3
ランダム線5
 72
    65
 73
     4
 40
26.0
 49
5.0
 49
-6.0
 49
7.0
 49
-8.0
  0
LTYPE
  2
LONG1
 70
    64
  3
----------  --  ----------  --  
 72
    65
 73
     4
 40
40.0
 49
32.5
 49
-2.5
 49
2.5
 49
-2.5
  0
LTYPE
  2
LONG2
 70
    64
  3
--------  -  -  --------  -  -  
 72
    65
 73
     6
 40
40.0
 49
30.0
 49
-2.5
 49
1.25
 49
-2.5
 49
1.25
 49
-2.5
  0
LTYPE
  2
LONG3
 70
    64
  3
+++++++++++++++..+++++++++++++++
 72
    65
 73
     2
 40
40.0
 49
37.5
 49
-2.5
  0
LTYPE
  2
LONG4
 70
    64
  3
+++++++++++++++..+++++++++++++++
 72
    65
 73
     2
 40
80.0
 49
75.0
 49
-5.0
  0
LTYPE
  2
LONG5
 70
    64
  3
----------  --  ----------  --  
 72
    65
 73
     4
 40
60.0
 49
37.5
 49
-7.5
 49
7.5
 49
-7.5
  0
LTYPE
  2
dashed
 70
   64
  3
-------   -------------   ------
 72
   65
 73
    2
 40
7.5
 49
6
 49
-1.5
  0
LTYPE
  2
dashed_spaced
 70
   64
  3
----        --------        ----
 72
   65
 73
    2
 40
12
 49
6
 49
-6
  0
LTYPE
  2
long_dashed_dotted
 70
   64
  3
------------- --- --------------
 72
   65
 73
    4
 40
15.25
 49
12
 49
-1.5
 49
0.25
 49
-1.5
  0
LTYPE
  2
long_dashed_double-dotted
 70
   64
  3
----------- --- --- ------------
 72
   65
 73
    6
 40
17
 49
12
 49
-1.5
 49
0.25
 49
-1.5
 49
0.25
 49
-1.5
  0
LTYPE
  2
long_dashed_triplicate-dotted
 70
   64
  3
--------- --- --- --- ----------
 72
   65
 73
    8
 40
18.75
 49
12
 49
-1.5
 49
0.25
 49
-1.5
 49
0.25
 49
-1.5
 49
0.25
 49
-1.5
  0
LTYPE
  2
dotted
 70
   64
  3
   -       -       -       -    
 72
   65
 73
    2
 40
1.75
 49
0.25
 49
-1.5
  0
LTYPE
  2
chain
 70
   64
  3
-------------- -- --------------
 72
   65
 73
    4
 40
18.5
 49
12
 49
-1.5
 49
3.5
 49
-1.5
  0
LTYPE
  2
chain_double_dash
 70
   64
  3
------------ -- -- -------------
 72
   65
 73
    6
 40
23.5
 49
12
 49
-1.5
 49
3.5
 49
-1.5
 49
3.5
 49
-1.5
  0
LTYPE
  2
dashed_dotted
 70
   64
  3
-----------     -     ----------
 72
   65
 73
    4
 40
9.25
 49
6
 49
-1.5
 49
0.25
 49
-1.5
  0
LTYPE
  2
double-dashed_dotted
 70
   64
  3
------   -----------   -   -----
 72
   65
 73
    6
 40
16.75
 49
6
 49
-1.5
 49
6
 49
-1.5
 49
0.25
 49
-1.5
  0
LTYPE
  2
dashed_double-dotted
 70
   64
  3
---------    -    -    ---------
 72
   65
 73
    6
 40
11
 49
6
 49
-1.5
 49
0.25
 49
-1.5
 49
0.25
 49
-1.5
  0
LTYPE
  2
double-dashed_double-dotted
 70
   64
  3
-----   ---------   -   -   ----
 72
   65
 73
    8
 40
18.5
 49
6
 49
-1.5
 49
6
 49
-1.5
 49
0.25
 49
-1.5
 49
0.25
 49
-1.5
  0
LTYPE
  2
dashed_triplicate-dotted
 70
   64
  3
-------    -    -    -    ------
 72
   65
 73
    8
 40
12.75
 49
6
 49
-1.5
 49
0.25
 49
-1.5
 49
0.25
 49
-1.5
 49
0.25
 49
-1.5
  0
LTYPE
  2
double-dashed_triplicate-dotted
 70
   64
  3
-----  ---------  -  -  -  -----
 72
   65
 73
   10
 40
20.25
 49
6
 49
-1.5
 49
6
 49
-1.5
 49
0.25
 49
-1.5
 49
0.25
 49
-1.5
 49
0.25
 49
-1.5
  0
LTYPE
  2
undefined
 70
   64
  3
--------------------------------
 72
   65
 73
    0
 40
0
  0
ENDTAB
  0
TABLE
  2
STYLE
  5
3
100
AcDbSymbolTable
 70
     1
  0
STYLE
  5
10
100
AcDbSymbolTableRecord
100
AcDbTextStyleTableRecord
  2
STANDARD
 70
     0
 40
0.0
 41
1.0
 50
0.0
 71
     0
 42
0.2
  3
txt
  4
bigfont.shx
  0
STYLE
  5
26
100
AcDbSymbolTableRecord
100
AcDbTextStyleTableRecord
  2
TATEGAKI
 70
    68
 40
0.0
 41
1.0
 50
0.0
 71
     0
 42
1.0
  3
txt
  4
bigfont.shx
  0
ENDTAB
  0
TABLE
  2
LAYER
 70
   11
  0
LAYER
  2
_0-0_
 70
   64
 62
    7
  6
CONTINUOUS
  0
LAYER
  2
_0-1_
 70
   64
 62
    7
  6
CONTINUOUS
  0
LAYER
  2
_0-2_
 70
   64
 62
    7
  6
CONTINUOUS
  0
LAYER
  2
_0-3_
 70
   64
 62
    7
  6
CONTINUOUS
  0
LAYER
  2
_0-4_下地
 70
   64
 62
    7
  6
CONTINUOUS
  0
LAYER
  2
_0-5_
 70
   64
 62
    7
  6
CONTINUOUS
  0
LAYER
  2
_0-6_
 70
   64
 62
    7
  6
CONTINUOUS
  0
LAYER
  2
_0-7_
 70
   64
 62
    7
  6
CONTINUOUS
  0
LAYER
  2
_0-8_
 70
   64
 62
    7
  6
CONTINUOUS
  0
LAYER
  2
_1-0_
 70
   64
 62
    7
  6
CONTINUOUS
  0
LAYER
  2
ADD_LINE
 70
   64
 62
    7
  6
CONTINUOUS
  0
ENDTAB
  0
ENDSEC
  0
SECTION
  2
BLOCKS
  0
ENDSEC
  0
SECTION
  2
ENTITIES
  0
LINE
  8
_0-7_
  6
CONTINUOUS
 62
    7
 10
1123.7702240815033
 20
491.68126905286636
 11
1036.2490885966533
 21
491.68126905286636
  0
LINE
  8
ADD_LINE
  6
DOT
 62
    7
 10
395.51845241237334
 20
761.64977614944053
 11
435.58217641469594
 21
761.64977614944053
  0
LINE
  8
ADD_LINE
  6
DOT
 62
    7
 10
395.51845241237334
 20
761.64977614944053
 11
370.29851965002109
 21
761.64977614944053
  0
LINE
  8
_0-1_
  6
CONTINUOUS
 62
    7
 10
602.43245717641469
 20
786.64979676942562
 11
584.02182089315875
 21
793.92724939294772
  0
LINE
  8
ADD_LINE
  6
DOT
 62
    7
 10
556.74281764674834
 20
812.16214154217698
 11
558.40258211702917
 21
812.16214154217698
  0
LINE
  8
_0-1_
  6
CONTINUOUS
 62
    7
 10
552.43241593644427
 20
812.16214154217698
 11
562.43244892842063
 21
812.16214154217698
  0
LINE
  8
_0-1_
  6
CONTINUOUS
 62
    7
 10
552.43241593644427
 20
812.16214154217698
 11
552.43241593644427
 21
797.16215391416813
  0
LINE
  8
_0-4_下地
  6
CONTINUOUS
 62
    7
 10
655.51844416437928
 20
761.64977614944053
 11
695.58216816670199
 21
761.64977614944053
  0
LINE
  8
_0-4_下地
  6
CONTINUOUS
 62
    7
 10
655.51844416437928
 20
761.64977614944053
 11
630.29851140202709
 21
761.64977614944053
  0
LINE
  8
_0-1_
  6
CONTINUOUS
 62
    7
 10
695.58216816670199
 20
761.64977614944053
 11
893.47377467799834
 21
761.64977614944053
  0
LINE
  8
_0-1_
  6
CONTINUOUS
 62
    7
 10
862.43244892842074
 20
786.64979676942562
 11
844.02181264516469
 21
793.92724939294772
  0
LINE
  8
_0-1_
  6
CONTINUOUS
 62
    7
 10
562.43244892842063
 20
812.16214154217698
 11
562.43244892842063
 21
808.94870242557022
  0
LINE
  8
ADD_LINE
  6
DOT
 62
    7
 10
845.50929713893584
 20
793.92724939294772
 11
843.50058065878386
 21
793.92724939294772
  0
LINE
  8
ADD_LINE
  6
DOT
 62
    7
 10
845.50929713893584
 20
793.92731125290334
 11
845.50929713893584
 21
789.74409361143375
  0
LINE
  8
_0-1_
  6
CONTINUOUS
 62
    7
 10
862.43244892842074
 20
786.64979676942562
 11
844.02181264516469
 21
793.92724939294772
  0
LINE
  8
_1-0_
  6
CONTINUOUS
 62
    5
 10
41.891871271906638
 20
1425
 11
2041.8919743718329
 21
1425
  0
LINE
  8
_1-0_
  6
CONTINUOUS
 62
    5
 10
2041.8919743718329
 20
75
 11
41.891871271906638
 21
75
  0
LINE
  8
_1-0_
  6
CONTINUOUS
 62
    5
 10
2041.8919743718329
 20
174.99998969000742
 11
41.891809411951044
 21
174.99998969000742
  0
LINE
  8
_1-0_
  6
CONTINUOUS
 62
    5
 10
1866.8921393317146
 20
75
 11
1866.8921393317146
 21
174.99998969000742
  0
LINE
  8
_1-0_
  6
CONTINUOUS
 62
    5
 10
693.24330510319896
 20
174.99998969000742
 11
693.24330510319896
 21
75
  0
LINE
  8
_1-0_
  6
CONTINUOUS
 62
    5
 10
1082.4324324324325
 20
174.99998969000742
 11
1082.4324324324325
 21
75
  0
LINE
  8
_1-0_
  6
CONTINUOUS
 62
    5
 10
693.24330510319896
 20
124.99999484500371
 11
1082.4324324324325
 21
124.99999484500371
  0
LINE
  8
_1-0_
  6
CONTINUOUS
 62
    5
 10
1990.5406642604521
 20
154.05405405405403
 11
1927.7025789827915
 21
91.216223948710677
  0
LINE
  8
_0-1_
  6
CONTINUOUS
 62
    7
 10
812.43240768845021
 20
812.16214154217698
 11
822.43244068042657
 21
812.16214154217698
  0
LINE
  8
_0-1_
  6
CONTINUOUS
 62
    7
 10
812.43240768845021
 20
812.16214154217698
 11
812.43240768845021
 21
797.16215391416813
  0
LINE
  8
ADD_LINE
  6
DOT
 62
    7
 10
915.51843591638522
 20
761.64977614944053
 11
955.58215991870782
 21
761.64977614944053
  0
LINE
  8
ADD_LINE
  6
DOT
 62
    7
 10
915.51843591638522
 20
761.64977614944053
 11
890.29837943412167
 21
761.64977614944053
  0
LINE
  8
_0-1_
  6
CONTINUOUS
 62
    7
 10
822.43244068042657
 20
812.16214154217698
 11
822.43244068042657
 21
808.94870242557022
  0
LINE
  8
_0-3_
  6
CONTINUOUS
 62
    7
 10
1072.432399440456
 20
798.64976212785052
 11
1072.432399440456
 21
783.64977449984167
  0
LINE
  8
_0-3_
  6
CONTINUOUS
 62
    7
 10
1104.0218043971706
 20
793.92724939294772
 11
1122.4324406804267
 21
786.64979676942562
  0
LINE
  8
ADD_LINE
  6
DOT
 62
    2
 10
1316.3021603146115
 20
845.48566663587417
 11
1316.3021603146115
 21
853.53760590424417
  0
LINE
  8
ADD_LINE
  6
DOT
 62
    7
 10
1316.3021603146115
 20
845.48566663587417
 11
1316.3021603146115
 21
786.08742791253178
  0
LINE
  8
_0-1_
  6
CONTINUOUS
 62
    7
 10
347.13035789695948
 20
724.6497283110748
 11
348.6486486486487
 21
724.6497283110748
  0
LINE
  8
_0-1_
  6
CONTINUOUS
 62
    7
 10
348.6486486486487
 20
761.64977614944053
 11
373.47385303394219
 21
761.64977614944053
  0
LINE
  8
_1-0_
  6
CONTINUOUS
 62
    7
 10
348.6486486486487
 20
724.6497283110748
 11
354.63817699535468
 21
724.6497283110748
  0
LINE
  8
_0-1_
  6
CONTINUOUS
 62
    7
 10
348.6486486486487
 20
761.64977614944053
 11
633.47384478594813
 21
761.64977614944053
  0
LINE
  8
_0-2_
  6
CONTINUOUS
 62
    7
 10
1288.3021174250421
 20
724.6497283110748
 11
1316.6988063502956
 21
724.6497283110748
  0
LINE
  8
_1-0_
  6
CONTINUOUS
 62
    7
 10
348.6486486486487
 20
724.6497283110748
 11
1337.4324076884502
 21
724.6497283110748
  0
LINE
  8
_0-1_
  6
CONTINUOUS
 62
    7
 10
348.6486486486487
 20
736.64975552945532
 11
1337.4324076884502
 21
736.64975552945532
  0
LINE
  8
_0-5_
  6
DASHED1
 62
    3
 10
348.11742627942891
 20
738.3950723184123
 11
1335.164126834354
 21
738.3950723184123
  0
LINE
  8
_0-5_
  6
CONTINUOUS
 62
    7
 10
1334.5603736671242
 20
738.86545542124156
 11
1314.5604314030829
 21
738.86545542124156
  0
LINE
  8
_0-5_
  6
CONTINUOUS
 62
    7
 10
1190.6146075274494
 20
751.58924412082979
 11
1190.6146075274494
 21
740.47010267103042
  0
LINE
  8
_0-1_
  6
CONTINUOUS
 62
    7
 10
348.6486486486487
 20
743.6497662518475
 11
1190.6146075274494
 21
743.6497662518475
  0
LINE
  8
ADD_LINE
  6
DOT
 62
    7
 10
955.58215991870782
 20
761.64977614944053
 11
1153.4738901499156
 21
761.64977614944053
  0
LINE
  8
_0-5_
  6
CONTINUOUS
 62
    7
 10
1190.6146075274494
 20
761.64977614944053
 11
1190.6146075274494
 21
751.58924412082979
  0
LINE
  8
_0-1_
  6
CONTINUOUS
 62
    7
 10
348.6486486486487
 20
761.64977614944053
 11
1190.6146075274494
 21
761.64977614944053
  0
LINE
  8
_0-5_
  6
CONTINUOUS
 62
    7
 10
767.43244480442354
 20
740.64974398226354
 11
767.43244480442354
 21
743.6497662518475
  0
LINE
  8
_0-5_
  6
CONTINUOUS
 62
    7
 10
767.43244480442354
 20
743.6497662518475
 11
817.43242418443845
 21
743.6497662518475
  0
LINE
  8
_0-5_
  6
CONTINUOUS
 62
    7
 10
817.43242418443845
 20
743.6497662518475
 11
817.43242418443845
 21
740.64974398226354
  0
LINE
  8
_0-5_
  6
CONTINUOUS
 62
    7
 10
817.43242418443845
 20
740.64974398226354
 11
767.43244480442354
 21
740.64974398226354
  0
LINE
  8
_0-5_
  6
CONTINUOUS
 62
    7
 10
767.43244480442354
 20
740.64974398226354
 11
817.43242418443845
 21
743.6497662518475
  0
LINE
  8
_0-5_
  6
CONTINUOUS
 62
    7
 10
1140.6146900073902
 20
740.64974398226354
 11
1140.6146900073902
 21
743.6497662518475
  0
LINE
  8
_0-5_
  6
CONTINUOUS
 62
    7
 10
1140.6146900073902
 20
743.6497662518475
 11
1190.6146075274494
 21
743.6497662518475
  0
LINE
  8
_0-5_
  6
CONTINUOUS
 62
    7
 10
1190.6146075274494
 20
743.6497662518475
 11
1190.6146075274494
 21
740.64974398226354
  0
LINE
  8
_0-5_
  6
CONTINUOUS
 62
    7
 10
1190.6146075274494
 20
740.64974398226354
 11
1140.6146900073902
 21
740.64974398226354
  0
LINE
  8
_0-5_
  6
CONTINUOUS
 62
    7
 10
1140.6146900073902
 20
740.64974398226354
 11
1190.6146075274494
 21
743.6497662518475
  0
LINE
  8
_0-5_
  6
CONTINUOUS
 62
    7
 10
505.72975777290964
 20
740.64974398226354
 11
505.72975777290964
 21
743.6497662518475
  0
LINE
  8
_0-5_
  6
CONTINUOUS
 62
    7
 10
505.72975777290964
 20
743.6497662518475
 11
555.72973715292437
 21
743.6497662518475
  0
LINE
  8
_0-5_
  6
CONTINUOUS
 62
    7
 10
555.72973715292437
 20
743.6497662518475
 11
555.72973715292437
 21
740.64974398226354
  0
LINE
  8
_0-5_
  6
CONTINUOUS
 62
    7
 10
555.72973715292437
 20
740.64974398226354
 11
505.72975777290964
 21
740.64974398226354
  0
LINE
  8
_0-5_
  6
CONTINUOUS
 62
    7
 10
505.72975777290964
 20
740.64974398226354
 11
555.72973715292437
 21
743.6497662518475
  0
LINE
  8
_0-5_
  6
CONTINUOUS
 62
    7
 10
964.34363287848396
 20
740.64974398226354
 11
964.34363287848396
 21
743.6497662518475
  0
LINE
  8
_0-5_
  6
CONTINUOUS
 62
    7
 10
964.34363287848396
 20
743.6497662518475
 11
1014.3436122584989
 21
743.6497662518475
  0
LINE
  8
_0-5_
  6
CONTINUOUS
 62
    7
 10
1014.3436122584989
 20
743.6497662518475
 11
1014.3436122584989
 21
740.64974398226354
  0
LINE
  8
_0-5_
  6
CONTINUOUS
 62
    7
 10
1014.3436122584989
 20
740.64974398226354
 11
964.34363287848396
 21
740.64974398226354
  0
LINE
  8
_0-5_
  6
CONTINUOUS
 62
    7
 10
964.34363287848396
 20
740.64974398226354
 11
1014.3436122584989
 21
743.6497662518475
  0
LINE
  8
_0-1_
  6
CONTINUOUS
 62
    7
 10
348.6486486486487
 20
740.64974398226354
 11
1190.6146075274494
 21
740.64974398226354
  0
LINE
  8
_0-5_
  6
CONTINUOUS
 62
    3
 10
1194.5604066591004
 20
740.64974398226354
 11
1311.1969818940033
 21
740.64974398226354
  0
LINE
  8
_0-5_
  6
CONTINUOUS
 62
    3
 10
1194.5604066591004
 20
760.02044677734375
 11
1216.9554426863388
 21
760.02044677734375
  0
LINE
  8
_0-5_
  6
CONTINUOUS
 62
    3
 10
1194.5604066591004
 20
760.02044677734375
 11
1194.5604066591004
 21
740.64974398226354
  0
LINE
  8
_0-5_
  6
CONTINUOUS
 62
    3
 10
1216.9554426863388
 20
760.02044677734375
 11
1213.195223421664
 21
755.24758003853458
  0
LINE
  8
_0-6_
  6
CONTINUOUS
 62
    7
 10
1292.4323829444679
 20
604.64976542704812
 11
1292.4323829444679
 21
724.6497283110748
  0
LINE
  8
_0-6_
  6
CONTINUOUS
 62
    7
 10
1292.4323829444679
 20
724.6497283110748
 11
1337.4324076884502
 21
724.6497283110748
  0
LINE
  8
_0-6_
  6
CONTINUOUS
 62
    7
 10
1337.4324076884502
 20
724.6497283110748
 11
1337.4324076884502
 21
604.64976542704812
  0
LINE
  8
_0-6_
  6
CONTINUOUS
 62
    7
 10
1337.4324076884502
 20
604.64976542704812
 11
1292.4323829444679
 21
604.64976542704812
  0
LINE
  8
_0-6_
  6
CONTINUOUS
 62
    7
 10
1292.4323829444679
 20
724.6497283110748
 11
1337.4324076884502
 21
604.64976542704812
  0
LINE
  8
_0-6_
  6
CONTINUOUS
 62
    7
 10
974.43243490683074
 20
664.64971593908353
 11
974.43243490683074
 21
724.6497283110748
  0
LINE
  8
_0-6_
  6
CONTINUOUS
 62
    7
 10
974.43243490683074
 20
724.6497283110748
 11
1034.4324472788219
 21
724.6497283110748
  0
LINE
  8
_0-6_
  6
CONTINUOUS
 62
    7
 10
1034.4324472788219
 20
724.6497283110748
 11
1034.4324472788219
 21
664.64971593908353
  0
LINE
  8
_0-6_
  6
CONTINUOUS
 62
    7
 10
1034.4324472788219
 20
664.64971593908353
 11
974.43243490683074
 21
664.64971593908353
  0
LINE
  8
_0-6_
  6
CONTINUOUS
 62
    7
 10
671.43247449720229
 20
664.64971593908353
 11
671.43247449720229
 21
724.6497283110748
  0
LINE
  8
_0-6_
  6
CONTINUOUS
 62
    7
 10
671.43247449720229
 20
724.6497283110748
 11
731.43248686919355
 21
724.6497283110748
  0
LINE
  8
_0-6_
  6
CONTINUOUS
 62
    7
 10
731.43248686919355
 20
724.6497283110748
 11
731.43248686919355
 21
664.64971593908353
  0
LINE
  8
_0-6_
  6
CONTINUOUS
 62
    7
 10
731.43248686919355
 20
664.64971593908353
 11
671.43247449720229
 21
664.64971593908353
  0
LINE
  8
_0-6_
  6
CONTINUOUS
 62
    7
 10
368.43251408757396
 20
664.64971593908353
 11
368.43251408757396
 21
724.6497283110748
  0
LINE
  8
_0-6_
  6
CONTINUOUS
 62
    7
 10
368.43251408757396
 20
724.6497283110748
 11
428.43249552958724
 21
724.6497283110748
  0
LINE
  8
_0-6_
  6
CONTINUOUS
 62
    7
 10
428.43249552958724
 20
724.6497283110748
 11
428.43249552958724
 21
664.64971593908353
  0
LINE
  8
_0-6_
  6
CONTINUOUS
 62
    7
 10
428.43249552958724
 20
664.64971593908353
 11
368.43251408757396
 21
664.64971593908353
  0
LINE
  8
_0-6_
  6
CONTINUOUS
 62
    7
 10
368.43251408757396
 20
724.6497283110748
 11
428.43249552958724
 21
664.64971593908353
  0
LINE
  8
_0-6_
  6
CONTINUOUS
 62
    7
 10
671.43247449720229
 20
724.6497283110748
 11
731.43248686919355
 21
664.64971593908353
  0
LINE
  8
_0-6_
  6
CONTINUOUS
 62
    7
 10
974.43243490683074
 20
724.6497283110748
 11
1034.4324472788219
 21
664.64971593908353
  0
LINE
  8
_0-7_
  6
CONTINUOUS
 62
    7
 10
1378.092709103146
 20
740.64974398226354
 11
1443.2296340529983
 21
740.64974398226354
  0
LINE
  8
_0-7_
  6
CONTINUOUS
 62
    7
 10
1194.5604066591004
 20
572.4707732329498
 11
1311.1969818940033
 21
572.4707732329498
  0
LINE
  8
_0-7_
  6
CONTINUOUS
 62
    7
 10
1194.5604066591004
 20
693.43500910578553
 11
1194.5604066591004
 21
572.4707732329498
  0
LINE
  8
_0-7_
  6
CONTINUOUS
 62
    7
 10
1311.1969818940033
 20
693.43500910578553
 11
1311.1969818940033
 21
572.4707732329498
  0
LINE
  8
_0-7_
  6
CONTINUOUS
 62
    7
 10
1228.0651195629225
 20
824.41393878008864
 11
1270.6737621410475
 21
833.5026509052999
  0
LINE
  8
_0-7_
  6
CONTINUOUS
 62
    7
 10
1217.2962910420185
 20
748.64217397328969
 11
1123.7702240815033
 21
491.68126905286636
  0
LINE
  8
_0-7_
  6
CONTINUOUS
 62
    7
 10
1217.2962910420185
 20
748.64217397328969
 11
1222.9502909892315
 21
740.76727789801521
  0
LINE
  8
_0-7_
  6
CONTINUOUS
 62
    7
 10
655.46543018237969
 20
555.01018214870146
 11
600.72178196262666
 21
555.01018214870146
  0
LINE
  8
_0-7_
  6
CONTINUOUS
 62
    7
 10
655.46543018237969
 20
512.65392818966438
 11
616.13821081213052
 21
512.65392818966438
  0
LINE
  8
_0-7_
  6
CONTINUOUS
 62
    7
 10
655.46543018237969
 20
492.4384349101299
 11
623.49608137800897
 21
492.4384349101299
  0
LINE
  8
_0-7_
  6
CONTINUOUS
 62
    7
 10
630.51050547006969
 20
473.16642967430323
 11
657.39069758234803
 21
473.16642967430323
  0
LINE
  8
_0-5_
  6
CONTINUOUS
 62
    7
 10
1527.3717931798988
 20
740.64974398226354
 11
1378.092709103146
 21
740.64974398226354
  0
LINE
  8
_0-5_
  6
CONTINUOUS
 62
    7
 10
1337.4324076884502
 20
1164.9433445286106
 11
1337.4324076884502
 21
437.83783783783792
  0
LINE
  8
_0-6_
  6
CONTINUOUS
 62
    7
 10
1312.81833133182
 20
901.22290946341855
 11
1312.81833133182
 21
1164.9433445286106
  0
LINE
  8
_0-6_
  6
CONTINUOUS
 62
    7
 10
1300.8183659733954
 20
901.22290946341855
 11
1300.8183659733954
 21
1164.9433445286106
  0
LINE
  8
_0-5_
  6
CONTINUOUS
 62
    7
 10
1314.5604314030829
 20
738.86545542124156
 11
1314.5604314030829
 21
870.14459146035688
  0
LINE
  8
_0-5_
  6
CONTINUOUS
 62
    7
 10
1314.5604314030829
 20
870.14459146035688
 11
1334.5603736671242
 21
870.14459146035688
  0
LINE
  8
_0-5_
  6
CONTINUOUS
 62
    7
 10
1334.5603736671242
 20
870.14459146035688
 11
1334.5603736671242
 21
738.86545542124156
  0
LINE
  8
_0-5_
  6
CONTINUOUS
 62
    7
 10
1334.5603736671242
 20
738.86545542124156
 11
1314.5604314030829
 21
870.14459146035688
  0
LINE
  8
ADD_LINE
  6
DOT
 62
    3
 10
1314.5604314030829
 20
870.14459146035688
 11
1300.341796875
 21
870.14459146035688
  0
LINE
  8
_0-5_
  6
CONTINUOUS
 62
    3
 10
1311.1969818940033
 20
870.14459146035688
 11
1293.3065878378379
 21
863.59987001161335
  0
LINE
  8
_0-5_
  6
CONTINUOUS
 62
    3
 10
1311.1969818940033
 20
740.64974398226354
 11
1311.1969818940033
 21
870.14459146035688
  0
LINE
  8
_0-5_
  6
CONTINUOUS
 62
    7
 10
1326.0827141839104
 20
896.69946206582563
 11
1331.2361433699325
 21
882.6124655233848
  0
LINE
  8
_0-5_
  6
CONTINUOUS
 62
    7
 10
1246.7141641152873
 20
851.69238528689834
 11
1241.5608586491767
 21
865.77938182933917
  0
LINE
  8
_0-5_
  6
CONTINUOUS
 62
    7
 10
1241.5608586491767
 20
865.77938182933917
 11
1326.0827141839104
 21
896.69946206582563
  0
LINE
  8
_0-5_
  6
CONTINUOUS
 62
    7
 10
1241.5608586491767
 20
865.77938182933917
 11
1331.2361433699325
 21
882.6124655233848
  0
LINE
  8
_0-5_
  6
CONTINUOUS
 62
    3
 10
1234.2780860694679
 20
866.44146893475511
 11
1332.8182735958615
 21
902.4897394953548
  0
LINE
  8
_0-5_
  6
CONTINUOUS
 62
    3
 10
1332.8182735958615
 20
902.4897394953548
 11
1332.8182735958615
 21
969.28265545819261
  0
LINE
  8
_0-5_
  6
CONTINUOUS
 62
    3
 10
1234.2780860694679
 20
866.44146893475511
 11
1239.4683837890625
 21
845.21137959248324
  0
LINE
  8
_0-5_
  6
CONTINUOUS
 62
    7
 10
1331.2361433699325
 20
882.6124655233848
 11
1246.7141641152873
 21
851.69238528689834
  0
LINE
  8
_0-6_
  6
CONTINUOUS
 62
    7
 10
1300.8183659733954
 20
901.22290946341855
 11
1312.81833133182
 21
901.22290946341855
  0
LINE
  8
_0-6_
  6
CONTINUOUS
 62
    7
 10
1312.81833133182
 20
925.8610493427999
 11
1312.81833133182
 21
965.86105759079396
  0
LINE
  8
_0-6_
  6
CONTINUOUS
 62
    7
 10
1312.81833133182
 20
965.86105759079396
 11
1332.8182735958615
 21
965.86105759079396
  0
LINE
  8
_0-6_
  6
CONTINUOUS
 62
    7
 10
1332.8182735958615
 20
965.86105759079396
 11
1332.8182735958615
 21
925.8610493427999
  0
LINE
  8
_0-6_
  6
CONTINUOUS
 62
    7
 10
1332.8182735958615
 20
925.8610493427999
 11
1312.81833133182
 21
925.8610493427999
  0
LINE
  8
_0-6_
  6
CONTINUOUS
 62
    7
 10
1312.81833133182
 20
965.86105759079396
 11
1332.8182735958615
 21
925.8610493427999
  0
LINE
  8
_0-7_
  6
CONTINUOUS
 62
    7
 10
1443.2296340529983
 20
740.64974398226354
 11
1443.2296340529983
 21
870.14459146035688
  0
LINE
  8
_0-7_
  6
CONTINUOUS
 62
    7
 10
1378.092709103146
 20
870.14459146035688
 11
1443.2296340529983
 21
870.14459146035688
  0
LINE
  8
_0-7_
  6
CONTINUOUS
 62
    7
 10
1297.2972972972975
 20
990.7385954985748
 11
1243.7422881255279
 21
1137.8796139278929
  0
LINE
  8
_0-7_
  6
CONTINUOUS
 62
    7
 10
1281.1219086518158
 20
883.99998432881137
 11
1216.1329527158996
 21
1062.5555914801521
  0
LINE
  8
_0-7_
  6
CONTINUOUS
 62
    7
 10
1255.0017898147171
 20
861.79788950327281
 11
1208.8240752349029
 21
988.67018416121198
  0
LINE
  8
_0-7_
  6
CONTINUOUS
 62
    7
 10
1191.007541965794
 20
907.5080046782623
 11
1228.0651195629225
 21
824.41393878008864
  0
LINE
  8
_0-7_
  6
CONTINUOUS
 62
    7
 10
1191.007541965794
 20
907.5080046782623
 11
1177.5356808224242
 21
944.52166170687292
  0
LINE
  8
_0-7_
  6
CONTINUOUS
 62
    7
 10
1138.5239472260346
 20
876.00804921743031
 11
1184.0182330157306
 21
769.73437747439834
  0
LINE
  8
_0-7_
  6
CONTINUOUS
 62
    7
 10
1297.2972972972975
 20
990.7385954985748
 11
1301.3830236486488
 21
990.7385954985748
  0
LINE
  8
_0-7_
  6
CONTINUOUS
 62
    7
 10
1243.7422881255279
 20
1137.8796139278929
 11
1224.3243243243244
 21
1137.8796139278929
  0
LINE
  8
_0-7_
  6
CONTINUOUS
 62
    7
 10
1216.1329527158996
 20
1062.5555914801521
 11
1203.4825917836783
 21
1062.5555914801521
  0
LINE
  8
_0-7_
  6
CONTINUOUS
 62
    7
 10
1208.8240752349029
 20
988.67018416121198
 11
1191.4202715899494
 21
988.67018416121198
  0
LINE
  8
_0-7_
  6
CONTINUOUS
 62
    7
 10
1177.5356808224242
 20
944.52166170687292
 11
1161.2642855257602
 21
944.52166170687292
  0
LINE
  8
_0-7_
  6
CONTINUOUS
 62
    7
 10
1138.5239472260346
 20
876.00804921743031
 11
1129.9020303262248
 21
876.00804921743031
  0
LINE
  8
_0-7_
  6
CONTINUOUS
 62
    3
 10
1332.8182735958615
 20
969.28265545819261
 11
1332.8182735958615
 21
1052.4391380516258
  0
LINE
  8
_0-7_
  6
CONTINUOUS
 62
    7
 10
1443.2296340529983
 20
902.4897394953548
 11
1443.2296340529983
 21
1052.4896157754436
  0
LINE
  8
_0-7_
  6
CONTINUOUS
 62
    7
 10
1378.092709103146
 20
902.4897394953548
 11
1443.2296340529983
 21
902.4897394953548
  0
LINE
  8
_0-7_
  6
CONTINUOUS
 62
    7
 10
1378.092709103146
 20
1052.4896157754436
 11
1443.2296340529983
 21
1052.4896157754436
  0
LINE
  8
_0-5_
  6
DASHED1
 62
    3
 10
1335.164126834354
 20
738.3950723184123
 11
1335.164126834354
 21
1102.489657015414
  0
LINE
  8
_0-5_
  6
CONTINUOUS
 62
    7
 10
1443.2296340529983
 20
1102.489657015414
 11
1378.092709103146
 21
1102.489657015414
  0
LINE
  8
_0-5_
  6
CONTINUOUS
 62
    7
 10
1443.2296340529983
 20
1052.4896157754436
 11
1378.092709103146
 21
1052.4896157754436
  0
LINE
  8
_0-5_
  6
CONTINUOUS
 62
    7
 10
1443.2296340529983
 20
1102.489657015414
 11
1443.2296340529983
 21
1052.4896157754436
  0
LINE
  8
_0-5_
  6
CONTINUOUS
 62
    7
 10
1527.3717931798988
 20
1102.489657015414
 11
1378.092709103146
 21
1102.489657015414
  0
LINE
  8
_0-5_
  6
CONTINUOUS
 62
    7
 10
1443.2296340529983
 20
983.7838662637248
 11
1458.2461382891684
 21
1039.8261405326225
  0
LINE
  8
_0-5_
  6
CONTINUOUS
 62
    7
 10
1443.2296340529983
 20
1073.1091473553633
 11
1461.2333555479308
 21
1140.3000702729096
  0
LINE
  8
_0-5_
  6
CONTINUOUS
 62
    7
 10
1461.2333555479308
 20
1140.3000702729096
 11
1471.4959221917231
 21
1140.3000702729096
  0
LINE
  8
_0-5_
  6
CONTINUOUS
 62
    7
 10
1458.2461382891684
 20
1039.8261405326225
 11
1465.0773331925677
 21
1039.8261405326225
  0
LINE
  8
_0-5_
  6
CONTINUOUS
 62
    7
 10
1527.3717931798988
 20
740.64974398226354
 11
1527.3717931798988
 21
1102.489657015414
  0
LINE
  8
_0-7_
  6
CONTINUOUS
 62
    7
 10
528.20879961993251
 20
754.2379637022276
 11
637.69819929793084
 21
453.41835021972656
  0
LINE
  8
_0-7_
  6
CONTINUOUS
 62
    7
 10
657.39069758234803
 20
453.41835021972656
 11
637.69819929793084
 21
453.41835021972656
  0
ARC
  8
_0-1_
  6
CONTINUOUS
 62
    7
 10
531.63967648068001
 20
769.27203616580459
 40
72.894480421736432
 50
13.791900634765625
 51
161.69851684570312
  0
ARC
  8
_0-1_
  6
CONTINUOUS
 62
    7
 10
531.63967648068001
 20
769.27203616580459
 40
57.894481194985879
 50
25.20538330078125
 51
167.5159912109375
  0
ARC
  8
_0-1_
  6
CONTINUOUS
 62
    7
 10
791.63966823268584
 20
769.27203616580459
 40
72.894480421736432
 50
13.791900634765625
 51
161.69851684570312
  0
ARC
  8
_0-1_
  6
CONTINUOUS
 62
    7
 10
655.51844416437928
 20
929.0261758340373
 40
167.37638421960781
 50
231.9831237792969
 51
298.39506530761719
  0
ARC
  8
_0-1_
  6
CONTINUOUS
 62
    7
 10
791.63966823268584
 20
769.27203616580459
 40
57.894481194985879
 50
25.20538330078125
 51
167.5159912109375
  0
ARC
  8
_0-1_
  6
CONTINUOUS
 62
    7
 10
654.7760009765625
 20
932.16210442620365
 40
155.49068966427365
 50
234.57966613769534
 51
295.79264831542969
  0
ARC
  8
_0-1_
  6
CONTINUOUS
 62
    7
 10
572.23712818042657
 20
812.72729409707563
 40
10.507658687797754
 50
201.07586669921878
 51
223.8392028808594
  0
ARC
  8
_0-1_
  6
CONTINUOUS
 62
    7
 10
1051.6396599846919
 20
769.27203616580459
 40
72.894480421736432
 50
13.791900634765625
 51
161.69851684570312
  0
ARC
  8
_0-1_
  6
CONTINUOUS
 62
    7
 10
915.51843591638522
 20
929.0261758340373
 40
167.37638421960781
 50
231.9831237792969
 51
298.39506530761719
  0
ARC
  8
_0-1_
  6
CONTINUOUS
 62
    7
 10
1051.6396599846919
 20
769.27203616580459
 40
57.894481194985879
 50
25.20538330078125
 51
167.5159912109375
  0
ARC
  8
_0-1_
  6
CONTINUOUS
 62
    7
 10
914.7758690086572
 20
932.16210442620365
 40
155.49068966427365
 50
234.57966613769534
 51
295.79264831542969
  0
ARC
  8
_0-1_
  6
CONTINUOUS
 62
    7
 10
832.23711993243239
 20
812.72729409707563
 40
10.507658687797754
 50
201.07586669921878
 51
223.8392028808594
  0
ARC
  8
_0-3_
  6
CONTINUOUS
 62
    7
 10
1182.4323911924621
 20
1091.1497373838683
 40
312.4998865900813
 50
249.39030456542969
 51
290.60969543457031
  0
ARC
  8
_0-3_
  6
CONTINUOUS
 62
    7
 10
1182.4323911924621
 20
1047.6498165646117
 40
285.99997855521542
 50
247.38014221191406
 51
292.61985778808594
  0
ARC
  8
_0-1_
  6
CONTINUOUS
 62
    7
 10
395.51845241237334
 20
929.0261758340373
 40
167.37638421960781
 50
253.73822021484375
 51
298.39506530761719
  0
ARC
  8
_0-1_
  6
CONTINUOUS
 62
    7
 10
394.77594736460105
 20
932.16210442620365
 40
155.49068966427365
 50
252.74311828613281
 51
295.79264831542969
  0
TEXT
  8
_1-0_
 62
    7
 10
717.5675778775601
 20
145.94594594594597
 40
12.5
 41
1
 50
0
  1
図名
  0
TEXT
  8
_1-0_
 62
    7
 10
717.5675778775601
 20
97.297297297297263
 40
12.5
 41
1
 50
0
  1
縮尺
  0
TEXT
  8
_1-0_
 62
    7
 10
1893.6189599939298
 20
138.65179113439609
 40
12.5
 41
1
 50
0
  1
ＮＯ
  0
TEXT
  8
_1-0_
 62
    7
 10
135.88908169720625
 20
125.3822120460304
 40
12.5
 41
1
 50
0
  1
木造
  0
TEXT
  8
_1-0_
 62
    7
 10
1927.7262301058386
 20
115.24704598091745
 40
12.5
 41
1
 50
0
  1
Ｓ
  0
TEXT
  8
_1-0_
 62
    7
 10
1983.5280753470756
 20
103.76186370849609
 40
12.5
 41
1
 50
0
  1
5
  0
TEXT
  8
_1-0_
 62
    7
 10
831.89503437763949
 20
94.965037784060939
 40
12.5
 41
1
 50
0
  1
1/5
  0
TEXT
  8
_1-0_
 62
    7
 10
206.71764837728972
 20
101.30050246779987
 40
12.5
 41
1
 50
0
  1
壁際
  0
TEXT
  8
_1-0_
 62
    7
 10
252.11834005407383
 20
101.30050246779987
 40
12.5
 41
1
 50
0
  1
1
  0
TEXT
  8
_0-7_
 62
    7
 10
1440.7296258050042
 20
805.38259970175261
 40
12.5
 41
1
 50
90
  1
150
  0
TEXT
  8
_0-7_
 62
    7
 10
1243.5036324165962
 20
574.97078148094386
 40
12.5
 41
1
 50
0
  1
120
  0
TEXT
  8
_0-7_
 62
    7
 10
665.07618878338792
 20
545.64235790355792
 40
12.5
 41
1
 50
0
  1
瓦桟
  0
TEXT
  8
_0-5_
 62
    7
 10
1474.7051960713156
 20
1134.3128926045185
 40
12.5
 41
1
 50
0
  1
水切鉄板上端より
  0
TEXT
  8
_0-7_
 62
    7
 10
1194.271128886455
 20
1132.2313050966004
 40
12.5
 41
1
 50
0
  1
外壁
  0
TEXT
  8
_0-7_
 62
    7
 10
1440.7296258050042
 20
968.11467763539906
 40
12.5
 41
1
 50
90
  1
150
  0
TEXT
  8
_0-7_
 62
    7
 10
1088.6779166556694
 20
983.23312707849459
 40
12.5
 41
1
 50
0
  1
雨押え板　15ｘ90
  0
TEXT
  8
_0-7_
 62
    7
 10
1127.0270064070419
 20
1058.8357049065669
 40
12.5
 41
1
 50
0
  1
水切り鉄板
  0
TEXT
  8
_0-7_
 62
    7
 10
1081.4462403993348
 20
868.13086432379646
 40
12.5
 41
1
 50
0
  1
半瓦
  0
TEXT
  8
_0-7_
 62
    7
 10
1466.8106285301417
 20
1035.0005072516365
 40
12.5
 41
1
 50
0
  1
水切り鉄板立上がり寸法
  0
TEXT
  8
_0-5_
 62
    7
 10
1440.7296258050042
 20
1071.2396363954285
 40
12.5
 41
1
 50
90
  1
50
  0
TEXT
  8
_0-5_
 62
    7
 10
1475.0798364587736
 20
1186.2096838048988
 40
15
 41
1
 50
0
  1
雨押え板上端より50mm以上とする
  0
TEXT
  8
_0-5_
 62
    7
 10
1475.2400991078969
 20
1113.4524783572635
 40
12.5
 41
1
 50
0
  1
50ｍｍ以上
  0
TEXT
  8
_0-5_
 62
    7
 10
1524.8717849319046
 20
896.56970049883876
 40
12.5
 41
1
 50
90
  1
300 以上
  0
TEXT
  8
_0-7_
 62
    7
 10
665.07618878338792
 20
507.35215882997261
 40
12.5
 41
1
 50
0
  1
縦桟
  0
TEXT
  8
_0-7_
 62
    7
 10
665.07617847339532
 20
467.35215058197855
 40
12.5
 41
1
 50
0
  1
野地板
  0
TEXT
  8
_0-7_
 62
    7
 10
734.17042912663646
 20
546.279206147065
 40
12.5
 41
1
 50
0
  1
15×21　以上　（防腐処理）
  0
TEXT
  8
_0-7_
 62
    7
 10
737.29916134396126
 20
467.35215058197855
 40
12.5
 41
1
 50
0
  1
ｔ＝12
  0
TEXT
  8
_0-7_
 62
    7
 10
744.1628945840373
 20
447.2373343802787
 40
12.5
 41
1
 50
0
  1
60ｘ60
  0
TEXT
  8
_0-7_
 62
    7
 10
734.05479224952501
 20
528.57037106075813
 40
12.5
 41
1
 50
0
  1
※　地域により瓦桟木の大きさは、異なります
  0
POINT
  8
_0-7_
 62
    7
 10
1443.2296340529983
 20
740.64974398226354
  0
POINT
  8
_0-7_
 62
    7
 10
1194.5604066591004
 20
572.4707732329498
  0
POINT
  8
_0-7_
 62
    7
 10
1311.1969818940033
 20
572.4707732329498
  0
POINT
  8
_0-5_
 62
    7
 10
1527.3717931798988
 20
740.64974398226354
  0
POINT
  8
_0-7_
 62
    7
 10
1443.2296340529983
 20
870.14459146035688
  0
POINT
  8
_0-7_
 62
    7
 10
1443.2296340529983
 20
902.4897394953548
  0
POINT
  8
_0-7_
 62
    7
 10
1443.2296340529983
 20
1052.4896157754436
  0
POINT
  8
_0-5_
 62
    7
 10
1443.2296340529983
 20
1102.489657015414
  0
POINT
  8
_0-5_
 62
    7
 10
1443.2296340529983
 20
1052.4896157754436
  0
POINT
  8
_0-5_
 62
    7
 10
1527.3717931798988
 20
1102.489657015414
  0
TEXT
  8
_0-7_
 62
    7
 10
1010.1948776443033
 20
485.37716534561082
 40
12.5
 41
1
 50
0
  1
捨谷
  0
TEXT
  8
_0-7_
 62
    7
 10
664.39527563146635
 20
487.35215470597552
 40
12.5
 41
1
 50
0
  1
ルーフィング
  0
TEXT
  8
_0-7_
 62
    7
 10
665.07618878338792
 20
447.35214645798146
 40
12.5
 41
1
 50
0
  1
たる木
  0
TEXT
  8
_0-5_
 62
    7
 10
1473.1467210924304
 20
1214.4451656857054
 40
15
 41
1
 50
0
  1
ルーフィング立上げ長さは、300ｍｍ以上かつ
  0
TEXT
  8
_0-7_
 62
    7
 10
1538.2565678776923
 20
851.75356478304479
 40
12.5
 41
1
 50
0
  1
ルーフィング立上がり寸法
  0
TEXT
  8
_0-7_
 62
    7
 10
1120.3907934917124
 20
939.61427986079775
 40
12.5
 41
1
 50
0
  1
葺き土
  0
ARC
  8
_0-8_
  6
CONTINUOUS
 62
    7
 10
1089.8106891438351
 20
827.94138831158421
 40
181.16327018159339
 50
348.01337693967298
 51
10.048347128103856
  0
LINE
  8
_0-2_
  6
CONTINUOUS
 62
    7
 10
1292.4323829444679
 20
798.64982398780626
 11
1292.4323829444679
 21
793.18241217206844
  0
LINE
  8
_0-2_
  6
CONTINUOUS
 62
    7
 10
1292.4323829444679
 20
793.18241217206844
 11
1292.4323829444679
 21
783.6498363597974
  0
LINE
  8
ADD_LINE
  6
DOT
 62
    4
 10
1292.4323829444679
 20
793.14393145840836
 11
1311.1969818940033
 21
797.05322290622826
  0
LINE
  8
ADD_LINE
  6
DOT
 62
    4
 10
1300.4837240633587
 20
871.36252461084894
 11
1303.5744113025871
 21
867.35607818962706
  0
SOLID
  8
_0-8_
  6
CONTINUOUS
 62
    8
 10
1268.3614024145734
 20
796.86939837724719
 11
1267.0238963172731
 21
790.31679972654865
 12
1273.09146383098
 22
792.07541721197003
 13
1273.09146383098
 23
792.07541721197003
  0
SOLID
  8
_0-8_
  6
CONTINUOUS
 62
    8
 10
1268.3614024145734
 20
796.86939837724719
 11
1273.09146383098
 21
792.07541721197003
 12
1279.8030374623681
 22
794.24868867356236
 13
1279.8030374623681
 23
794.24868867356236
  0
SOLID
  8
_0-8_
  6
CONTINUOUS
 62
    8
 10
1268.3614024145734
 20
796.86939837724719
 11
1279.8030374623681
 21
794.24868867356236
 12
1286.5146110937562
 22
796.42196013515468
 13
1286.5146110937562
 23
796.42196013515468
  0
SOLID
  8
_0-8_
  6
CONTINUOUS
 62
    8
 10
1268.3614024145734
 20
796.86939837724719
 11
1286.5146110937562
 21
796.42196013515468
 12
1292.4323829444679
 22
798.64982398780626
 13
1292.4323829444679
 23
798.64982398780626
  0
SOLID
  8
_0-8_
  6
CONTINUOUS
 62
    8
 10
1292.4323829444679
 20
798.64982398780626
 11
1268.2552097031846
 21
859.7002569206619
 12
1268.1950733177475
 22
859.55059497330069
 13
1268.1950733177475
 23
859.55059497330069
  0
SOLID
  8
_0-8_
  6
CONTINUOUS
 62
    8
 10
1292.4323829444679
 20
798.64982398780626
 11
1268.1950733177475
 21
859.55059497330069
 12
1269.8954763874619
 22
848.32479621788889
 13
1269.8954763874619
 23
848.32479621788889
  0
SOLID
  8
_0-8_
  6
CONTINUOUS
 62
    8
 10
1292.4323829444679
 20
798.64982398780626
 11
1269.8954763874619
 21
848.32479621788889
 12
1270.7264331227766
 22
838.60899438959382
 13
1270.7264331227766
 23
838.60899438959382
  0
SOLID
  8
_0-8_
  6
CONTINUOUS
 62
    8
 10
1292.4323829444679
 20
798.64982398780626
 11
1270.7264331227766
 21
838.60899438959382
 12
1271.1099516159989
 22
828.06223582598409
 13
1271.1099516159989
 23
828.06223582598409
  0
SOLID
  8
_0-8_
  6
CONTINUOUS
 62
    8
 10
1292.4323829444679
 20
798.64982398780626
 11
1271.1099516159989
 21
828.06223582598409
 12
1270.9181923693877
 22
819.8805079705777
 13
1270.9181923693877
 23
819.8805079705777
  0
SOLID
  8
_0-8_
  6
CONTINUOUS
 62
    8
 10
1292.4323829444679
 20
798.64982398780626
 11
1270.9181923693877
 21
819.8805079705777
 12
1270.3429146295546
 22
811.82661961291205
 13
1270.3429146295546
 23
811.82661961291205
  0
SOLID
  8
_0-8_
  6
CONTINUOUS
 62
    8
 10
1292.4323829444679
 20
798.64982398780626
 11
1270.3429146295546
 21
811.82661961291205
 12
1269.3201986476286
 22
803.13353376654277
 13
1269.3201986476286
 23
803.13353376654277
  0
SOLID
  8
_0-8_
  6
CONTINUOUS
 62
    8
 10
1292.4323829444679
 20
798.64982398780626
 11
1269.3201986476286
 21
803.13353376654277
 12
1268.3614024145734
 22
796.86939837724719
 13
1268.3614024145734
 23
796.86939837724719
  0
SOLID
  8
_0-8_
  6
CONTINUOUS
 62
    8
 10
1292.432278811991
 20
798.64981628558041
 11
1292.4323829444679
 21
793.14393145840836
 12
1311.1969818940033
 22
797.05322290622826
 13
1311.1969818940033
 23
797.05322290622826
  0
SOLID
  8
_0-8_
  6
CONTINUOUS
 62
    8
 10
1292.432278811991
 20
798.64981628558041
 11
1311.1969818940033
 21
797.05322290622826
 12
1311.1969818940033
 22
870.14459146035688
 13
1311.1969818940033
 23
870.14459146035688
  0
SOLID
  8
_0-8_
  6
CONTINUOUS
 62
    8
 10
1292.432278811991
 20
798.64981628558041
 11
1311.1969818940033
 21
870.14459146035688
 12
1303.5744113025871
 22
867.35607818962706
 13
1303.5744113025871
 23
867.35607818962706
  0
SOLID
  8
_0-8_
  6
CONTINUOUS
 62
    8
 10
1292.432278811991
 20
798.64981628558041
 11
1303.5744113025871
 21
867.35607818962706
 12
1300.4837240633587
 22
871.36252461084894
 13
1300.4837240633587
 23
871.36252461084894
  0
SOLID
  8
_0-8_
  6
CONTINUOUS
 62
    8
 10
1292.432278811991
 20
798.64981628558041
 11
1300.4837240633587
 21
871.36252461084894
 12
1268.4296278249506
 22
859.52583879889585
 13
1268.4296278249506
 23
859.52583879889585
  0
SOLID
  8
_0-8_
  6
CONTINUOUS
 62
    8
 10
1292.432278811991
 20
798.64981628558041
 11
1268.4296278249506
 21
859.52583879889585
 12
1268.2993691245169
 22
859.58874877355572
 13
1268.2993691245169
 23
859.58874877355572
  0
TEXT
  8
_1-0_
 62
    7
 10
81.081079792332105
 20
145.94594594594597
 40
12.5
 41
1
 50
0
  1
Ｓ形
  0
ENDSEC
  0
EOF
