  0
SECTION
  2
HEADER
  9
$ACADVER
  1
AC1009
  9
$INSBASE
 10
0
 20
0
 30
0
  9
$EXTMIN
 10
0
 20
0
  9
$EXTMAX
 10
420
 20
297
  9
$LIMMIN
 10
0
 20
0
  9
$LIMMAX
 10
420
 20
297
  9
$LTSCALE
 40
1
  0
ENDSEC
  0
SECTION
  2
TABLES
  0
TABLE
  2
LTYPE
 70
     9
  0
LTYPE
  2
CONTINUOUS
 70
    64
  3
実線
 72
    65
 73
     0
 40
0.0
  0
LTYPE
  2
DASHED1
 70
    64
  3
--  --  --  --  --  --  --  --  
 72
    65
 73
     2
 40
2.5
 49
1.25
 49
-1.25
  0
LTYPE
  2
DASHED2
 70
    64
  3
----    ----    ----    ----    
 72
    65
 73
     2
 40
5.0
 49
2.5
 49
-2.5
  0
LTYPE
  2
DASHED3
 70
    64
  3
------  ------  ------  ------  
 72
    65
 73
     2
 40
5.0
 49
3.75
 49
-1.25
  0
LTYPE
  2
CENTER1
 70
    64
  3
----- - ----- - ----- - ----- - 
 72
    65
 73
     4
 40
10.0
 49
6.25
 49
-1.25
 49
1.25
 49
-1.25
  0
LTYPE
  2
CENTER2
 70
    64
  3
----------  --  ----------  --  
 72
    65
 73
     4
 40
20.0
 49
12.5
 49
-2.5
 49
2.5
 49
-2.5
  0
LTYPE
  2
PHANTOM1
 70
    64
  3
--- - - --- - - --- - - --- - - 
 72
    65
 73
     6
 40
10.0
 49
3.25
 49
-1.25
 49
1.25
 49
-1.25
 49
1.25
 49
-1.25
  0
LTYPE
  2
PHANTOM2
 70
    64
  3
--------  -  -  --------  -  -  
 72
    65
 73
     6
 40
20.0
 49
10.0
 49
-2.5
 49
1.25
 49
-2.5
 49
1.25
 49
-2.5
  0
LTYPE
  2
DOT
 70
    64
  3
-   -   -   -   -   -   -   -   
 72
    65
 73
     2
 40
2.5
 49
0.625
 49
-1.875
  0
LTYPE
  2
DUMMY
 70
    64
  3
ダミー
 72
    65
 73
     0
 40
0.0
  0
LTYPE
  2
RAND1
 70
    64
  3
ランダム線1
 72
    65
 73
     4
 40
10.0
 49
1.0
 49
-2.0
 49
3.0
 49
-4.0
  0
LTYPE
  2
RAND2
 70
    64
  3
ランダム線2
 72
    65
 73
     4
 40
14.0
 49
2.0
 49
-3.0
 49
4.0
 49
-5.0
  0
LTYPE
  2
RAND3
 70
    64
  3
ランダム線3
 72
    65
 73
     4
 40
18.0
 49
3.0
 49
-4.0
 49
5.0
 49
-6.0
  0
LTYPE
  2
RAND4
 70
    64
  3
ランダム線4
 72
    65
 73
     4
 40
22.0
 49
4.0
 49
-5.0
 49
6.0
 49
-7.0
  0
LTYPE
  2
RAND5
 70
    64
  3
ランダム線5
 72
    65
 73
     4
 40
26.0
 49
5.0
 49
-6.0
 49
7.0
 49
-8.0
  0
LTYPE
  2
LONG1
 70
    64
  3
----------  --  ----------  --  
 72
    65
 73
     4
 40
40.0
 49
32.5
 49
-2.5
 49
2.5
 49
-2.5
  0
LTYPE
  2
LONG2
 70
    64
  3
--------  -  -  --------  -  -  
 72
    65
 73
     6
 40
40.0
 49
30.0
 49
-2.5
 49
1.25
 49
-2.5
 49
1.25
 49
-2.5
  0
LTYPE
  2
LONG3
 70
    64
  3
+++++++++++++++..+++++++++++++++
 72
    65
 73
     2
 40
40.0
 49
37.5
 49
-2.5
  0
LTYPE
  2
LONG4
 70
    64
  3
+++++++++++++++..+++++++++++++++
 72
    65
 73
     2
 40
80.0
 49
75.0
 49
-5.0
  0
LTYPE
  2
LONG5
 70
    64
  3
----------  --  ----------  --  
 72
    65
 73
     4
 40
60.0
 49
37.5
 49
-7.5
 49
7.5
 49
-7.5
  0
LTYPE
  2
dashed
 70
   64
  3
-------   -------------   ------
 72
   65
 73
    2
 40
7.5
 49
6
 49
-1.5
  0
LTYPE
  2
dashed_spaced
 70
   64
  3
----        --------        ----
 72
   65
 73
    2
 40
12
 49
6
 49
-6
  0
LTYPE
  2
long_dashed_dotted
 70
   64
  3
------------- --- --------------
 72
   65
 73
    4
 40
15.25
 49
12
 49
-1.5
 49
0.25
 49
-1.5
  0
LTYPE
  2
long_dashed_double-dotted
 70
   64
  3
----------- --- --- ------------
 72
   65
 73
    6
 40
17
 49
12
 49
-1.5
 49
0.25
 49
-1.5
 49
0.25
 49
-1.5
  0
LTYPE
  2
long_dashed_triplicate-dotted
 70
   64
  3
--------- --- --- --- ----------
 72
   65
 73
    8
 40
18.75
 49
12
 49
-1.5
 49
0.25
 49
-1.5
 49
0.25
 49
-1.5
 49
0.25
 49
-1.5
  0
LTYPE
  2
dotted
 70
   64
  3
   -       -       -       -    
 72
   65
 73
    2
 40
1.75
 49
0.25
 49
-1.5
  0
LTYPE
  2
chain
 70
   64
  3
-------------- -- --------------
 72
   65
 73
    4
 40
18.5
 49
12
 49
-1.5
 49
3.5
 49
-1.5
  0
LTYPE
  2
chain_double_dash
 70
   64
  3
------------ -- -- -------------
 72
   65
 73
    6
 40
23.5
 49
12
 49
-1.5
 49
3.5
 49
-1.5
 49
3.5
 49
-1.5
  0
LTYPE
  2
dashed_dotted
 70
   64
  3
-----------     -     ----------
 72
   65
 73
    4
 40
9.25
 49
6
 49
-1.5
 49
0.25
 49
-1.5
  0
LTYPE
  2
double-dashed_dotted
 70
   64
  3
------   -----------   -   -----
 72
   65
 73
    6
 40
16.75
 49
6
 49
-1.5
 49
6
 49
-1.5
 49
0.25
 49
-1.5
  0
LTYPE
  2
dashed_double-dotted
 70
   64
  3
---------    -    -    ---------
 72
   65
 73
    6
 40
11
 49
6
 49
-1.5
 49
0.25
 49
-1.5
 49
0.25
 49
-1.5
  0
LTYPE
  2
double-dashed_double-dotted
 70
   64
  3
-----   ---------   -   -   ----
 72
   65
 73
    8
 40
18.5
 49
6
 49
-1.5
 49
6
 49
-1.5
 49
0.25
 49
-1.5
 49
0.25
 49
-1.5
  0
LTYPE
  2
dashed_triplicate-dotted
 70
   64
  3
-------    -    -    -    ------
 72
   65
 73
    8
 40
12.75
 49
6
 49
-1.5
 49
0.25
 49
-1.5
 49
0.25
 49
-1.5
 49
0.25
 49
-1.5
  0
LTYPE
  2
double-dashed_triplicate-dotted
 70
   64
  3
-----  ---------  -  -  -  -----
 72
   65
 73
   10
 40
20.25
 49
6
 49
-1.5
 49
6
 49
-1.5
 49
0.25
 49
-1.5
 49
0.25
 49
-1.5
 49
0.25
 49
-1.5
  0
LTYPE
  2
undefined
 70
   64
  3
--------------------------------
 72
   65
 73
    0
 40
0
  0
ENDTAB
  0
TABLE
  2
STYLE
  5
3
100
AcDbSymbolTable
 70
     1
  0
STYLE
  5
10
100
AcDbSymbolTableRecord
100
AcDbTextStyleTableRecord
  2
STANDARD
 70
     0
 40
0.0
 41
1.0
 50
0.0
 71
     0
 42
0.2
  3
txt
  4
bigfont.shx
  0
STYLE
  5
26
100
AcDbSymbolTableRecord
100
AcDbTextStyleTableRecord
  2
TATEGAKI
 70
    68
 40
0.0
 41
1.0
 50
0.0
 71
     0
 42
1.0
  3
txt
  4
bigfont.shx
  0
ENDTAB
  0
TABLE
  2
LAYER
 70
   11
  0
LAYER
  2
_0-0_
 70
   64
 62
    7
  6
CONTINUOUS
  0
LAYER
  2
_1-0_
 70
   64
 62
    7
  6
CONTINUOUS
  0
LAYER
  2
_1-1_
 70
   64
 62
    7
  6
CONTINUOUS
  0
LAYER
  2
_1-2_
 70
   64
 62
    7
  6
CONTINUOUS
  0
LAYER
  2
_1-3_
 70
   64
 62
    7
  6
CONTINUOUS
  0
LAYER
  2
_1-4_
 70
   64
 62
    7
  6
CONTINUOUS
  0
LAYER
  2
_1-5_
 70
   64
 62
    7
  6
CONTINUOUS
  0
LAYER
  2
_1-6_
 70
   64
 62
    7
  6
CONTINUOUS
  0
LAYER
  2
_1-7_
 70
   64
 62
    7
  6
CONTINUOUS
  0
LAYER
  2
_1-b_
 70
   64
 62
    7
  6
CONTINUOUS
  0
LAYER
  2
ADD_LINE
 70
   64
 62
    7
  6
CONTINUOUS
  0
ENDTAB
  0
ENDSEC
  0
SECTION
  2
BLOCKS
  0
ENDSEC
  0
SECTION
  2
ENTITIES
  0
LINE
  8
_1-2_
  6
CONTINUOUS
 62
    7
 10
245.46500541068414
 20
195.35799593538852
 11
186.82340054898648
 21
175.06854907886404
  0
LINE
  8
ADD_LINE
  6
DOT
 62
    4
 10
266.84150489600933
 20
196.0686307340055
 11
266.84150489600933
 21
200.45865233692837
  0
LINE
  8
_0-0_
  6
CONTINUOUS
 62
    5
 10
6.7567526327597136
 20
280.13513513513516
 11
406.75677325274495
 21
280.13513513513516
  0
LINE
  8
_0-0_
  6
CONTINUOUS
 62
    5
 10
406.75677325274495
 20
10.13513513513513
 11
6.7567526327597136
 21
10.13513513513513
  0
LINE
  8
_0-0_
  6
CONTINUOUS
 62
    5
 10
406.75677325274495
 20
30.135133073136615
 11
6.7567402607685949
 21
30.135133073136615
  0
LINE
  8
_0-0_
  6
CONTINUOUS
 62
    5
 10
371.75678150073907
 20
10.13513513513513
 11
371.75678150073907
 21
30.135133073136615
  0
LINE
  8
_0-0_
  6
CONTINUOUS
 62
    5
 10
137.02703939901818
 20
30.135133073136615
 11
137.02703939901818
 21
10.13513513513513
  0
LINE
  8
_0-0_
  6
CONTINUOUS
 62
    5
 10
214.86486486486487
 20
30.135133073136615
 11
214.86486486486487
 21
10.13513513513513
  0
LINE
  8
_0-0_
  6
CONTINUOUS
 62
    5
 10
137.02703939901818
 20
20.135134104135886
 11
214.86486486486487
 21
20.135134104135886
  0
LINE
  8
_0-0_
  6
CONTINUOUS
 62
    5
 10
396.48648648648651
 20
25.945945945945951
 11
383.91891891891896
 21
13.378379924877265
  0
LINE
  8
_1-0_
  6
CONTINUOUS
 62
    7
 10
103.72069900100296
 20
108.83425325960727
 11
102.24338428394215
 21
112.11717347841005
  0
LINE
  8
_1-0_
  6
CONTINUOUS
 62
    7
 10
102.24338428394215
 20
112.11717347841005
 11
106.62060711834883
 21
114.08691818649704
  0
LINE
  8
_1-0_
  6
CONTINUOUS
 62
    7
 10
106.62060711834883
 20
114.08691818649704
 11
108.09792183540964
 21
110.80399796769426
  0
LINE
  8
_1-0_
  6
CONTINUOUS
 62
    7
 10
108.09792183540964
 20
110.80399796769426
 11
103.72069900100296
 21
108.83425325960727
  0
LINE
  8
_1-0_
  6
CONTINUOUS
 62
    7
 10
102.24338428394215
 20
112.11717347841005
 11
108.09792183540964
 21
110.80399796769426
  0
LINE
  8
_1-0_
  6
CONTINUOUS
 62
    7
 10
154.04051909575591
 20
135.42588105072846
 11
155.51783381281672
 21
132.14296083192568
  0
LINE
  8
_1-0_
  6
CONTINUOUS
 62
    7
 10
155.51783381281672
 20
132.14296083192568
 11
151.14059860641893
 21
130.1732161238387
  0
LINE
  8
_1-0_
  6
CONTINUOUS
 62
    7
 10
201.46043107316302
 20
156.7648439149599
 11
202.93774579022383
 21
153.48192369615711
  0
LINE
  8
_1-0_
  6
CONTINUOUS
 62
    7
 10
202.93774579022383
 20
153.48192369615711
 11
198.56051058382602
 21
151.5121789880701
  0
LINE
  8
_1-2_
  6
CONTINUOUS
 62
    3
 10
107.71916569890203
 20
111.84570724899704
 11
109.53871443464951
 21
112.45752695444469
  0
LINE
  8
ADD_LINE
  6
DOT
 62
    7
 10
106.05889397698481
 20
117.08997159390837
 11
105.88620572476775
 21
117.66489802180111
  0
LINE
  8
_1-2_
  6
CONTINUOUS
 62
    3
 10
105.88620572476775
 20
117.66489802180111
 11
106.05889397698481
 21
117.08997159390837
  0
LINE
  8
_1-2_
  6
CONTINUOUS
 62
    3
 10
106.9224094700169
 20
114.21526522249789
 11
107.72173907305744
 21
111.8380489864865
  0
LINE
  8
_1-2_
  6
CONTINUOUS
 62
    3
 10
105.88620572476775
 20
117.66489802180111
 11
107.78290619721284
 21
118.30267416464316
  0
LINE
  8
_1-2_
  6
CONTINUOUS
 62
    3
 10
109.53871443464951
 20
112.45752695444469
 11
107.78290619721284
 21
118.30267416464316
  0
LINE
  8
_1-0_
  6
CONTINUOUS
 62
    7
 10
154.04051909575591
 20
135.42586867873734
 11
155.51783381281672
 21
132.14294845993456
  0
LINE
  8
_1-0_
  6
CONTINUOUS
 62
    7
 10
155.51783381281672
 20
132.14294845993456
 11
151.14059860641893
 21
130.17320375184755
  0
LINE
  8
_1-2_
  6
CONTINUOUS
 62
    3
 10
155.12999663481841
 20
133.18132967562289
 11
156.94415118243245
 21
133.80899790171031
  0
LINE
  8
ADD_LINE
  6
DOT
 62
    7
 10
153.42404752164273
 20
138.41090846706081
 11
153.24631149704393
 21
138.98430076805323
  0
LINE
  8
_1-2_
  6
CONTINUOUS
 62
    3
 10
153.24631149704393
 20
138.98430076805323
 11
153.42404752164273
 21
138.41090846706081
  0
LINE
  8
_1-2_
  6
CONTINUOUS
 62
    3
 10
154.31260392472552
 20
135.54383561417865
 11
155.13264424092063
 21
133.17368378510346
  0
LINE
  8
_1-2_
  6
CONTINUOUS
 62
    3
 10
98.669078930004233
 20
115.44298739046664
 11
99.425465351826446
 21
115.70470449086783
  0
LINE
  8
_1-2_
  6
CONTINUOUS
 62
    3
 10
100.58776443069046
 20
116.95557465424409
 11
154.31260392472552
 21
135.54383561417865
  0
LINE
  8
_1-2_
  6
CONTINUOUS
 62
    3
 10
99.562980033255911
 20
115.2610696328653
 11
99.425465351826446
 21
115.70470449086783
  0
LINE
  8
_1-2_
  6
CONTINUOUS
 62
    3
 10
98.810428928684544
 20
114.98689393739443
 11
98.669078930004233
 21
115.44298739046664
  0
LINE
  8
_1-2_
  6
CONTINUOUS
 62
    3
 10
100.29217281857053
 20
115.29483279666385
 11
99.819426665434975
 21
115.13125032991977
  0
LINE
  8
_1-2_
  6
CONTINUOUS
 62
    3
 10
100.41781038851352
 20
115.54303968274917
 11
100.21082697687923
 21
116.21092925200593
  0
LINE
  8
_1-2_
  6
CONTINUOUS
 62
    3
 10
98.212008089632604
 20
114.57510458456504
 11
98.68477898675043
 21
114.73868705130913
  0
LINE
  8
_1-2_
  6
CONTINUOUS
 62
    3
 10
153.42404752164273
 20
138.41090846706081
 11
96.691948143211576
 21
118.7821506809544
  0
LINE
  8
_1-2_
  6
CONTINUOUS
 62
    3
 10
97.955573829444688
 20
114.70491151551943
 11
96.691948143211576
 21
118.7821506809544
  0
LINE
  8
_1-2_
  6
CONTINUOUS
 62
    3
 10
156.94415118243245
 20
133.80899790171031
 11
155.13739508551521
 21
139.63860589104729
  0
LINE
  8
_1-2_
  6
CONTINUOUS
 62
    7
 10
96.691948143211576
 20
118.7821506809544
 11
91.983539478198907
 21
132.3906233504012
  0
LINE
  8
_1-0_
  6
CONTINUOUS
 62
    7
 10
151.14059860641893
 20
130.1732161238387
 11
149.68043146906672
 21
133.41806772592906
  0
LINE
  8
_1-0_
  6
CONTINUOUS
 62
    7
 10
151.14059860641893
 20
130.17320375184755
 11
149.68040672508448
 21
133.41805535393792
  0
LINE
  8
_1-0_
  6
CONTINUOUS
 62
    7
 10
149.68043146906672
 20
133.41806772592906
 11
155.51783381281672
 21
132.14296083192568
  0
LINE
  8
_1-2_
  6
CONTINUOUS
 62
    7
 10
107.78290619721284
 20
118.30267416464316
 11
107.43884112383869
 21
119.3259739231419
  0
LINE
  8
_1-0_
  6
CONTINUOUS
 62
    7
 10
105.88620572476775
 20
117.66489802180111
 11
105.58039484797298
 21
118.68297680004224
  0
LINE
  8
_1-0_
  6
CONTINUOUS
 62
    7
 10
201.46043107316302
 20
156.7648439149599
 11
202.93774579022383
 21
153.48192369615711
  0
LINE
  8
_1-0_
  6
CONTINUOUS
 62
    7
 10
202.93774579022383
 20
153.48192369615711
 11
198.56051058382602
 21
151.5121789880701
  0
LINE
  8
_1-0_
  6
CONTINUOUS
 62
    7
 10
201.46043107316302
 20
156.76483154296875
 11
202.93774579022383
 21
153.48191132416596
  0
LINE
  8
_1-0_
  6
CONTINUOUS
 62
    7
 10
202.93774579022383
 20
153.48191132416596
 11
198.56051058382602
 21
151.51216661607899
  0
LINE
  8
_1-2_
  6
CONTINUOUS
 62
    3
 10
202.54990861222552
 20
154.52029253985432
 11
204.36406315983953
 21
155.14796076594172
  0
LINE
  8
ADD_LINE
  6
DOT
 62
    7
 10
200.84395949904984
 20
159.74987133129224
 11
200.66622347445102
 21
160.32326363228464
  0
LINE
  8
_1-2_
  6
CONTINUOUS
 62
    3
 10
200.66622347445102
 20
160.32326363228464
 11
200.84395949904984
 21
159.74987133129224
  0
LINE
  8
_1-2_
  6
CONTINUOUS
 62
    3
 10
201.7325159021326
 20
156.88279847841005
 11
202.55255621832771
 21
154.5126466493349
  0
LINE
  8
_1-2_
  6
CONTINUOUS
 62
    3
 10
146.08899090741133
 20
136.78195025469807
 11
146.84538970122466
 21
137.04366735509925
  0
LINE
  8
_1-2_
  6
CONTINUOUS
 62
    3
 10
148.00766403610643
 20
138.29453751847552
 11
201.7325159021326
 21
156.88279847841005
  0
LINE
  8
_1-2_
  6
CONTINUOUS
 62
    3
 10
146.98289201066302
 20
136.60003249709672
 11
146.84538970122466
 21
137.04366735509925
  0
LINE
  8
_1-2_
  6
CONTINUOUS
 62
    3
 10
147.71207242398648
 20
136.63379566089529
 11
147.23933864284206
 21
136.4702131941512
  0
LINE
  8
_1-2_
  6
CONTINUOUS
 62
    3
 10
147.83772236592063
 20
136.88200254698057
 11
147.63073895428633
 21
137.54989211623734
  0
LINE
  8
_1-2_
  6
CONTINUOUS
 62
    3
 10
145.63192006703972
 20
135.91406744879646
 11
146.10470333614865
 21
136.07764991554055
  0
LINE
  8
_1-2_
  6
CONTINUOUS
 62
    3
 10
145.37549817884292
 20
136.04387437975086
 11
144.11187249260979
 21
140.12111354518581
  0
LINE
  8
_1-2_
  6
CONTINUOUS
 62
    3
 10
204.36406315983953
 20
155.14796076594172
 11
202.55730706292232
 21
160.97756875527872
  0
LINE
  8
_1-2_
  6
CONTINUOUS
 62
    7
 10
144.11187249260979
 20
140.12111354518581
 11
139.40343908361487
 21
153.7295862146326
  0
LINE
  8
_1-0_
  6
CONTINUOUS
 62
    7
 10
198.56051058382602
 20
151.5121789880701
 11
197.10034344647383
 21
154.75703059016047
  0
LINE
  8
_1-0_
  6
CONTINUOUS
 62
    7
 10
198.56051058382602
 20
151.51216661607899
 11
197.10031870249156
 21
154.75701821816935
  0
LINE
  8
_1-0_
  6
CONTINUOUS
 62
    7
 10
197.10031870249156
 20
154.75701821816935
 11
201.43185177364867
 21
156.75181620829815
  0
LINE
  8
_1-0_
  6
CONTINUOUS
 62
    7
 10
197.10034344647383
 20
154.75703059016047
 11
202.93774579022383
 21
153.48192369615711
  0
LINE
  8
_1-0_
  6
CONTINUOUS
 62
    7
 10
250.35768251161318
 20
174.82088656038852
 11
245.98044730521539
 21
172.85114185230154
  0
LINE
  8
_1-2_
  6
CONTINUOUS
 62
    3
 10
248.1459664009713
 20
181.68177424250425
 11
248.31865465318836
 21
181.10684781461148
  0
LINE
  8
ADD_LINE
  6
DOT
 62
    7
 10
251.78399988122891
 20
176.48692363017315
 11
248.34337389146961
 21
187.58848448057432
  0
LINE
  8
_1-2_
  6
CONTINUOUS
 62
    3
 10
249.96984533361487
 20
175.85924303209461
 11
251.78399988122891
 21
176.48692363017315
  0
LINE
  8
ADD_LINE
  6
DOT
 62
    7
 10
248.26389622043919
 20
181.08883419552365
 11
248.08616019584039
 21
181.66222649651607
  0
LINE
  8
_1-2_
  6
CONTINUOUS
 62
    3
 10
248.08616019584039
 20
181.66222649651607
 11
248.26389622043919
 21
181.08883419552365
  0
LINE
  8
_1-2_
  6
CONTINUOUS
 62
    3
 10
249.15245262352198
 20
178.22174897065034
 11
249.97249293971709
 21
175.85162188555745
  0
LINE
  8
_1-2_
  6
CONTINUOUS
 62
    3
 10
193.50892762880068
 20
158.12091311892948
 11
194.26530167863177
 21
158.38263021933068
  0
LINE
  8
_1-2_
  6
CONTINUOUS
 62
    3
 10
195.42762550147805
 20
159.63350038270693
 11
249.15245262352198
 21
178.22174897065034
  0
LINE
  8
_1-2_
  6
CONTINUOUS
 62
    3
 10
194.40282873205237
 20
157.93899536132812
 11
194.26530167863177
 21
158.38263021933068
  0
LINE
  8
_1-2_
  6
CONTINUOUS
 62
    3
 10
193.65026525548987
 20
157.66481966585727
 11
193.50892762880068
 21
158.12091311892948
  0
LINE
  8
_1-2_
  6
CONTINUOUS
 62
    3
 10
195.13203388935813
 20
157.97275852512669
 11
194.65927536423143
 21
157.8091760583826
  0
LINE
  8
_1-2_
  6
CONTINUOUS
 62
    3
 10
195.25765908730997
 20
158.22096541121201
 11
195.05067567567568
 21
158.88885498046875
  0
LINE
  8
_1-2_
  6
CONTINUOUS
 62
    3
 10
193.05185678842906
 20
157.25303031302789
 11
193.52461531355576
 21
157.41661277977198
  0
LINE
  8
_1-2_
  6
CONTINUOUS
 62
    3
 10
248.26389622043919
 20
181.08883419552365
 11
191.5317844700169
 21
161.46007640941724
  0
LINE
  8
_1-2_
  6
CONTINUOUS
 62
    3
 10
192.79541015625
 20
157.38283724398227
 11
191.5317844700169
 21
161.46007640941724
  0
LINE
  8
_1-2_
  6
CONTINUOUS
 62
    3
 10
248.08616019584039
 20
181.66222649651607
 11
249.97724378431167
 21
182.31653161951016
  0
LINE
  8
_1-2_
  6
CONTINUOUS
 62
    3
 10
251.78399988122891
 20
176.48692363017315
 11
249.97724378431167
 21
182.31653161951016
  0
LINE
  8
_1-2_
  6
CONTINUOUS
 62
    7
 10
191.5317844700169
 20
161.46007640941724
 11
186.82340054898648
 21
175.06854907886404
  0
LINE
  8
_1-2_
  6
CONTINUOUS
 62
    7
 10
249.97724378431167
 20
182.31653161951016
 11
245.46500541068414
 21
195.35799593538852
  0
LINE
  8
_1-2_
  6
CONTINUOUS
 62
    7
 10
249.44410994246201
 20
184.03678275443414
 11
190.74705381651182
 21
163.72815931165542
  0
LINE
  8
_1-0_
  6
CONTINUOUS
 62
    7
 10
245.98044730521539
 20
172.85114185230154
 11
244.52028016786318
 21
176.0959934543919
  0
LINE
  8
_1-2_
  6
CONTINUOUS
 62
    7
 10
140.92747043918919
 20
149.32476146801099
 11
91.983539478198907
 21
132.3906233504012
  0
LINE
  8
_1-2_
  6
CONTINUOUS
 62
    7
 10
155.13739508551521
 20
139.63860589104729
 11
154.79045971019849
 21
140.64130628431167
  0
LINE
  8
_1-2_
  6
CONTINUOUS
 62
    3
 10
153.24631149704393
 20
138.98430076805323
 11
155.13741982949747
 21
139.63860589104729
  0
LINE
  8
ADD_LINE
  6
DOT
 62
    7
 10
156.94415118243245
 20
133.80899790171031
 11
155.13741982949747
 21
139.63860589104729
  0
LINE
  8
_1-2_
  6
CONTINUOUS
 62
    7
 10
153.24631149704393
 20
138.98430076805323
 11
152.93203817831505
 21
139.99832153320312
  0
LINE
  8
_1-2_
  6
CONTINUOUS
 62
    7
 10
144.7815683725718
 20
137.96028343406886
 11
95.907217489706511
 21
121.05023358319258
  0
LINE
  8
ADD_LINE
  6
DOT
 62
    7
 10
204.36406315983953
 20
155.14796076594172
 11
202.55733180690459
 21
160.97756875527872
  0
LINE
  8
_1-2_
  6
CONTINUOUS
 62
    3
 10
200.66622347445102
 20
160.32326363228464
 11
202.55733180690459
 21
160.97756875527872
  0
LINE
  8
_1-2_
  6
CONTINUOUS
 62
    7
 10
188.34740716057857
 20
170.6637243322424
 11
139.40343908361487
 21
153.7295862146326
  0
LINE
  8
_1-2_
  6
CONTINUOUS
 62
    7
 10
202.55730706292232
 20
160.97756875527872
 11
202.21037168760557
 21
161.98026914854307
  0
LINE
  8
_1-2_
  6
CONTINUOUS
 62
    7
 10
192.20148034997891
 20
159.29925867029141
 11
143.32714183910474
 21
142.38919644742398
  0
LINE
  8
_1-0_
  6
CONTINUOUS
 62
    7
 10
244.52025542388094
 20
176.0959934543919
 11
248.8802935626056
 21
178.10391812711148
  0
LINE
  8
_1-0_
  6
CONTINUOUS
 62
    7
 10
250.35765776763094
 20
174.82088656038852
 11
246.00264265730576
 21
172.86113842113599
  0
LINE
  8
_1-0_
  6
CONTINUOUS
 62
    7
 10
246.00264265730576
 20
172.86113842113599
 11
245.98042256123313
 21
172.85114185230154
  0
LINE
  8
_1-0_
  6
CONTINUOUS
 62
    7
 10
149.68040672508448
 20
133.41805535393792
 11
154.04049435177365
 21
135.42599239864865
  0
LINE
  8
_1-3_
  6
CONTINUOUS
 62
    7
 10
130.21810170766472
 20
139.80695157437711
 11
120.07173280458193
 21
167.68383129222974
  0
LINE
  8
_1-3_
  6
CONTINUOUS
 62
    7
 10
120.07173280458193
 20
167.68383129222974
 11
118.79786310969173
 21
167.68383129222974
  0
LINE
  8
_1-0_
  6
CONTINUOUS
 62
    7
 10
82.648290685705234
 20
99.351666424725508
 11
246.00536449535474
 21
172.8623508762669
  0
LINE
  8
_1-2_
  6
CONTINUOUS
 62
    3
 10
82.648290685705234
 20
106.05314100110854
 11
106.9224094700169
 21
114.21526522249789
  0
LINE
  8
_1-2_
  6
CONTINUOUS
 62
    3
 10
106.05889397698481
 20
117.08997159390837
 11
82.648290685705234
 21
109.21820563239021
  0
LINE
  8
_1-2_
  6
CONTINUOUS
 62
    7
 10
97.358439677470443
 20
116.6965051599451
 11
82.648290685705234
 21
111.75024496542441
  0
LINE
  8
_1-2_
  6
CONTINUOUS
 62
    7
 10
93.617644438872475
 20
128.09887860272383
 11
82.648290685705234
 21
124.41045400258658
  0
LINE
  8
_1-0_
  6
CONTINUOUS
 62
    7
 10
82.648290685705234
 20
97.59713250237543
 11
253.4926460884713
 21
174.47709367081927
  0
LINE
  8
_1-0_
  6
DASHED1
 62
    3
 10
82.648290685705234
 20
98.095847464896536
 11
253.4926460884713
 21
174.97578388935813
  0
LINE
  8
_1-0_
  6
CONTINUOUS
 62
    7
 10
82.648290685705234
 20
98.693723936338685
 11
253.4926460884713
 21
175.57367273279141
  0
LINE
  8
ADD_LINE
  6
DOT
 62
    7
 10
253.4926460884713
 20
179.55468255120357
 11
253.4926460884713
 21
147.81722197661529
  0
LINE
  8
_1-0_
  6
CONTINUOUS
 62
    7
 10
250.35765776763094
 20
174.82088656038852
 11
250.35768251161318
 21
174.82088656038852
  0
LINE
  8
_1-0_
  6
CONTINUOUS
 62
    7
 10
248.88036779455237
 20
178.10381915118245
 11
250.23455645586995
 21
175.09446840028505
  0
LINE
  8
_1-0_
  6
CONTINUOUS
 62
    7
 10
248.88036779455237
 20
178.10379440720018
 11
250.23455645586995
 21
175.0944807722762
  0
LINE
  8
_1-0_
  6
CONTINUOUS
 62
    7
 10
245.98044730521539
 20
172.85111710831927
 11
245.98042256123313
 21
172.85112948031039
  0
LINE
  8
_1-0_
  6
CONTINUOUS
 62
    7
 10
245.85732124947214
 20
173.12472369219807
 11
244.52025542388094
 21
176.0959934543919
  0
LINE
  8
_1-3_
  6
CONTINUOUS
 62
    7
 10
226.11699284733953
 20
190.5412581160262
 11
233.98404508023651
 21
191.56405062288852
  0
LINE
  8
_1-1_
  6
CONTINUOUS
 62
    7
 10
266.71696843327703
 20
188.3148935678843
 11
271.51697932062922
 21
188.3148935678843
  0
LINE
  8
_1-1_
  6
CONTINUOUS
 62
    7
 10
280.11697305215375
 20
173.53869051546664
 11
272.51698261982688
 21
174.56598642710094
  0
LINE
  8
_1-3_
  6
CONTINUOUS
 62
    7
 10
276.11698459934547
 20
190.5412581160262
 11
276.11698459934547
 21
174.07937127190669
  0
LINE
  8
_1-3_
  6
CONTINUOUS
 62
    7
 10
272.51698261982688
 20
190.5412581160262
 11
272.51698261982688
 21
174.56598642710094
  0
LINE
  8
_1-1_
  6
CONTINUOUS
 62
    7
 10
266.71696843327703
 20
146.31489109348607
 11
271.51697932062922
 21
146.31489109348607
  0
LINE
  8
_1-1_
  6
CONTINUOUS
 62
    7
 10
271.51697932062922
 20
188.3148935678843
 11
271.51697932062922
 21
146.31489109348607
  0
LINE
  8
_1-1_
  6
DASHED1
 62
    7
 10
280.11697305215375
 20
183.25885669605154
 11
263.01014668232688
 21
183.25885669605154
  0
LINE
  8
_1-1_
  6
DASHED1
 62
    7
 10
280.11697305215375
 20
183.85884877797722
 11
263.01014668232688
 21
183.85884877797722
  0
LINE
  8
_1-1_
  6
DASHED1
 62
    7
 10
263.01014668232688
 20
183.85884877797722
 11
262.13923273859797
 21
183.48132984058279
  0
LINE
  8
_1-1_
  6
DASHED1
 62
    7
 10
262.13923273859797
 20
183.48132984058279
 11
263.01014668232688
 21
183.25885669605154
  0
LINE
  8
_1-1_
  6
CONTINUOUS
 62
    7
 10
280.38794440192146
 20
184.33916658968539
 11
280.38794440192146
 21
182.72365673168287
  0
LINE
  8
_1-3_
  6
CONTINUOUS
 62
    7
 10
280.11697305215375
 20
190.5412581160262
 11
280.11697305215375
 21
182.70591529639992
  0
LINE
  8
_1-3_
  6
CONTINUOUS
 62
    7
 10
280.11697305215375
 20
182.70591529639992
 11
280.11697305215375
 21
173.53869051546664
  0
LINE
  8
_1-1_
  6
CONTINUOUS
 62
    7
 10
280.11697305215375
 20
184.33916658968539
 11
280.38794440192146
 21
184.33916658968539
  0
LINE
  8
_1-1_
  6
CONTINUOUS
 62
    7
 10
280.11697305215375
 20
182.72365673168287
 11
280.38794440192146
 21
182.72365673168287
  0
LINE
  8
_1-1_
  6
CONTINUOUS
 62
    7
 10
271.19901914854307
 20
146.31489109348607
 11
271.51697932062922
 21
146.63285126557221
  0
LINE
  8
_1-1_
  6
CONTINUOUS
 62
    7
 10
269.21912940772808
 20
146.31489109348607
 11
271.51697932062922
 21
148.61274100638727
  0
LINE
  8
_1-1_
  6
CONTINUOUS
 62
    7
 10
267.23921492293078
 20
146.31489109348607
 11
271.51697932062922
 21
150.59264311919341
  0
LINE
  8
_1-1_
  6
CONTINUOUS
 62
    7
 10
266.71696843327703
 20
147.7725343446474
 11
271.51697932062922
 21
152.57254523199958
  0
LINE
  8
_1-1_
  6
CONTINUOUS
 62
    7
 10
266.71696843327703
 20
149.75242408546242
 11
271.51697932062922
 21
154.55243497281461
  0
LINE
  8
_1-1_
  6
CONTINUOUS
 62
    7
 10
266.71696843327703
 20
151.73232619826859
 11
271.51697932062922
 21
156.53233708562078
  0
LINE
  8
_1-1_
  6
CONTINUOUS
 62
    7
 10
266.71696843327703
 20
153.71222831107477
 11
271.51697932062922
 21
158.51223919842695
  0
LINE
  8
_1-1_
  6
CONTINUOUS
 62
    7
 10
266.71696843327703
 20
155.69211805188979
 11
271.51697932062922
 21
160.49212893924198
  0
LINE
  8
_1-1_
  6
CONTINUOUS
 62
    7
 10
266.71696843327703
 20
157.67202016469597
 11
271.51697932062922
 21
162.47203105204815
  0
LINE
  8
_1-1_
  6
CONTINUOUS
 62
    7
 10
266.71696843327703
 20
159.65192227750211
 11
271.51697932062922
 21
164.45193316485432
  0
LINE
  8
_1-1_
  6
CONTINUOUS
 62
    7
 10
266.71696843327703
 20
161.63181201831716
 11
271.51697932062922
 21
166.43182290566935
  0
LINE
  8
_1-1_
  6
CONTINUOUS
 62
    7
 10
266.71696843327703
 20
163.61171413112331
 11
271.51697932062922
 21
168.41172501847552
  0
LINE
  8
_1-1_
  6
CONTINUOUS
 62
    7
 10
266.71696843327703
 20
165.59161624392948
 11
271.51697932062922
 21
170.39161475929055
  0
LINE
  8
_1-1_
  6
CONTINUOUS
 62
    7
 10
266.71696843327703
 20
167.57150598474453
 11
271.51697932062922
 21
172.37151687209672
  0
LINE
  8
_1-1_
  6
CONTINUOUS
 62
    7
 10
266.71696843327703
 20
169.55139572555956
 11
271.51697932062922
 21
174.35141898490289
  0
LINE
  8
_1-1_
  6
CONTINUOUS
 62
    7
 10
266.71696843327703
 20
171.53129783836573
 11
271.51697932062922
 21
176.33130872571792
  0
LINE
  8
_1-1_
  6
CONTINUOUS
 62
    7
 10
266.71696843327703
 20
173.51119995117187
 11
271.51697932062922
 21
178.31121083852409
  0
LINE
  8
_1-1_
  6
CONTINUOUS
 62
    7
 10
266.71696843327703
 20
175.49111443596919
 11
271.51697932062922
 21
180.29112532332138
  0
LINE
  8
_1-1_
  6
CONTINUOUS
 62
    7
 10
266.71696843327703
 20
177.47099180479307
 11
271.51697932062922
 21
182.27100269214529
  0
LINE
  8
_1-1_
  6
CONTINUOUS
 62
    7
 10
266.71696843327703
 20
179.45089391759925
 11
271.51697932062922
 21
184.25090480495143
  0
LINE
  8
_1-1_
  6
CONTINUOUS
 62
    7
 10
266.71696843327703
 20
181.43080840239654
 11
271.51697932062922
 21
186.23081928974875
  0
LINE
  8
_1-1_
  6
CONTINUOUS
 62
    7
 10
266.71696843327703
 20
183.41071051520271
 11
271.51697932062922
 21
188.2107214025549
  0
LINE
  8
_1-1_
  6
CONTINUOUS
 62
    7
 10
266.71696843327703
 20
185.39060025601773
 11
269.64126174514359
 21
188.3148935678843
  0
LINE
  8
_1-1_
  6
CONTINUOUS
 62
    7
 10
266.71696843327703
 20
187.37050236882391
 11
267.6613472603463
 21
188.3148935678843
  0
LINE
  8
_1-1_
  6
CONTINUOUS
 62
    7
 10
260.3169869087838
 20
100.54054054054055
 11
260.3169869087838
 21
108.54054219013936
  0
LINE
  8
_1-1_
  6
CONTINUOUS
 62
    7
 10
260.3169869087838
 20
108.54054219013936
 11
264.31695061760979
 21
108.54054219013936
  0
LINE
  8
_1-1_
  6
CONTINUOUS
 62
    7
 10
264.31695061760979
 20
108.54054219013936
 11
264.31695061760979
 21
100.54054054054055
  0
LINE
  8
_1-1_
  6
CONTINUOUS
 62
    7
 10
264.31695061760979
 20
100.54054054054055
 11
260.3169869087838
 21
100.54054054054055
  0
LINE
  8
_1-1_
  6
CONTINUOUS
 62
    7
 10
260.3169869087838
 20
108.54054219013936
 11
264.31695061760979
 21
100.54054054054055
  0
LINE
  8
_1-4_
  6
CONTINUOUS
 62
    7
 10
206.07743546769427
 20
226.10038963524073
 11
222.23609718116555
 21
181.70484800596495
  0
LINE
  8
_1-4_
  6
CONTINUOUS
 62
    7
 10
222.23609718116555
 20
181.70484800596495
 11
243.0428912188556
 21
187.97976107210727
  0
LINE
  8
_1-4_
  6
CONTINUOUS
 62
    7
 10
280.66275106894005
 20
183.55885273701438
 11
289.81027963999156
 21
208.69143924197635
  0
LINE
  8
_1-4_
  6
CONTINUOUS
 62
    7
 10
269.18918918918922
 20
155.67567567567568
 11
289.1396187447213
 21
100.86232365788641
  0
LINE
  8
_1-4_
  6
CONTINUOUS
 62
    7
 10
289.81027963999156
 20
208.69143924197635
 11
299.18918918918922
 21
208.69143924197635
  0
LINE
  8
_1-4_
  6
CONTINUOUS
 62
    7
 10
289.1396187447213
 20
100.86232365788641
 11
295.94594594594594
 21
100.86232365788641
  0
LINE
  8
_1-4_
  6
CONTINUOUS
 62
    7
 10
274.87879572687922
 20
75.997720666833828
 11
279.72972972972974
 21
75.997720666833828
  0
LINE
  8
_1-4_
  6
CONTINUOUS
 62
    7
 10
206.07743546769427
 20
226.10038963524073
 11
200.27027027027029
 21
226.10038963524073
  0
LINE
  8
_1-4_
  6
CONTINUOUS
 62
    7
 10
215.67567567567568
 20
248.10810810810813
 11
226.76533467060813
 21
248.10810810810813
  0
LINE
  8
_1-4_
  6
CONTINUOUS
 62
    7
 10
241.50265255489867
 20
207.61764938766893
 11
226.76533467060813
 21
248.10810810810813
  0
LINE
  8
_1-1_
  6
CONTINUOUS
 62
    7
 10
266.71696843327703
 20
188.3148935678843
 11
266.71696843327703
 21
159.14429948136615
  0
LINE
  8
_1-1_
  6
CONTINUOUS
 62
    7
 10
266.71696843327703
 20
159.14429948136615
 11
266.71696843327703
 21
139.83669384105787
  0
LINE
  8
_1-0_
  6
DASHED1
 62
    7
 10
82.648290685705234
 20
72.222147761164493
 11
266.5281965925887
 21
154.96808438687711
  0
LINE
  8
_1-0_
  6
CONTINUOUS
 62
    7
 10
254.7359322212838
 20
176.13314654376057
 11
253.9948252085093
 21
176.13314654376057
  0
LINE
  8
_1-0_
  6
CONTINUOUS
 62
    7
 10
253.9948252085093
 20
176.13314654376057
 11
265.99481531091641
 21
176.13314654376057
  0
LINE
  8
_1-0_
  6
CONTINUOUS
 62
    7
 10
254.99485325168919
 20
166.81900436813768
 11
266.71696843327703
 21
172.09397599503802
  0
LINE
  8
_1-0_
  6
DASHED1
 62
    7
 10
82.837056340398021
 20
93.229943352776615
 11
253.9948252085093
 21
170.25092047614021
  0
LINE
  8
_1-0_
  6
CONTINUOUS
 62
    7
 10
82.648290685705234
 20
93.649428084089948
 11
253.9948252085093
 21
170.75535129856419
  0
LINE
  8
_1-0_
  6
DASHED1
 62
    7
 10
254.99482850770693
 20
170.7009269095756
 11
264.84419539168078
 21
175.13314324456294
  0
LINE
  8
_1-0_
  6
CONTINUOUS
 62
    7
 10
254.99485325168919
 20
171.20534536000847
 11
263.72326825116136
 21
175.13314324456294
  0
LINE
  8
_1-0_
  6
CONTINUOUS
 62
    7
 10
265.99481531091641
 20
175.93314093512458
 11
265.99481531091641
 21
176.13314654376057
  0
LINE
  8
_1-0_
  6
CONTINUOUS
 62
    7
 10
255.79482619826859
 20
175.13314324456294
 11
265.19481762035474
 21
175.13314324456294
  0
LINE
  8
_1-0_
  6
CONTINUOUS
 62
    7
 10
254.99482850770693
 20
164.93314175992398
 11
254.99482850770693
 21
174.33314555400128
  0
LINE
  8
_1-0_
  6
CONTINUOUS
 62
    7
 10
254.19483081714529
 20
164.13314406936234
 11
253.9948252085093
 21
164.13314406936234
  0
LINE
  8
_1-0_
  6
CONTINUOUS
 62
    7
 10
253.4926460884713
 20
174.47709367081927
 11
253.9948252085093
 21
174.70306808884081
  0
LINE
  8
_1-0_
  6
DASHED1
 62
    3
 10
253.4926460884713
 20
174.97578388935813
 11
253.9948252085093
 21
175.20177067937078
  0
LINE
  8
_1-0_
  6
CONTINUOUS
 62
    7
 10
253.4926460884713
 20
175.57367273279141
 11
253.9948252085093
 21
175.79964715081294
  0
LINE
  8
_1-0_
  6
CONTINUOUS
 62
    7
 10
265.99481531091641
 20
176.13314654376057
 11
266.71696843327703
 21
176.13314654376057
  0
LINE
  8
_1-0_
  6
CONTINUOUS
 62
    7
 10
264.31695061760979
 20
108.54054219013936
 11
264.31695061760979
 21
154.32976387642526
  0
LINE
  8
_1-1_
  6
CONTINUOUS
 62
    7
 10
260.3169869087838
 20
151.66861044394005
 11
260.3169869087838
 21
139.81619345175255
  0
LINE
  8
_1-4_
  6
CONTINUOUS
 62
    7
 10
265.94594594594594
 20
100.54054054054055
 11
274.87879572687922
 21
75.997720666833828
  0
LINE
  8
_1-0_
  6
CONTINUOUS
 62
    7
 10
82.648290685705234
 20
71.717716938740509
 11
266.71696843327703
 21
154.54859965556378
  0
LINE
  8
_1-0_
  6
CONTINUOUS
 62
    7
 10
264.31695061760979
 20
100.54054054054055
 11
264.31695061760979
 21
157.85492768158784
  0
LINE
  8
_1-1_
  6
CONTINUOUS
 62
    7
 10
266.71696843327703
 20
139.83669384105787
 11
266.71696843327703
 21
84.990024051150769
  0
LINE
  8
_1-0_
  6
CONTINUOUS
 62
    7
 10
264.31695061760979
 20
100.54054054054055
 11
264.31695061760979
 21
84.990024051150769
  0
LINE
  8
_1-1_
  6
CONTINUOUS
 62
    7
 10
260.3169869087838
 20
151.66861044394005
 11
260.3169869087838
 21
84.990024051150769
  0
LINE
  8
_1-0_
  6
CONTINUOUS
 62
    7
 10
253.9948252085093
 20
176.13314654376057
 11
253.9948252085093
 21
164.33217229069891
  0
LINE
  8
_1-0_
  6
CONTINUOUS
 62
    7
 10
253.9948252085093
 20
164.33217229069891
 11
253.9948252085093
 21
164.13314406936234
  0
LINE
  8
_1-0_
  6
CONTINUOUS
 62
    7
 10
253.9948252085093
 20
164.13314406936234
 11
253.9948252085093
 21
148.82363396721919
  0
LINE
  8
_1-0_
  6
CONTINUOUS
 62
    7
 10
252.99482190931167
 20
170.30535723711995
 11
252.99482190931167
 21
148.3736275337838
  0
LINE
  8
_1-0_
  6
CONTINUOUS
 62
    7
 10
82.648290685705234
 20
89.26308709221918
 11
252.99489614125847
 21
165.91904098923143
  0
LINE
  8
_1-0_
  6
CONTINUOUS
 62
    7
 10
82.648290685705234
 20
76.104057930611276
 11
252.99482190931167
 21
152.7599808976457
  0
LINE
  8
_1-0_
  6
CONTINUOUS
 62
    7
 10
253.9948252085093
 20
153.20998733108109
 11
266.71699317725933
 21
158.93495301942568
  0
LINE
  8
_1-2_
  6
CONTINUOUS
 62
    3
 10
146.23035327808279
 20
136.32585680162586
 11
146.08899090741133
 21
136.78195025469807
  0
LINE
  8
_1-2_
  6
CONTINUOUS
 62
    3
 10
200.84395949904984
 20
159.74987133129224
 11
144.11187249260979
 21
140.12111354518581
  0
ARC
  8
_1-2_
  6
CONTINUOUS
 62
    3
 10
100.7839347220756
 20
116.38855392868454
 40
0.599999959404404
 50
109.08587646484375
 51
197.21983337402344
  0
ARC
  8
_1-2_
  6
CONTINUOUS
 62
    3
 10
99.754040692303633
 20
115.32025723843962
 40
0.1999999904954755
 50
197.21755981445312
 51
289.0885009765625
  0
ARC
  8
_1-2_
  6
CONTINUOUS
 62
    3
 10
98.619368269636823
 20
114.92768158783784
 40
0.1999999904954755
 50
289.08401489257812
 51
17.217575073242223
  0
ARC
  8
_1-2_
  6
CONTINUOUS
 62
    3
 10
100.22676210145693
 20
115.48382733319258
 40
0.1999999904954755
 50
289.0885009765625
 51
17.219955444335916
  0
ARC
  8
_1-2_
  6
CONTINUOUS
 62
    3
 10
98.146609744510144
 20
114.76412386507602
 40
0.1999999904954755
 50
197.216552734375
 51
289.08514404296875
  0
ARC
  8
_1-2_
  6
CONTINUOUS
 62
    3
 10
148.20383432749156
 20
137.72751679291596
 40
0.599999959404404
 50
109.08587646484375
 51
197.21983337402344
  0
ARC
  8
_1-2_
  6
CONTINUOUS
 62
    3
 10
147.17394029771961
 20
136.65922010267104
 40
0.1999999904954755
 50
197.21755981445312
 51
289.0885009765625
  0
ARC
  8
_1-2_
  6
CONTINUOUS
 62
    3
 10
146.03928024704393
 20
136.26664445206927
 40
0.1999999904954755
 50
289.08401489257812
 51
17.217575073242223
  0
ARC
  8
_1-2_
  6
CONTINUOUS
 62
    3
 10
147.64667407886404
 20
136.82279019742398
 40
0.1999999904954755
 50
289.0885009765625
 51
17.219955444335916
  0
ARC
  8
_1-2_
  6
CONTINUOUS
 62
    3
 10
145.56652172191724
 20
136.10308672930745
 40
0.1999999904954755
 50
197.216552734375
 51
289.08514404296875
  0
ARC
  8
_1-2_
  6
CONTINUOUS
 62
    3
 10
195.62379579286318
 20
159.0664796571474
 40
0.599999959404404
 50
109.08587646484375
 51
197.21983337402344
  0
ARC
  8
_1-2_
  6
CONTINUOUS
 62
    3
 10
194.59390176309122
 20
157.99818296690245
 40
0.1999999904954755
 50
197.21755981445312
 51
289.0885009765625
  0
ARC
  8
_1-2_
  6
CONTINUOUS
 62
    3
 10
193.45921696843328
 20
157.60560731630068
 40
0.1999999904954755
 50
289.08401489257812
 51
17.217575073242223
  0
ARC
  8
_1-2_
  6
CONTINUOUS
 62
    3
 10
195.06661080025339
 20
158.16175306165542
 40
0.1999999904954755
 50
289.0885009765625
 51
17.219955444335916
  0
ARC
  8
_1-2_
  6
CONTINUOUS
 62
    3
 10
192.98645844330659
 20
157.44204959353885
 40
0.1999999904954755
 50
197.216552734375
 51
289.08514404296875
  0
ARC
  8
_1-3_
  6
CONTINUOUS
 62
    7
 10
253.11698294974664
 20
186.19344350453972
 40
27.347813168087523
 50
9.1478271484375
 51
170.8521728515625
  0
ARC
  8
_1-3_
  6
CONTINUOUS
 62
    7
 10
253.11698294974664
 20
186.12020131703972
 40
23.421054530788112
 50
10.880661010742188
 51
167.87541198730469
  0
ARC
  8
_1-3_
  6
CONTINUOUS
 62
    7
 10
253.11698294974664
 20
186.02178212758659
 40
19.919481019716006
 50
13.113861083984375
 51
163.84519958496094
  0
ARC
  8
_1-1_
  6
CONTINUOUS
 62
    7
 10
280.08530075485646
 20
183.55280283335094
 40
0.5774933744121242
 50
301.60540771484375
 51
60.439651489257834
  0
ARC
  8
_1-0_
  6
CONTINUOUS
 62
    7
 10
265.19481762035474
 20
175.93314093512458
 40
0.7999999619819022
 50
270
 51
0
  0
ARC
  8
_1-0_
  6
CONTINUOUS
 62
    7
 10
255.79482619826859
 20
174.33314555400128
 40
0.7999999619819022
 50
90
 51
180
  0
ARC
  8
_1-0_
  6
CONTINUOUS
 62
    7
 10
254.19483081714529
 20
164.93314175992398
 40
0.7999999619819022
 50
270
 51
0
  0
TEXT
  8
_0-0_
 62
    7
 10
141.89189395389042
 20
14.594594594594582
 40
2.5
 41
1
 50
0
  1
縮尺
  0
TEXT
  8
_0-0_
 62
    7
 10
377.10214563318203
 20
22.865493362014362
 40
2.5
 41
1
 50
0
  1
ＮＯ
  0
TEXT
  8
_1-0_
 62
    7
 10
169.90681828679266
 20
13.3181144095756
 40
2.5
 41
1
 50
0
  1
1/5
  0
TEXT
  8
_0-0_
 62
    7
 10
383.97877873601146
 20
17.689098667454061
 40
2.5
 41
1
 50
0
  1
Ｓ
  0
TEXT
  8
_1-3_
 62
    7
 10
185.13291848672404
 20
86.194326039907097
 40
2.5
 41
1
 50
0
  1
瓦桟
  0
TEXT
  8
_0-0_
 62
    7
 10
39.721903929839272
 20
15.395235628695104
 40
2.5
 41
1
 50
0
  1
棟
  0
TEXT
  8
_1-4_
 62
    7
 10
280.99290590028505
 20
75.17453167889569
 40
2.5
 41
1
 50
0
  1
外壁
  0
TEXT
  8
_1-4_
 62
    7
 10
298.01208908493459
 20
99.659295984216641
 40
2.5
 41
1
 50
0
  1
幕板
  0
TEXT
  8
_1-4_
 62
    7
 10
50.59271580464133
 20
15.395235628695104
 40
2.5
 41
1
 50
0
  1
3
  0
TEXT
  8
_1-4_
 62
    7
 10
25.556194717819636
 20
20.211577544341225
 40
2.5
 41
1
 50
0
  1
鉄骨
  0
TEXT
  8
_1-0_
 62
    7
 10
196.83606328190984
 20
247.03978667388094
 40
2.5
 41
1
 50
0
  1
７寸垂れ付丸瓦
  0
TEXT
  8
_1-0_
 62
    7
 10
199.52593729005113
 20
82.666127592108296
 40
2.5
 41
1
 50
0
  1
※　地域により瓦桟木の大きさは、異なります
  0
LINE
  8
_1-3_
  6
CONTINUOUS
 62
    7
 10
177.66431653821792
 20
60.137560370203062
 11
181.71646530563768
 21
60.137560370203062
  0
LINE
  8
_1-1_
  6
CONTINUOUS
 62
    7
 10
152.40793588999156
 20
132.65191980310388
 11
177.66431653821792
 21
60.137560370203062
  0
TEXT
  8
_1-3_
 62
    7
 10
185.13291642472552
 20
65.071300109698413
 40
2.5
 41
1
 50
0
  1
野地板
  0
TEXT
  8
_1-0_
 62
    7
 10
199.56608540303
 20
59.071305058494858
 40
2.5
 41
1
 50
0
  1
Ｃ－100ｘ50ｘ20ｘ2.3
  0
TEXT
  8
_1-0_
 62
    7
 10
199.56608540303
 20
65.071300109698413
 40
2.5
 41
1
 50
0
  1
硬質木片セメント板　ｔ＝18
  0
LINE
  8
_1-3_
  6
CONTINUOUS
 62
    7
 10
181.71646530563768
 20
65.909688088741902
 11
175.653913964856
 21
65.909688088741902
  0
LINE
  8
_1-3_
  6
CONTINUOUS
 62
    7
 10
181.71646530563768
 20
72.080552709466147
 11
173.50463336707455
 21
72.080552709466147
  0
LINE
  8
_1-3_
  6
CONTINUOUS
 62
    7
 10
181.71646530563768
 20
78.022869538013452
 11
171.43495479681803
 21
78.022869538013452
  0
LINE
  8
_1-3_
  6
CONTINUOUS
 62
    7
 10
181.71646530563768
 20
87.545322727512669
 11
168.11833303611076
 21
87.545322727512669
  0
TEXT
  8
_0-0_
 62
    7
 10
14.594594336844779
 20
24.324324324324323
 40
2.5
 41
1
 50
0
  1
Ｓ形
  0
TEXT
  8
_1-3_
 62
    7
 10
101.76772040289802
 20
165.8530735325169
 40
2.5
 41
1
 50
0
  1
Ｓ形　桟瓦
  0
TEXT
  8
_1-0_
 62
    7
 10
198.87865945801988
 20
86.265622319990484
 40
2.5
 41
1
 50
0
  1
１５×２１　（防腐処理）
  0
TEXT
  8
_1-3_
 62
    7
 10
185.13291642472552
 20
77.071302584096642
 40
2.5
 41
1
 50
0
  1
縦桟
  0
TEXT
  8
_1-3_
 62
    7
 10
185.13291848672404
 20
59.071305058494858
 40
2.5
 41
1
 50
0
  1
たる木
  0
TEXT
  8
_1-0_
 62
    7
 10
191.85760836764018
 20
224.31432498802604
 40
2.5
 41
1
 50
0
  1
葺き土
  0
TEXT
  8
_1-0_
 62
    7
 10
301.5785255301065
 20
207.2504187419193
 40
2.5
 41
1
 50
0
  1
パッキン付ステンレスネジ
  0
TEXT
  8
_1-3_
 62
    7
 10
185.13291436272698
 20
71.071307532893087
 40
2.5
 41
1
 50
0
  1
ルーフィング
  0
ARC
  8
_1-5_
  6
CONTINUOUS
 62
    3
 10
201.98582238902333
 20
182.79700940283493
 40
39.154697632100977
 50
353.76428361060465
 51
23.979323134118264
  0
LINE
  8
ADD_LINE
  6
DOT
 62
    4
 10
251.78399988122891
 20
176.48692363017315
 11
253.86004473711995
 21
176.39693874014378
  0
LINE
  8
ADD_LINE
  6
DOT
 62
    7
 10
233.98404508023651
 20
191.56405062288852
 11
233.98404508023651
 21
161.22191569637712
  0
LINE
  8
ADD_LINE
  6
DOT
 62
    7
 10
272.30067929198373
 20
191.38569103282214
 11
272.30067929198373
 21
161.29354132013469
  0
LINE
  8
ADD_LINE
  6
DOT
 62
    7
 10
253.14236218611012
 20
213.1504929206053
 11
253.14236218611012
 21
160.07590571625624
  0
LINE
  8
ADD_LINE
  6
DOT
 62
    7
 10
234.48037695509439
 20
191.95079889762829
 11
234.48037695509439
 21
159.09440375772081
  0
LINE
  8
ADD_LINE
  6
DOT
 62
    7
 10
253.61331088482291
 20
216.08697952144348
 11
253.61331088482291
 21
165.22542327169705
  0
LINE
  8
_1-6_
  6
CONTINUOUS
 62
    7
 10
250.71056793294107
 20
174.48514293210832
 11
251.85532891980958
 21
175.0002828467878
  0
LINE
  8
ADD_LINE
  6
DOT
 62
    4
 10
253.61331088482291
 20
170.72045871282549
 11
253.61331088482291
 21
170.70928321626485
  0
LINE
  8
ADD_LINE
  6
DOT
 62
    4
 10
250.06813797555634
 20
175.11637084662308
 11
252.11331088482294
 21
175.11637084662308
  0
LINE
  8
_1-6_
  6
CONTINUOUS
 62
    3
 10
233.7107185894167
 20
167.27388217091035
 11
233.87488078161385
 21
166.9090772993959
  0
LINE
  8
_1-6_
  6
CONTINUOUS
 62
    3
 10
253.81331088482293
 20
175.88137084669609
 11
233.87488078161385
 21
166.9090772993959
  0
LINE
  8
_1-6_
  6
CONTINUOUS
 62
    3
 10
233.7107185894167
 20
167.27388217091035
 11
253.41331088482292
 21
176.1400051698991
  0
LINE
  8
ADD_LINE
  6
DOT
 62
    7
 10
253.61331088482291
 20
212.92273675323656
 11
253.61331088482291
 21
170.93137807742823
  0
LINE
  8
_1-0_
  6
CONTINUOUS
 62
    7
 10
244.52028016786318
 20
176.0959934543919
 11
250.35766695682349
 21
174.82089163368619
  0
LINE
  8
_1-0_
  6
CONTINUOUS
 62
    7
 10
248.8802935626056
 20
178.10391812711148
 11
250.35766695682349
 21
174.82089163368619
  0
LINE
  8
_1-0_
  6
CONTINUOUS
 62
    7
 10
246.00536449535474
 20
172.8623508762669
 11
253.41331088482292
 21
176.19590954428728
  0
TEXT
  8
_1-6_
 62
    7
 10
277.43117367844536
 20
223.65201428049821
 40
2.5
 41
1
 50
0
  1
棟補強金具
  0
LINE
  8
_1-6_
  6
CONTINUOUS
 62
    7
 10
265.99481531091641
 20
176.13314654376057
 11
256.78549885919597
 21
176.13314654376057
  0
LINE
  8
_1-6_
  6
CONTINUOUS
 62
    7
 10
265.99481531091641
 20
191.39427092240803
 11
265.99481531091641
 21
176.13314654376057
  0
CIRCLE
  8
_1-7_
  6
CONTINUOUS
 62
    7
 10
241.94404003639673
 20
197.85057844793968
 40
0.2191076590770123
  0
CIRCLE
  8
_1-7_
  6
CONTINUOUS
 62
    7
 10
243.58481736643702
 20
195.4805667489926
 40
0.2191076590770123
  0
CIRCLE
  8
_1-7_
  6
CONTINUOUS
 62
    7
 10
242.55173534381905
 20
193.77901988821006
 40
0.2191076590770123
  0
CIRCLE
  8
_1-7_
  6
CONTINUOUS
 62
    7
 10
243.34173924346808
 20
191.65208631223189
 40
0.2191076590770123
  0
CIRCLE
  8
_1-7_
  6
CONTINUOUS
 62
    7
 10
244.49636032757053
 20
187.64129728324451
 40
0.2191076590770123
  0
CIRCLE
  8
_1-7_
  6
CONTINUOUS
 62
    7
 10
244.37482126608606
 20
186.18282854543091
 40
0.2191076590770123
  0
CIRCLE
  8
_1-7_
  6
CONTINUOUS
 62
    7
 10
243.58481736643702
 20
184.78512933835955
 40
0.2191076590770123
  0
CIRCLE
  8
_1-7_
  6
CONTINUOUS
 62
    7
 10
243.15943065124139
 20
183.32666060054595
 40
0.2191076590770123
  0
CIRCLE
  8
_1-7_
  6
CONTINUOUS
 62
    7
 10
242.55173534381905
 20
181.26049655531003
 40
0.2191076590770123
  0
CIRCLE
  8
_1-7_
  6
CONTINUOUS
 62
    7
 10
242.79481346678799
 20
180.10587547120758
 40
0.2191076590770123
  0
CIRCLE
  8
_1-7_
  6
CONTINUOUS
 62
    7
 10
243.64558689717924
 20
181.32126608605225
 40
0.2191076590770123
  0
CIRCLE
  8
_1-7_
  6
CONTINUOUS
 62
    7
 10
245.40790328870401
 20
182.96204341609254
 40
0.2191076590770123
  0
CIRCLE
  8
_1-7_
  6
CONTINUOUS
 62
    7
 10
243.64558689717924
 20
186.18282854543091
 40
0.2191076590770123
  0
CIRCLE
  8
_1-7_
  6
CONTINUOUS
 62
    7
 10
242.55173534381905
 20
188.49207071363577
 40
0.2191076590770123
  0
CIRCLE
  8
_1-7_
  6
CONTINUOUS
 62
    7
 10
242.43019628233458
 20
189.8290003899649
 40
0.2191076590770123
  0
CIRCLE
  8
_1-7_
  6
CONTINUOUS
 62
    7
 10
243.40250877421033
 20
189.4643832055115
 40
0.2191076590770123
  0
CIRCLE
  8
_1-7_
  6
CONTINUOUS
 62
    7
 10
242.79481346678799
 20
190.9228519433251
 40
0.2191076590770123
  0
CIRCLE
  8
_1-7_
  6
CONTINUOUS
 62
    7
 10
241.5186533212011
 20
191.95593396594307
 40
0.2191076590770123
  0
CIRCLE
  8
_1-7_
  6
CONTINUOUS
 62
    7
 10
241.5186533212011
 20
194.75133238008578
 40
0.2191076590770123
  0
CIRCLE
  8
_1-7_
  6
CONTINUOUS
 62
    7
 10
240.36403223709866
 20
195.84518393344598
 40
0.2191076590770123
  0
CIRCLE
  8
_1-7_
  6
CONTINUOUS
 62
    7
 10
239.75633692967634
 20
198.03288704016637
 40
0.2191076590770123
  0
CIRCLE
  8
_1-7_
  6
CONTINUOUS
 62
    7
 10
240.0601845833875
 20
198.57981281684647
 40
0.2191076590770123
  0
CIRCLE
  8
_1-7_
  6
CONTINUOUS
 62
    7
 10
241.33634472897438
 20
200.09905108540232
 40
0.2191076590770123
  0
CIRCLE
  8
_1-7_
  6
CONTINUOUS
 62
    7
 10
243.64558689717924
 20
201.98290653841156
 40
0.2191076590770123
  0
CIRCLE
  8
_1-7_
  6
CONTINUOUS
 62
    7
 10
244.73943845053947
 20
202.40829325360716
 40
0.2191076590770123
  0
CIRCLE
  8
_1-7_
  6
CONTINUOUS
 62
    7
 10
244.13174314311712
 20
199.9167424931756
 40
0.2191076590770123
  0
CIRCLE
  8
_1-7_
  6
CONTINUOUS
 62
    7
 10
246.62329390354867
 20
199.12673859352657
 40
0.2191076590770123
  0
CIRCLE
  8
_1-7_
  6
CONTINUOUS
 62
    7
 10
246.86637202651761
 20
190.80131288184063
 40
0.2191076590770123
  0
CIRCLE
  8
_1-7_
  6
CONTINUOUS
 62
    7
 10
246.19790718835304
 20
187.70206681398673
 40
0.2191076590770123
  0
CIRCLE
  8
_1-7_
  6
CONTINUOUS
 62
    7
 10
247.17021968022877
 20
185.8182113609775
 40
0.2191076590770123
  0
CIRCLE
  8
_1-7_
  6
CONTINUOUS
 62
    7
 10
245.89405953464188
 20
194.14363707266347
 40
0.2191076590770123
  0
CIRCLE
  8
_1-7_
  6
CONTINUOUS
 62
    7
 10
246.31944624983751
 20
183.99512543871052
 40
0.2191076590770123
  0
CIRCLE
  8
_1-7_
  6
CONTINUOUS
 62
    7
 10
247.17021968022877
 20
186.54744572988432
 40
0.2191076590770123
  0
CIRCLE
  8
_1-7_
  6
CONTINUOUS
 62
    7
 10
245.52944235018848
 20
190.43669569738722
 40
0.2191076590770123
  0
CIRCLE
  8
_1-7_
  6
CONTINUOUS
 62
    7
 10
256.28564929156374
 20
179.07279344858964
 40
0.2191076590770123
  0
CIRCLE
  8
_1-7_
  6
CONTINUOUS
 62
    7
 10
255.79949304562589
 20
181.74665280124788
 40
0.2191076590770123
  0
CIRCLE
  8
_1-7_
  6
CONTINUOUS
 62
    7
 10
255.37410633043027
 20
183.87358637722605
 40
0.2191076590770123
  0
CIRCLE
  8
_1-7_
  6
CONTINUOUS
 62
    7
 10
261.99798518133366
 20
194.50825425711685
 40
0.2191076590770123
  0
CIRCLE
  8
_1-7_
  6
CONTINUOUS
 62
    7
 10
265.03646171844537
 20
196.5744183023528
 40
0.2191076590770123
  0
CIRCLE
  8
_1-7_
  6
CONTINUOUS
 62
    7
 10
264.18568828805405
 20
198.57981281684647
 40
0.2191076590770123
  0
CIRCLE
  8
_1-7_
  6
CONTINUOUS
 62
    7
 10
261.815676589107
 20
200.34212920837126
 40
0.2191076590770123
  0
CIRCLE
  8
_1-7_
  6
CONTINUOUS
 62
    7
 10
261.45105940465356
 20
201.31444170024696
 40
0.2191076590770123
  0
CIRCLE
  8
_1-7_
  6
CONTINUOUS
 62
    7
 10
262.54491095801376
 20
200.52443780059795
 40
0.2191076590770123
  0
CIRCLE
  8
_1-7_
  6
CONTINUOUS
 62
    7
 10
266.49493045625894
 20
198.70135187833094
 40
0.2191076590770123
  0
CIRCLE
  8
_1-7_
  6
CONTINUOUS
 62
    7
 10
269.53340699337059
 20
191.83439490445861
 40
0.2191076590770123
  0
CIRCLE
  8
_1-7_
  6
CONTINUOUS
 62
    7
 10
268.31801637852595
 20
190.61900428961394
 40
0.2191076590770123
  0
CIRCLE
  8
_1-7_
  6
CONTINUOUS
 62
    7
 10
269.29032887040165
 20
190.01130898219159
 40
0.2191076590770123
  0
CIRCLE
  8
_1-7_
  6
CONTINUOUS
 62
    7
 10
269.10802027817499
 20
193.59671129598337
 40
0.2191076590770123
  0
CIRCLE
  8
_1-7_
  6
CONTINUOUS
 62
    7
 10
267.64955154036136
 20
194.14363707266347
 40
0.2191076590770123
  0
CIRCLE
  8
_1-7_
  6
CONTINUOUS
 62
    7
 10
266.6772390484856
 20
193.17132458078771
 40
0.2191076590770123
  0
CIRCLE
  8
_1-7_
  6
CONTINUOUS
 62
    7
 10
263.94261016508511
 20
193.04978551930327
 40
0.2191076590770123
  0
CIRCLE
  8
_1-7_
  6
CONTINUOUS
 62
    7
 10
260.84336409723124
 20
192.50285974262317
 40
0.2191076590770123
  0
CIRCLE
  8
_1-7_
  6
CONTINUOUS
 62
    7
 10
260.47874691277786
 20
192.68516833484986
 40
0.2191076590770123
  0
CIRCLE
  8
_1-7_
  6
CONTINUOUS
 62
    7
 10
261.02567268945796
 20
195.78441440270376
 40
0.2191076590770123
  0
CIRCLE
  8
_1-7_
  6
CONTINUOUS
 62
    7
 10
246.31944624983751
 20
197.85057844793968
 40
0.2191076590770123
  0
CIRCLE
  8
_1-7_
  6
CONTINUOUS
 62
    7
 10
244.61789938905497
 20
198.21519563239309
 40
0.2191076590770123
  0
CIRCLE
  8
_1-7_
  6
CONTINUOUS
 62
    7
 10
247.29175874171324
 20
201.86136747692706
 40
0.2191076590770123
  0
CIRCLE
  8
_1-7_
  6
CONTINUOUS
 62
    7
 10
246.98791108800208
 20
203.0159885610295
 40
0.2191076590770123
  0
CIRCLE
  8
_1-7_
  6
CONTINUOUS
 62
    7
 10
244.73943845053947
 20
199.61289483946445
 40
0.2191076590770123
  0
CIRCLE
  8
_1-7_
  6
CONTINUOUS
 62
    7
 10
250.81639152476276
 20
181.98973092421681
 40
0.2191076590770123
  0
CIRCLE
  8
_1-7_
  6
CONTINUOUS
 62
    7
 10
251.54562589366958
 20
179.98433640972311
 40
0.2191076590770123
  0
CIRCLE
  8
_1-7_
  6
CONTINUOUS
 62
    7
 10
251.6063954244118
 20
183.14435200831926
 40
0.2191076590770123
  0
CIRCLE
  8
_1-7_
  6
CONTINUOUS
 62
    7
 10
260.41797738203559
 20
192.9282464578188
 40
0.2191076590770123
  0
CIRCLE
  8
_1-7_
  6
CONTINUOUS
 62
    7
 10
262.54491095801376
 20
196.39210971012608
 40
0.2191076590770123
  0
CIRCLE
  8
_1-7_
  6
CONTINUOUS
 62
    7
 10
264.06414922656961
 20
193.96132848043675
 40
0.2191076590770123
  0
CIRCLE
  8
_1-7_
  6
CONTINUOUS
 62
    7
 10
265.27953984141425
 20
195.23748862602366
 40
0.2191076590770123
  0
CIRCLE
  8
_1-7_
  6
CONTINUOUS
 62
    7
 10
266.92031717145454
 20
195.72364487196154
 40
0.2191076590770123
  0
CIRCLE
  8
_1-7_
  6
CONTINUOUS
 62
    7
 10
266.85954764071232
 20
195.4805667489926
 40
0.2191076590770123
  0
CIRCLE
  8
_1-7_
  6
CONTINUOUS
 62
    7
 10
260.05336019758221
 20
198.94443000129988
 40
0.2191076590770123
  0
CIRCLE
  8
_1-7_
  6
CONTINUOUS
 62
    7
 10
259.99259066683999
 20
202.71214090731834
 40
0.2191076590770123
  0
CIRCLE
  8
_1-7_
  6
CONTINUOUS
 62
    7
 10
263.3349148576628
 20
200.58520733134017
 40
0.2191076590770123
  0
CIRCLE
  8
_1-7_
  6
CONTINUOUS
 62
    7
 10
267.8926296633303
 20
195.96672299493045
 40
0.2191076590770123
  0
CIRCLE
  8
_1-7_
  6
CONTINUOUS
 62
    7
 10
242.24788769010789
 20
183.63050825425711
 40
0.2191076590770123
  0
CIRCLE
  8
_1-7_
  6
CONTINUOUS
 62
    7
 10
242.85558299753023
 20
185.39282464578187
 40
0.2191076590770123
  0
CIRCLE
  8
_1-7_
  6
CONTINUOUS
 62
    7
 10
242.85558299753023
 20
186.97283244507994
 40
0.2191076590770123
  0
CIRCLE
  8
_1-7_
  6
CONTINUOUS
 62
    7
 10
242.30865722085014
 20
187.8236058754712
 40
0.2191076590770123
  0
CIRCLE
  8
_1-7_
  6
CONTINUOUS
 62
    7
 10
242.18711815936564
 20
189.88976992070712
 40
0.2191076590770123
  0
CIRCLE
  8
_1-7_
  6
CONTINUOUS
 62
    7
 10
241.57942285194332
 20
192.07747302742752
 40
0.2191076590770123
  0
CIRCLE
  8
_1-7_
  6
CONTINUOUS
 62
    7
 10
241.33634472897438
 20
192.86747692707655
 40
0.2191076590770123
  0
CIRCLE
  8
_1-7_
  6
CONTINUOUS
 62
    7
 10
240.66787989080981
 20
193.71825035746781
 40
0.2191076590770123
  0
CIRCLE
  8
_1-7_
  6
CONTINUOUS
 62
    7
 10
239.20941115299624
 20
198.70135187833094
 40
0.2191076590770123
  0
CIRCLE
  8
_1-7_
  6
CONTINUOUS
 62
    7
 10
239.99941505264525
 20
197.06057454829065
 40
0.2191076590770123
  0
CIRCLE
  8
_1-7_
  6
CONTINUOUS
 62
    7
 10
241.09326660600544
 20
197.18211360977512
 40
0.2191076590770123
  0
CIRCLE
  8
_1-7_
  6
CONTINUOUS
 62
    7
 10
243.03789158975692
 20
196.20980111789939
 40
0.2191076590770123
  0
CIRCLE
  8
_1-7_
  6
CONTINUOUS
 62
    7
 10
245.52944235018848
 20
195.05518003379694
 40
0.2191076590770123
  0
CIRCLE
  8
_1-7_
  6
CONTINUOUS
 62
    7
 10
246.62329390354867
 20
194.26517613414791
 40
0.2191076590770123
  0
CIRCLE
  8
_1-7_
  6
CONTINUOUS
 62
    7
 10
245.83329000389966
 20
181.62511373976344
 40
0.2191076590770123
  0
CIRCLE
  8
_1-7_
  6
CONTINUOUS
 62
    7
 10
246.19790718835304
 20
181.62511373976344
 40
0.2191076590770123
  0
CIRCLE
  8
_1-7_
  6
CONTINUOUS
 62
    7
 10
246.92714155725986
 20
183.20512153906148
 40
0.2191076590770123
  0
CIRCLE
  8
_1-7_
  6
CONTINUOUS
 62
    7
 10
247.89945404913558
 20
185.02820746132846
 40
0.2191076590770123
  0
CIRCLE
  8
_1-7_
  6
CONTINUOUS
 62
    7
 10
249.41883380191376
 20
182.6542492962582
 40
0.3307972688528061
  0
CIRCLE
  8
_1-7_
  6
CONTINUOUS
 62
    7
 10
251.56392082369962
 20
180.58313079246494
 40
0.3307972688528061
  0
CIRCLE
  8
_1-7_
  6
CONTINUOUS
 62
    7
 10
248.67914862198759
 20
189.60728998756414
 40
0.3307972688528061
  0
CIRCLE
  8
_1-7_
  6
CONTINUOUS
 62
    7
 10
257.7033078170868
 20
181.10091041841326
 40
0.3307972688528061
  0
CIRCLE
  8
_1-7_
  6
CONTINUOUS
 62
    7
 10
261.47570223471018
 20
192.86190477923927
 40
0.3307972688528061
  0
CIRCLE
  8
_1-7_
  6
CONTINUOUS
 62
    7
 10
260.66204853679142
 20
197.00414178682578
 40
0.3307972688528061
  0
LINE
  8
ADD_LINE
  6
DOT
 62
    7
 10
249.61331088482291
 20
184.57780711210518
 11
257.61331088482291
 21
184.57780711210518
  0
LINE
  8
ADD_LINE
  6
DOT
 62
    4
 10
257.61331088482291
 20
192.57780711210518
 11
258.06974098882995
 21
200.95839020240498
  0
LINE
  8
_1-7_
  6
CONTINUOUS
 62
    7
 10
249.61331088482291
 20
192.57780711210518
 11
257.61331088482291
 21
192.57780711210518
  0
LINE
  8
ADD_LINE
  6
DOT
 62
    7
 10
249.61331088482291
 20
184.57780711210518
 11
257.61331088482291
 21
184.57780711210518
  0
LINE
  8
_1-7_
  6
CONTINUOUS
 62
    7
 10
249.61331088482291
 20
192.57780711210518
 11
249.61331088482291
 21
184.57780711210518
  0
LINE
  8
_1-7_
  6
CONTINUOUS
 62
    3
 10
249.21331088482293
 20
184.17780711210517
 11
253.41331088482292
 21
184.17780711210517
  0
LINE
  8
_1-7_
  6
CONTINUOUS
 62
    7
 10
257.61331088482297
 20
184.57780711210518
 11
257.61331088482297
 21
192.57780711210518
  0
LINE
  8
_1-7_
  6
CONTINUOUS
 62
    3
 10
253.81331088482293
 20
184.17780711210517
 11
258.01331088482294
 21
184.17780711210517
  0
LINE
  8
_1-7_
  6
CONTINUOUS
 62
    7
 10
257.61331088482291
 20
192.57780711210518
 11
257.61331088482291
 21
184.57780711210518
  0
LINE
  8
_1-7_
  6
CONTINUOUS
 62
    7
 10
249.61331088482291
 20
192.57780711210518
 11
257.61331088482297
 21
184.57780711210518
  0
LINE
  8
_1-7_
  6
CONTINUOUS
 62
    3
 10
249.61331088482291
 20
184.57780711210518
 11
257.61331088482297
 21
184.57780711210518
  0
LINE
  8
_1-7_
  6
CONTINUOUS
 62
    7
 10
257.61331088482297
 20
192.57780711210492
 11
249.61331088482291
 21
184.57780711210518
  0
LINE
  8
_1-7_
  6
CONTINUOUS
 62
    7
 10
249.61331088482291
 20
192.57780711210518
 11
257.61331088482291
 21
192.57780711210518
  0
LINE
  8
_1-7_
  6
CONTINUOUS
 62
    7
 10
257.61331088482291
 20
192.57780711210518
 11
257.61331088482291
 21
200.57780711210518
  0
LINE
  8
_1-7_
  6
CONTINUOUS
 62
    7
 10
257.61331088482291
 20
200.57780711210518
 11
249.61331088482291
 21
200.57780711210518
  0
LINE
  8
_1-7_
  6
CONTINUOUS
 62
    7
 10
249.61331088482291
 20
200.57780711210518
 11
249.61331088482291
 21
192.57780711210518
  0
LINE
  8
_1-7_
  6
CONTINUOUS
 62
    7
 10
249.61331088482291
 20
200.57780711210518
 11
257.61331088482291
 21
192.57780711210489
  0
LINE
  8
_1-7_
  6
CONTINUOUS
 62
    7
 10
249.61331088482291
 20
192.57780711210518
 11
257.61331088482291
 21
200.57780711210518
  0
LINE
  8
_1-7_
  6
CONTINUOUS
 62
    3
 10
249.21331088482293
 20
190.63613491758753
 11
249.61331088482291
 21
190.63613491758753
  0
LINE
  8
_1-7_
  6
CONTINUOUS
 62
    3
 10
257.61331088482297
 20
190.63613491758753
 11
258.01331088482294
 21
190.63613491758753
  0
LINE
  8
_1-7_
  6
CONTINUOUS
 62
    3
 10
257.61331088482291
 20
190.63613491758753
 11
258.01331088482294
 21
190.63613491758753
  0
LINE
  8
_1-7_
  6
CONTINUOUS
 62
    3
 10
249.61331088482291
 20
184.57780711210518
 11
249.61331088482291
 21
190.63613491758753
  0
LINE
  8
_1-7_
  6
CONTINUOUS
 62
    3
 10
249.21331088482293
 20
190.63613491758753
 11
249.21331088482293
 21
184.17780711210517
  0
LINE
  8
_1-7_
  6
CONTINUOUS
 62
    3
 10
257.61331088482297
 20
184.57780711210518
 11
257.61331088482297
 21
190.63613491758753
  0
LINE
  8
_1-7_
  6
CONTINUOUS
 62
    3
 10
258.01331088482294
 20
184.17780711210517
 11
258.01331088482294
 21
190.63613491758753
  0
ARC
  8
_1-7_
  6
CONTINUOUS
 62
    7
 10
257.92521337106461
 20
189.08951036161582
 40
0.3307972688528061
 50
327.6610913634334
 51
335.36947964724845
  0
LINE
  8
_1-7_
  6
CONTINUOUS
 62
    7
 10
253.11331088482294
 20
187.54494067728626
 11
254.11331088482294
 21
187.54494067728626
  0
LINE
  8
_1-7_
  6
CONTINUOUS
 62
    7
 10
253.11331088482294
 20
187.54494067728626
 11
253.61331088482294
 21
186.69377361600795
  0
LINE
  8
_1-7_
  6
CONTINUOUS
 62
    7
 10
253.61331088482294
 20
186.69377361600795
 11
254.11331088482294
 21
187.54494067728626
  0
LINE
  8
_1-7_
  6
CONTINUOUS
 62
    7
 10
253.83846585272943
 20
187.54494067728609
 11
254.11331088482316
 21
187.8197857093798
  0
LINE
  8
_1-7_
  6
CONTINUOUS
 62
    7
 10
253.27278042777948
 20
187.54494067728621
 11
254.11331088482274
 21
188.38547113432946
  0
LINE
  8
_1-7_
  6
CONTINUOUS
 62
    7
 10
253.11331088482282
 20
187.66831384680455
 11
254.11331088482254
 21
188.66831384680427
  0
LINE
  8
_1-7_
  6
CONTINUOUS
 62
    7
 10
253.11331088482331
 20
188.23399927175325
 11
254.11331088482297
 21
189.23399927175296
  0
LINE
  8
_1-7_
  6
CONTINUOUS
 62
    7
 10
253.11331088482311
 20
188.51684198422811
 11
254.11331088482285
 21
189.51684198422785
  0
LINE
  8
_1-7_
  6
CONTINUOUS
 62
    7
 10
253.11331088482271
 20
189.08252740917777
 11
254.11331088482297
 21
190.08252740917803
  0
LINE
  8
_1-7_
  6
CONTINUOUS
 62
    7
 10
253.11331088482279
 20
189.3653701216511
 11
254.11331088482302
 21
190.36537012165132
  0
LINE
  8
_1-7_
  6
CONTINUOUS
 62
    7
 10
253.11331088482299
 20
189.93105554660133
 11
254.11331088482274
 21
190.93105554660104
  0
LINE
  8
_1-7_
  6
CONTINUOUS
 62
    7
 10
253.11331088482279
 20
190.21389825907616
 11
254.11331088482302
 21
191.21389825907642
  0
LINE
  8
_1-7_
  6
CONTINUOUS
 62
    7
 10
253.11331088482316
 20
190.77958368402477
 11
254.11331088482285
 21
191.77958368402446
  0
LINE
  8
_1-7_
  6
CONTINUOUS
 62
    7
 10
253.11331088482308
 20
191.06242639649975
 11
254.11331088482279
 21
192.06242639649946
  0
LINE
  8
_1-7_
  6
CONTINUOUS
 62
    7
 10
253.11331088482297
 20
187.60063437162128
 11
254.11331088482262
 21
188.60063437162097
  0
LINE
  8
_1-7_
  6
CONTINUOUS
 62
    7
 10
253.11331088482291
 20
188.16631979657129
 11
254.11331088482262
 21
189.16631979657103
  0
LINE
  8
_1-7_
  6
CONTINUOUS
 62
    7
 10
253.11331088482268
 20
188.44916250904612
 11
254.11331088482294
 21
189.44916250904635
  0
LINE
  8
_1-7_
  6
CONTINUOUS
 62
    7
 10
253.11331088482319
 20
189.01484793399484
 11
254.11331088482291
 21
190.01484793399459
  0
LINE
  8
_1-7_
  6
CONTINUOUS
 62
    7
 10
253.11331088482297
 20
189.29769064646968
 11
254.11331088482271
 21
190.29769064646939
  0
LINE
  8
_1-7_
  6
CONTINUOUS
 62
    7
 10
253.11331088482257
 20
189.86337607141934
 11
254.11331088482282
 21
190.86337607141957
  0
LINE
  8
_1-7_
  6
CONTINUOUS
 62
    7
 10
253.11331088482282
 20
190.14621878389278
 11
254.11331088482251
 21
191.14621878389246
  0
LINE
  8
_1-7_
  6
CONTINUOUS
 62
    7
 10
253.11331088482285
 20
190.7119042088429
 11
254.11331088482257
 21
191.71190420884261
  0
LINE
  8
_1-7_
  6
CONTINUOUS
 62
    7
 10
253.11331088482265
 20
190.9947469213177
 11
254.11331088482291
 21
191.99474692131798
  0
LINE
  8
_1-7_
  6
CONTINUOUS
 62
    7
 10
253.34045990296113
 20
187.54494067728626
 11
254.11331088482285
 21
188.31779165914799
  0
LINE
  8
_1-7_
  6
CONTINUOUS
 62
    7
 10
253.11331088482331
 20
191.68978171617619
 11
254.11331088482297
 21
192.68978171617587
  0
LINE
  8
_1-7_
  6
CONTINUOUS
 62
    7
 10
253.11331088482311
 20
191.97262442865105
 11
254.11331088482285
 21
192.97262442865079
  0
LINE
  8
_1-7_
  6
CONTINUOUS
 62
    7
 10
253.11331088482271
 20
192.53830985360071
 11
254.11331088482297
 21
193.53830985360096
  0
LINE
  8
_1-7_
  6
CONTINUOUS
 62
    7
 10
253.11331088482279
 20
192.82115256607401
 11
254.11331088482302
 21
193.82115256607423
  0
LINE
  8
_1-7_
  6
CONTINUOUS
 62
    7
 10
253.11331088482299
 20
193.38683799102427
 11
254.11331088482274
 21
194.38683799102398
  0
LINE
  8
_1-7_
  6
CONTINUOUS
 62
    7
 10
253.11331088482279
 20
193.6696807034991
 11
254.11331088482302
 21
194.66968070349932
  0
LINE
  8
_1-7_
  6
CONTINUOUS
 62
    7
 10
253.11331088482316
 20
194.23536612844771
 11
254.11331088482285
 21
195.2353661284474
  0
LINE
  8
_1-7_
  6
CONTINUOUS
 62
    7
 10
253.11331088482308
 20
194.51820884092265
 11
254.11331088482279
 21
195.51820884092237
  0
LINE
  8
_1-7_
  6
CONTINUOUS
 62
    7
 10
253.11331088482291
 20
191.62210224099422
 11
254.11331088482262
 21
192.62210224099397
  0
LINE
  8
_1-7_
  6
CONTINUOUS
 62
    7
 10
253.11331088482268
 20
191.90494495346906
 11
254.11331088482294
 21
192.90494495346928
  0
LINE
  8
_1-7_
  6
CONTINUOUS
 62
    7
 10
253.11331088482319
 20
192.47063037841778
 11
254.11331088482291
 21
193.47063037841752
  0
LINE
  8
_1-7_
  6
CONTINUOUS
 62
    7
 10
253.11331088482297
 20
192.75347309089261
 11
254.11331088482271
 21
193.75347309089233
  0
LINE
  8
_1-7_
  6
CONTINUOUS
 62
    7
 10
253.11331088482257
 20
193.31915851584228
 11
254.11331088482282
 21
194.3191585158425
  0
LINE
  8
_1-7_
  6
CONTINUOUS
 62
    7
 10
253.11331088482282
 20
193.60200122831571
 11
254.11331088482251
 21
194.6020012283154
  0
LINE
  8
_1-7_
  6
CONTINUOUS
 62
    7
 10
253.11331088482285
 20
194.16768665326583
 11
254.11331088482257
 21
195.16768665326555
  0
LINE
  8
_1-7_
  6
CONTINUOUS
 62
    7
 10
253.11331088482265
 20
194.45052936574064
 11
254.11331088482291
 21
195.45052936574092
  0
LINE
  8
_1-7_
  6
CONTINUOUS
 62
    7
 10
253.11331088482271
 20
195.19603573051057
 11
254.11331088482297
 21
196.19603573051083
  0
LINE
  8
_1-7_
  6
CONTINUOUS
 62
    7
 10
253.11331088482279
 20
195.47887844298387
 11
254.11331088482302
 21
196.4788784429841
  0
LINE
  8
_1-7_
  6
CONTINUOUS
 62
    7
 10
253.11331088482319
 20
195.12835625532765
 11
254.11331088482291
 21
196.12835625532739
  0
LINE
  8
_1-7_
  6
CONTINUOUS
 62
    7
 10
253.11331088482297
 20
195.41119896780248
 11
254.11331088482271
 21
196.41119896780219
  0
LINE
  8
_1-7_
  6
CONTINUOUS
 62
    7
 10
253.11331088482316
 20
196.32262347949697
 11
254.11331088482285
 21
197.32262347949666
  0
LINE
  8
_1-7_
  6
CONTINUOUS
 62
    7
 10
253.11331088482308
 20
196.60546619197191
 11
254.11331088482279
 21
197.60546619197163
  0
LINE
  8
_1-7_
  6
CONTINUOUS
 62
    7
 10
253.11331088482285
 20
196.25494400431509
 11
254.11331088482257
 21
197.25494400431481
  0
LINE
  8
_1-7_
  6
CONTINUOUS
 62
    7
 10
253.11331088482265
 20
196.5377867167899
 11
254.11331088482291
 21
197.53778671679018
  0
LINE
  8
_1-7_
  6
CONTINUOUS
 62
    7
 10
253.11331088482331
 20
197.23282151164838
 11
254.11331088482297
 21
198.23282151164807
  0
LINE
  8
_1-7_
  6
CONTINUOUS
 62
    7
 10
253.11331088482311
 20
197.51566422412324
 11
254.11331088482285
 21
198.51566422412299
  0
LINE
  8
_1-7_
  6
CONTINUOUS
 62
    7
 10
253.11331088482271
 20
198.08134964907291
 11
254.11331088482297
 21
199.08134964907316
  0
LINE
  8
_1-7_
  6
CONTINUOUS
 62
    7
 10
253.11331088482279
 20
198.3641923615462
 11
254.11331088482302
 21
199.36419236154643
  0
LINE
  8
_1-7_
  6
CONTINUOUS
 62
    7
 10
253.11331088482299
 20
198.92987778649646
 11
254.11331088482274
 21
199.92987778649618
  0
LINE
  8
_1-7_
  6
CONTINUOUS
 62
    7
 10
253.11331088482279
 20
199.21272049897129
 11
254.11331088482302
 21
200.21272049897152
  0
LINE
  8
_1-7_
  6
CONTINUOUS
 62
    7
 10
253.11331088482316
 20
199.77840592391991
 11
254.11331088482285
 21
200.77840592391959
  0
LINE
  8
_1-7_
  6
CONTINUOUS
 62
    7
 10
253.11331088482308
 20
200.06124863639485
 11
254.11331088482279
 21
201.06124863639457
  0
LINE
  8
_1-7_
  6
CONTINUOUS
 62
    7
 10
253.11331088482291
 20
197.16514203646642
 11
254.11331088482262
 21
198.16514203646614
  0
LINE
  8
_1-7_
  6
CONTINUOUS
 62
    7
 10
253.11331088482268
 20
197.44798474894122
 11
254.11331088482294
 21
198.44798474894148
  0
LINE
  8
_1-7_
  6
CONTINUOUS
 62
    7
 10
253.11331088482319
 20
198.01367017388998
 11
254.11331088482291
 21
199.01367017388969
  0
LINE
  8
_1-7_
  6
CONTINUOUS
 62
    7
 10
253.11331088482297
 20
198.29651288636478
 11
254.11331088482271
 21
199.29651288636452
  0
LINE
  8
_1-7_
  6
CONTINUOUS
 62
    7
 10
253.11331088482257
 20
198.86219831131444
 11
254.11331088482282
 21
199.8621983113147
  0
LINE
  8
_1-7_
  6
CONTINUOUS
 62
    7
 10
253.11331088482282
 20
199.14504102378791
 11
254.11331088482251
 21
200.1450410237876
  0
LINE
  8
_1-7_
  6
CONTINUOUS
 62
    7
 10
253.11331088482285
 20
199.710726448738
 11
254.11331088482257
 21
200.71072644873774
  0
LINE
  8
_1-7_
  6
CONTINUOUS
 62
    7
 10
253.11331088482265
 20
199.99356916121283
 11
254.11331088482291
 21
200.99356916121309
  0
LINE
  8
_1-7_
  6
CONTINUOUS
 62
    7
 10
253.11331088482271
 20
200.73907552598277
 11
254.11331088482297
 21
201.73907552598303
  0
LINE
  8
_1-7_
  6
CONTINUOUS
 62
    7
 10
253.11331088482279
 20
201.02191823845607
 11
254.11331088482302
 21
202.02191823845629
  0
LINE
  8
_1-7_
  6
CONTINUOUS
 62
    7
 10
253.11331088482319
 20
200.67139605079984
 11
254.11331088482291
 21
201.67139605079956
  0
LINE
  8
_1-7_
  6
CONTINUOUS
 62
    7
 10
253.11331088482297
 20
200.95423876327465
 11
254.11331088482271
 21
201.95423876327439
  0
LINE
  8
_1-6_
  6
CONTINUOUS
 62
    3
 10
253.81331088482293
 20
184.17780711210517
 11
253.81331088482293
 21
175.88137084669609
  0
LINE
  8
_1-6_
  6
CONTINUOUS
 62
    3
 10
253.41331088482292
 20
184.17780711210517
 11
253.41331088482292
 21
176.1400051698991
  0
LINE
  8
_1-7_
  6
CONTINUOUS
 62
    7
 10
258.82807639612304
 20
191.38569103282214
 11
265.99481531091641
 21
191.38569103282214
  0
LINE
  8
_1-7_
  6
CONTINUOUS
 62
    7
 10
258.82807639612304
 20
191.38569103282214
 11
258.82807639612304
 21
176.13314654376057
  0
LINE
  8
_1-7_
  6
CONTINUOUS
 62
    7
 10
258.82807639612304
 20
191.38569103282214
 11
265.99481531091641
 21
176.13314654376057
  0
LINE
  8
_1-7_
  6
CONTINUOUS
 62
    7
 10
242.9786249566215
 20
200.8077981235482
 11
242.79216779893642
 21
200.71456954470563
  0
CIRCLE
  8
_1-7_
  6
CONTINUOUS
 62
    7
 10
250.35197981609997
 20
203.9002060116191
 40
0.2191076590770123
  0
CIRCLE
  8
_1-7_
  6
CONTINUOUS
 62
    7
 10
250.83813606203782
 20
202.19865915083659
 40
0.2191076590770123
  0
CIRCLE
  8
_1-7_
  6
CONTINUOUS
 62
    7
 10
250.95967512352229
 20
203.59635835790795
 40
0.2191076590770123
  0
CIRCLE
  8
_1-7_
  6
CONTINUOUS
 62
    7
 10
248.58063681809148
 20
198.77263417527874
 40
0.2191076590770123
  0
CIRCLE
  8
_1-7_
  6
CONTINUOUS
 62
    7
 10
249.06679306402933
 20
197.0710873144962
 40
0.2191076590770123
  0
CIRCLE
  8
_1-7_
  6
CONTINUOUS
 62
    7
 10
249.1883321255138
 20
198.46878652156755
 40
0.2191076590770123
  0
CIRCLE
  8
_1-7_
  6
CONTINUOUS
 62
    7
 10
247.08897955661064
 20
195.69609107347449
 40
0.2191076590770123
  0
CIRCLE
  8
_1-7_
  6
CONTINUOUS
 62
    7
 10
247.57513580254849
 20
193.99454421269198
 40
0.2191076590770123
  0
CIRCLE
  8
_1-7_
  6
CONTINUOUS
 62
    7
 10
247.69667486403296
 20
195.39224341976333
 40
0.2191076590770123
  0
CIRCLE
  8
_1-7_
  6
CONTINUOUS
 62
    7
 10
256.03892312549567
 20
203.71374885393402
 40
0.2191076590770123
  0
CIRCLE
  8
_1-7_
  6
CONTINUOUS
 62
    7
 10
256.52507937143355
 20
202.01220199315148
 40
0.2191076590770123
  0
CIRCLE
  8
_1-7_
  6
CONTINUOUS
 62
    7
 10
256.64661843291799
 20
203.40990120022283
 40
0.2191076590770123
  0
CIRCLE
  8
_1-7_
  6
CONTINUOUS
 62
    7
 10
257.43735180813394
 20
202.50177732898084
 40
0.2191076590770123
  0
CIRCLE
  8
_1-7_
  6
CONTINUOUS
 62
    7
 10
257.92350805407182
 20
200.80023046819829
 40
0.2191076590770123
  0
CIRCLE
  8
_1-7_
  6
CONTINUOUS
 62
    7
 10
258.04504711555626
 20
202.19792967526968
 40
0.2191076590770123
  0
CIRCLE
  8
_1-7_
  6
CONTINUOUS
 62
    7
 10
259.11546622729992
 20
195.22994817926173
 40
0.2191076590770123
  0
CIRCLE
  8
_1-7_
  6
CONTINUOUS
 62
    7
 10
259.60162247323774
 20
193.52840131847921
 40
0.2191076590770123
  0
CIRCLE
  8
_1-7_
  6
CONTINUOUS
 62
    7
 10
259.72316153472224
 20
194.92610052555057
 40
0.2191076590770123
  0
CIRCLE
  8
_1-7_
  6
CONTINUOUS
 62
    7
 10
259.11546622729992
 20
193.45860518125323
 40
0.2191076590770123
  0
CIRCLE
  8
_1-7_
  6
CONTINUOUS
 62
    7
 10
259.60162247323774
 20
191.75705832047072
 40
0.2191076590770123
  0
CIRCLE
  8
_1-7_
  6
CONTINUOUS
 62
    7
 10
259.72316153472224
 20
193.15475752754207
 40
0.2191076590770123
  0
CIRCLE
  8
_1-7_
  6
CONTINUOUS
 62
    7
 10
269.18415274229557
 20
191.40757644671709
 40
0.2191076590770123
  0
CIRCLE
  8
_1-7_
  6
CONTINUOUS
 62
    7
 10
269.67030898823344
 20
189.70602958593457
 40
0.2191076590770123
  0
CIRCLE
  8
_1-7_
  6
CONTINUOUS
 62
    7
 10
269.79184804971788
 20
191.10372879300593
 40
0.2191076590770123
  0
CIRCLE
  8
_1-7_
  6
CONTINUOUS
 62
    7
 10
255.85246596781056
 20
178.35557540875973
 40
0.2191076590770123
  0
CIRCLE
  8
_1-7_
  6
CONTINUOUS
 62
    7
 10
256.33862221374841
 20
176.65402854797719
 40
0.2191076590770123
  0
CIRCLE
  8
_1-7_
  6
CONTINUOUS
 62
    7
 10
256.46016127523291
 20
178.05172775504857
 40
0.2191076590770123
  0
CIRCLE
  8
_1-7_
  6
CONTINUOUS
 62
    7
 10
257.15766607160629
 20
182.64409003551714
 40
0.2191076590770123
  0
CIRCLE
  8
_1-7_
  6
CONTINUOUS
 62
    7
 10
257.64382231754416
 20
180.94254317473462
 40
0.2191076590770123
  0
CIRCLE
  8
_1-7_
  6
CONTINUOUS
 62
    7
 10
257.7653613790286
 20
182.34024238180598
 40
0.2191076590770123
  0
CIRCLE
  8
_1-7_
  6
CONTINUOUS
 62
    7
 10
255.0134087582276
 20
179.56754693371292
 40
0.2191076590770123
  0
CIRCLE
  8
_1-7_
  6
CONTINUOUS
 62
    7
 10
255.49956500416545
 20
177.86600007293038
 40
0.2191076590770123
  0
CIRCLE
  8
_1-7_
  6
CONTINUOUS
 62
    7
 10
255.62110406564992
 20
179.26369928000176
 40
0.2191076590770123
  0
CIRCLE
  8
_1-7_
  6
CONTINUOUS
 62
    7
 10
248.67386539693402
 20
202.59500590782338
 40
0.2191076590770123
  0
CIRCLE
  8
_1-7_
  6
CONTINUOUS
 62
    7
 10
249.16002164287187
 20
200.89345904704084
 40
0.2191076590770123
  0
CIRCLE
  8
_1-7_
  6
CONTINUOUS
 62
    7
 10
249.28156070435637
 20
202.29115825411222
 40
0.2191076590770123
  0
TEXT
  8
_1-6_
 62
    7
 10
275.95849730212177
 20
234.36238792648788
 40
2.5
 41
1
 50
0
  1
棟補強芯材　40ｘ40　２段
  0
TEXT
  8
_1-4_
 62
    7
 10
396.19691178605365
 20
16.476832209406666
 40
2.5
 41
1
 50
0
  1
33-1
  0
LINE
  8
_1-b_
  6
CONTINUOUS
 62
    7
 10
258.01331088482294
 20
187.82434289140275
 11
260.02044291596752
 21
187.82434289140275
  0
LINE
  8
_1-b_
  6
CONTINUOUS
 62
    7
 10
260.02044291596752
 20
187.82434289140275
 11
273.49806827733266
 21
224.85380301888341
  0
LINE
  8
_1-6_
  6
CONTINUOUS
 62
    7
 10
273.49806827733266
 20
224.85380301888341
 11
276.95188445778734
 21
224.85380301888341
  0
LINE
  8
_1-b_
  6
CONTINUOUS
 62
    7
 10
272.25435173777532
 20
235.62487322000891
 11
256.82477713088116
 21
193.23247824160256
  0
LINE
  8
_1-6_
  6
CONTINUOUS
 62
    7
 10
272.25435173777532
 20
235.62487322000891
 11
275.37578603594466
 21
235.62487322000891
  0
LINE
  8
_1-b_
  6
CONTINUOUS
 62
    7
 10
264.86837010421306
 20
189.2337799409612
 11
274.67814448352641
 21
216.18590537098368
  0
LINE
  8
_1-b_
  6
CONTINUOUS
 62
    7
 10
274.67814448352641
 20
216.18590537098368
 11
279.47335551105209
 21
216.18590537098368
  0
TEXT
  8
_1-b_
 62
    7
 10
279.87904955013096
 20
215.09677493223859
 40
2.5
 41
1
 50
0
  1
丸瓦止付け材
  0
LINE
  8
_1-7_
  6
CONTINUOUS
 62
    7
 10
252.11331088482294
 20
209.53599628357915
 11
255.11331088482294
 21
209.53599628357915
  0
LINE
  8
_1-7_
  6
CONTINUOUS
 62
    7
 10
255.11331088482294
 20
209.53599628357915
 11
255.11331088482294
 21
210.13599628357915
  0
LINE
  8
_1-7_
  6
CONTINUOUS
 62
    7
 10
255.11331088482294
 20
210.13599628357915
 11
252.11331088482294
 21
210.13599628357915
  0
LINE
  8
_1-7_
  6
CONTINUOUS
 62
    7
 10
252.11331088482294
 20
210.13599628357915
 11
252.11331088482294
 21
209.53599628357915
  0
ARC
  8
_1-7_
  6
CONTINUOUS
 62
    7
 10
253.61331088482294
 20
209.87659063379459
 40
0.8410061183725917
 50
17.965652626476004
 51
162.03434737352399
  0
LINE
  8
_1-7_
  6
CONTINUOUS
 62
    7
 10
253.11331088482294
 20
209.53599628357915
 11
253.11331088482294
 21
187.54494067728626
  0
LINE
  8
_1-7_
  6
CONTINUOUS
 62
    7
 10
254.11331088482294
 20
209.53599628357915
 11
254.11331088482294
 21
187.54494067728626
  0
LINE
  8
_1-7_
  6
CONTINUOUS
 62
    7
 10
253.11331088482271
 20
201.90208955018613
 11
254.11331088482297
 21
202.90208955018639
  0
LINE
  8
_1-7_
  6
CONTINUOUS
 62
    7
 10
253.11331088482279
 20
202.18493226265943
 11
254.11331088482302
 21
203.18493226265966
  0
LINE
  8
_1-7_
  6
CONTINUOUS
 62
    7
 10
253.11331088482299
 20
202.75061768760969
 11
254.11331088482274
 21
203.75061768760941
  0
LINE
  8
_1-7_
  6
CONTINUOUS
 62
    7
 10
253.11331088482279
 20
203.03346040008452
 11
254.11331088482302
 21
204.03346040008475
  0
LINE
  8
_1-7_
  6
CONTINUOUS
 62
    7
 10
253.11331088482319
 20
201.83441007500321
 11
254.11331088482291
 21
202.83441007500295
  0
LINE
  8
_1-7_
  6
CONTINUOUS
 62
    7
 10
253.11331088482297
 20
202.11725278747804
 11
254.11331088482271
 21
203.11725278747775
  0
LINE
  8
_1-7_
  6
CONTINUOUS
 62
    7
 10
253.11331088482257
 20
202.6829382124277
 11
254.11331088482282
 21
203.68293821242793
  0
LINE
  8
_1-7_
  6
CONTINUOUS
 62
    7
 10
253.11331088482282
 20
202.96578092490114
 11
254.11331088482251
 21
203.96578092490083
  0
LINE
  8
_1-b_
  6
CONTINUOUS
 62
    7
 10
254.11331088482294
 20
203.96578092490125
 11
253.11331088482294
 21
203.96578092490125
  0
LINE
  8
_1-b_
  6
CONTINUOUS
 62
    7
 10
253.94552441700216
 20
210.00344948184909
 11
266.47188238575154
 21
244.41932472022805
  0
LINE
  8
_1-4_
  6
CONTINUOUS
 62
    7
 10
266.47188238575154
 20
244.41932472022805
 11
271.67365445226727
 21
244.41932472022805
  0
TEXT
  8
_1-6_
 62
    7
 10
272.23264954346928
 20
242.82444697956959
 40
2.5
 41
1
 50
0
  1
パッキン付ステンレスネジ
  0
ENDSEC
  0
EOF
