  0
SECTION
  2
HEADER
  9
$ACADVER
  1
AC1009
  9
$INSBASE
 10
0
 20
0
 30
0
  9
$EXTMIN
 10
0
 20
0
  9
$EXTMAX
 10
420
 20
297
  9
$LIMMIN
 10
0
 20
0
  9
$LIMMAX
 10
420
 20
297
  9
$LTSCALE
 40
1
  0
ENDSEC
  0
SECTION
  2
TABLES
  0
TABLE
  2
LTYPE
 70
     9
  0
LTYPE
  2
CONTINUOUS
 70
    64
  3
実線
 72
    65
 73
     0
 40
0.0
  0
LTYPE
  2
DASHED1
 70
    64
  3
--  --  --  --  --  --  --  --  
 72
    65
 73
     2
 40
2.5
 49
1.25
 49
-1.25
  0
LTYPE
  2
DASHED2
 70
    64
  3
----    ----    ----    ----    
 72
    65
 73
     2
 40
5.0
 49
2.5
 49
-2.5
  0
LTYPE
  2
DASHED3
 70
    64
  3
------  ------  ------  ------  
 72
    65
 73
     2
 40
5.0
 49
3.75
 49
-1.25
  0
LTYPE
  2
CENTER1
 70
    64
  3
----- - ----- - ----- - ----- - 
 72
    65
 73
     4
 40
10.0
 49
6.25
 49
-1.25
 49
1.25
 49
-1.25
  0
LTYPE
  2
CENTER2
 70
    64
  3
----------  --  ----------  --  
 72
    65
 73
     4
 40
20.0
 49
12.5
 49
-2.5
 49
2.5
 49
-2.5
  0
LTYPE
  2
PHANTOM1
 70
    64
  3
--- - - --- - - --- - - --- - - 
 72
    65
 73
     6
 40
10.0
 49
3.25
 49
-1.25
 49
1.25
 49
-1.25
 49
1.25
 49
-1.25
  0
LTYPE
  2
PHANTOM2
 70
    64
  3
--------  -  -  --------  -  -  
 72
    65
 73
     6
 40
20.0
 49
10.0
 49
-2.5
 49
1.25
 49
-2.5
 49
1.25
 49
-2.5
  0
LTYPE
  2
DOT
 70
    64
  3
-   -   -   -   -   -   -   -   
 72
    65
 73
     2
 40
2.5
 49
0.625
 49
-1.875
  0
LTYPE
  2
DUMMY
 70
    64
  3
ダミー
 72
    65
 73
     0
 40
0.0
  0
LTYPE
  2
RAND1
 70
    64
  3
ランダム線1
 72
    65
 73
     4
 40
10.0
 49
1.0
 49
-2.0
 49
3.0
 49
-4.0
  0
LTYPE
  2
RAND2
 70
    64
  3
ランダム線2
 72
    65
 73
     4
 40
14.0
 49
2.0
 49
-3.0
 49
4.0
 49
-5.0
  0
LTYPE
  2
RAND3
 70
    64
  3
ランダム線3
 72
    65
 73
     4
 40
18.0
 49
3.0
 49
-4.0
 49
5.0
 49
-6.0
  0
LTYPE
  2
RAND4
 70
    64
  3
ランダム線4
 72
    65
 73
     4
 40
22.0
 49
4.0
 49
-5.0
 49
6.0
 49
-7.0
  0
LTYPE
  2
RAND5
 70
    64
  3
ランダム線5
 72
    65
 73
     4
 40
26.0
 49
5.0
 49
-6.0
 49
7.0
 49
-8.0
  0
LTYPE
  2
LONG1
 70
    64
  3
----------  --  ----------  --  
 72
    65
 73
     4
 40
40.0
 49
32.5
 49
-2.5
 49
2.5
 49
-2.5
  0
LTYPE
  2
LONG2
 70
    64
  3
--------  -  -  --------  -  -  
 72
    65
 73
     6
 40
40.0
 49
30.0
 49
-2.5
 49
1.25
 49
-2.5
 49
1.25
 49
-2.5
  0
LTYPE
  2
LONG3
 70
    64
  3
+++++++++++++++..+++++++++++++++
 72
    65
 73
     2
 40
40.0
 49
37.5
 49
-2.5
  0
LTYPE
  2
LONG4
 70
    64
  3
+++++++++++++++..+++++++++++++++
 72
    65
 73
     2
 40
80.0
 49
75.0
 49
-5.0
  0
LTYPE
  2
LONG5
 70
    64
  3
----------  --  ----------  --  
 72
    65
 73
     4
 40
60.0
 49
37.5
 49
-7.5
 49
7.5
 49
-7.5
  0
LTYPE
  2
dashed
 70
   64
  3
-------   -------------   ------
 72
   65
 73
    2
 40
7.5
 49
6
 49
-1.5
  0
LTYPE
  2
dashed_spaced
 70
   64
  3
----        --------        ----
 72
   65
 73
    2
 40
12
 49
6
 49
-6
  0
LTYPE
  2
long_dashed_dotted
 70
   64
  3
------------- --- --------------
 72
   65
 73
    4
 40
15.25
 49
12
 49
-1.5
 49
0.25
 49
-1.5
  0
LTYPE
  2
long_dashed_double-dotted
 70
   64
  3
----------- --- --- ------------
 72
   65
 73
    6
 40
17
 49
12
 49
-1.5
 49
0.25
 49
-1.5
 49
0.25
 49
-1.5
  0
LTYPE
  2
long_dashed_triplicate-dotted
 70
   64
  3
--------- --- --- --- ----------
 72
   65
 73
    8
 40
18.75
 49
12
 49
-1.5
 49
0.25
 49
-1.5
 49
0.25
 49
-1.5
 49
0.25
 49
-1.5
  0
LTYPE
  2
dotted
 70
   64
  3
   -       -       -       -    
 72
   65
 73
    2
 40
1.75
 49
0.25
 49
-1.5
  0
LTYPE
  2
chain
 70
   64
  3
-------------- -- --------------
 72
   65
 73
    4
 40
18.5
 49
12
 49
-1.5
 49
3.5
 49
-1.5
  0
LTYPE
  2
chain_double_dash
 70
   64
  3
------------ -- -- -------------
 72
   65
 73
    6
 40
23.5
 49
12
 49
-1.5
 49
3.5
 49
-1.5
 49
3.5
 49
-1.5
  0
LTYPE
  2
dashed_dotted
 70
   64
  3
-----------     -     ----------
 72
   65
 73
    4
 40
9.25
 49
6
 49
-1.5
 49
0.25
 49
-1.5
  0
LTYPE
  2
double-dashed_dotted
 70
   64
  3
------   -----------   -   -----
 72
   65
 73
    6
 40
16.75
 49
6
 49
-1.5
 49
6
 49
-1.5
 49
0.25
 49
-1.5
  0
LTYPE
  2
dashed_double-dotted
 70
   64
  3
---------    -    -    ---------
 72
   65
 73
    6
 40
11
 49
6
 49
-1.5
 49
0.25
 49
-1.5
 49
0.25
 49
-1.5
  0
LTYPE
  2
double-dashed_double-dotted
 70
   64
  3
-----   ---------   -   -   ----
 72
   65
 73
    8
 40
18.5
 49
6
 49
-1.5
 49
6
 49
-1.5
 49
0.25
 49
-1.5
 49
0.25
 49
-1.5
  0
LTYPE
  2
dashed_triplicate-dotted
 70
   64
  3
-------    -    -    -    ------
 72
   65
 73
    8
 40
12.75
 49
6
 49
-1.5
 49
0.25
 49
-1.5
 49
0.25
 49
-1.5
 49
0.25
 49
-1.5
  0
LTYPE
  2
double-dashed_triplicate-dotted
 70
   64
  3
-----  ---------  -  -  -  -----
 72
   65
 73
   10
 40
20.25
 49
6
 49
-1.5
 49
6
 49
-1.5
 49
0.25
 49
-1.5
 49
0.25
 49
-1.5
 49
0.25
 49
-1.5
  0
LTYPE
  2
undefined
 70
   64
  3
--------------------------------
 72
   65
 73
    0
 40
0
  0
ENDTAB
  0
TABLE
  2
STYLE
  5
3
100
AcDbSymbolTable
 70
     1
  0
STYLE
  5
10
100
AcDbSymbolTableRecord
100
AcDbTextStyleTableRecord
  2
STANDARD
 70
     0
 40
0.0
 41
1.0
 50
0.0
 71
     0
 42
0.2
  3
txt
  4
bigfont.shx
  0
STYLE
  5
26
100
AcDbSymbolTableRecord
100
AcDbTextStyleTableRecord
  2
TATEGAKI
 70
    68
 40
0.0
 41
1.0
 50
0.0
 71
     0
 42
1.0
  3
txt
  4
bigfont.shx
  0
ENDTAB
  0
TABLE
  2
LAYER
 70
    6
  0
LAYER
  2
_0-0_
 70
   64
 62
    7
  6
CONTINUOUS
  0
LAYER
  2
_1-0_
 70
   64
 62
    7
  6
CONTINUOUS
  0
LAYER
  2
_1-1_
 70
   64
 62
    7
  6
CONTINUOUS
  0
LAYER
  2
_1-2_
 70
   64
 62
    7
  6
CONTINUOUS
  0
LAYER
  2
_1-3_
 70
   64
 62
    7
  6
CONTINUOUS
  0
LAYER
  2
ADD_LINE
 70
   64
 62
    7
  6
CONTINUOUS
  0
ENDTAB
  0
ENDSEC
  0
SECTION
  2
BLOCKS
  0
ENDSEC
  0
SECTION
  2
ENTITIES
  0
LINE
  8
_1-0_
  6
CONTINUOUS
 62
    7
 10
197.58261603278083
 20
122.1201262602935
 11
17.027027027027032
 21
203.37014688027872
  0
LINE
  8
_0-0_
  6
CONTINUOUS
 62
    5
 10
6.7567526327597136
 20
280.13513513513516
 11
406.75677325274495
 21
280.13513513513516
  0
LINE
  8
_0-0_
  6
CONTINUOUS
 62
    5
 10
406.75677325274495
 20
10.13513513513513
 11
6.7567526327597136
 21
10.13513513513513
  0
LINE
  8
_0-0_
  6
CONTINUOUS
 62
    5
 10
406.75677325274495
 20
30.135133073136615
 11
6.7567402607685949
 21
30.135133073136615
  0
LINE
  8
_0-0_
  6
CONTINUOUS
 62
    5
 10
371.75678150073907
 20
10.13513513513513
 11
371.75678150073907
 21
30.135133073136615
  0
LINE
  8
_0-0_
  6
CONTINUOUS
 62
    5
 10
137.02703939901818
 20
30.135133073136615
 11
137.02703939901818
 21
10.13513513513513
  0
LINE
  8
_0-0_
  6
CONTINUOUS
 62
    5
 10
214.86486486486487
 20
30.135133073136615
 11
214.86486486486487
 21
10.13513513513513
  0
LINE
  8
_0-0_
  6
CONTINUOUS
 62
    5
 10
396.48648648648651
 20
25.945945945945951
 11
383.91891891891896
 21
13.378379924877265
  0
LINE
  8
_1-0_
  6
CONTINUOUS
 62
    7
 10
272.36933527766047
 20
155.8612802866343
 11
270.89202056059969
 21
159.14420050543708
  0
LINE
  8
_1-0_
  6
CONTINUOUS
 62
    7
 10
270.89202056059969
 20
159.14420050543708
 11
275.2692557669975
 21
161.11394521352409
  0
LINE
  8
_1-0_
  6
CONTINUOUS
 62
    7
 10
275.2692557669975
 20
161.11394521352409
 11
276.74657048405828
 21
157.8310249947213
  0
LINE
  8
_1-0_
  6
CONTINUOUS
 62
    7
 10
276.74657048405828
 20
157.8310249947213
 11
272.36933527766047
 21
155.8612802866343
  0
LINE
  8
_1-0_
  6
CONTINUOUS
 62
    7
 10
270.89202056059969
 20
159.14420050543708
 11
276.74657048405828
 21
157.8310249947213
  0
LINE
  8
_1-0_
  6
CONTINUOUS
 62
    7
 10
322.68916774440459
 20
182.4529080777555
 11
324.16648246146536
 21
179.16998785895271
  0
LINE
  8
_1-0_
  6
CONTINUOUS
 62
    7
 10
324.16648246146536
 20
179.16998785895271
 11
319.78924725506761
 21
177.20024315086573
  0
LINE
  8
_1-0_
  6
CONTINUOUS
 62
    7
 10
370.10907972181167
 20
203.79187094198693
 11
371.5863944388725
 21
200.50895072318414
  0
LINE
  8
_1-0_
  6
CONTINUOUS
 62
    7
 10
371.5863944388725
 20
200.50895072318414
 11
367.20915923247469
 21
198.53920601509714
  0
LINE
  8
_1-2_
  6
CONTINUOUS
 62
    3
 10
276.36781434755068
 20
158.87273427602409
 11
278.18736308329818
 21
159.48455398147172
  0
LINE
  8
ADD_LINE
  6
DOT
 62
    7
 10
274.70754262563344
 20
164.11699862093539
 11
274.53485437341641
 21
164.69192504882813
  0
LINE
  8
_1-2_
  6
CONTINUOUS
 62
    3
 10
274.53485437341641
 20
164.69192504882813
 11
274.70754262563344
 21
164.11699862093539
  0
LINE
  8
_1-2_
  6
CONTINUOUS
 62
    3
 10
275.57105811866558
 20
161.24229224952492
 11
276.37038772170609
 21
158.86507601351352
  0
LINE
  8
_1-2_
  6
CONTINUOUS
 62
    3
 10
219.75422627217063
 20
141.62777462521115
 11
220.51292625633448
 21
141.88288508234797
  0
LINE
  8
_1-2_
  6
CONTINUOUS
 62
    3
 10
221.68603845544766
 20
143.12356072503167
 11
275.57105811866558
 21
161.24229224952492
  0
LINE
  8
_1-2_
  6
CONTINUOUS
 62
    3
 10
220.64654376055745
 20
141.4380625131968
 11
220.51292625633448
 21
141.88288508234797
  0
LINE
  8
_1-2_
  6
CONTINUOUS
 62
    3
 10
219.89160486169766
 20
141.17046871700802
 11
219.75422627217063
 21
141.62777462521115
  0
LINE
  8
_1-2_
  6
CONTINUOUS
 62
    3
 10
221.37599635768584
 20
141.46546647355365
 11
220.9018274255701
 21
141.3060286238387
  0
LINE
  8
_1-2_
  6
CONTINUOUS
 62
    3
 10
221.50379902607688
 20
141.71257225242823
 11
221.30265519425677
 21
142.38224338840794
  0
LINE
  8
_1-2_
  6
CONTINUOUS
 62
    3
 10
219.28963326119089
 20
140.76392508841852
 11
219.76380219330659
 21
140.92336293813347
  0
LINE
  8
_1-2_
  6
CONTINUOUS
 62
    3
 10
274.53485437341641
 20
164.69192504882813
 11
276.43155484586151
 21
165.32970119167018
  0
LINE
  8
_1-2_
  6
CONTINUOUS
 62
    3
 10
278.18736308329818
 20
159.48455398147172
 11
276.43155484586151
 21
165.32970119167018
  0
LINE
  8
_1-0_
  6
CONTINUOUS
 62
    7
 10
322.68916774440459
 20
182.45289570576438
 11
324.16648246146536
 21
179.16997548696159
  0
LINE
  8
_1-0_
  6
CONTINUOUS
 62
    7
 10
324.16648246146536
 20
179.16997548696159
 11
319.78924725506761
 21
177.20023077887458
  0
LINE
  8
_1-2_
  6
CONTINUOUS
 62
    3
 10
323.77864528346709
 20
180.20835670264992
 11
325.59279983108109
 21
180.83602492873734
  0
LINE
  8
ADD_LINE
  6
DOT
 62
    7
 10
322.07269617029141
 20
185.43793549408784
 11
321.89496014569261
 21
186.01132779508023
  0
LINE
  8
_1-2_
  6
CONTINUOUS
 62
    3
 10
321.89496014569261
 20
186.01132779508023
 11
322.07269617029141
 21
185.43793549408784
  0
LINE
  8
_1-2_
  6
CONTINUOUS
 62
    3
 10
322.96125257337417
 20
182.57086264120568
 11
323.78129288956927
 21
180.2007108121305
  0
LINE
  8
_1-2_
  6
CONTINUOUS
 62
    3
 10
267.31772757865286
 20
162.47001441749367
 11
268.07412637246625
 21
162.73173151789484
  0
LINE
  8
_1-2_
  6
CONTINUOUS
 62
    3
 10
269.23640070734797
 20
163.98260168127112
 11
322.96125257337417
 21
182.57086264120568
  0
LINE
  8
_1-2_
  6
CONTINUOUS
 62
    3
 10
268.21162868190459
 20
162.28809665989232
 11
268.07412637246625
 21
162.73173151789484
  0
LINE
  8
_1-2_
  6
CONTINUOUS
 62
    3
 10
267.45908994932432
 20
162.01392096442146
 11
267.31772757865286
 21
162.47001441749367
  0
LINE
  8
_1-2_
  6
CONTINUOUS
 62
    3
 10
268.94080909522808
 20
162.32185982369089
 11
268.46807531408365
 21
162.1582773569468
  0
LINE
  8
_1-2_
  6
CONTINUOUS
 62
    3
 10
269.06645903716219
 20
162.5700667097762
 11
268.85947562552786
 21
163.23795627903294
  0
LINE
  8
_1-2_
  6
CONTINUOUS
 62
    3
 10
266.86065673828125
 20
161.60213161159206
 11
267.33344000739021
 21
161.76571407833615
  0
LINE
  8
_1-2_
  6
CONTINUOUS
 62
    3
 10
322.07269617029141
 20
185.43793549408784
 11
265.34060916385135
 21
165.80917770798143
  0
LINE
  8
_1-2_
  6
CONTINUOUS
 62
    3
 10
266.60423485008448
 20
161.73193854254646
 11
265.34060916385135
 21
165.80917770798143
  0
LINE
  8
_1-2_
  6
CONTINUOUS
 62
    3
 10
325.59279983108109
 20
180.83602492873734
 11
323.78604373416385
 21
186.66563291807432
  0
LINE
  8
_1-2_
  6
CONTINUOUS
 62
    7
 10
265.34060916385135
 20
165.80917770798143
 11
260.63217575485641
 21
179.41765037742823
  0
LINE
  8
_1-0_
  6
CONTINUOUS
 62
    7
 10
319.78924725506761
 20
177.20024315086573
 11
318.32908011771536
 21
180.44509475295609
  0
LINE
  8
_1-0_
  6
CONTINUOUS
 62
    7
 10
319.78924725506761
 20
177.20023077887458
 11
318.32905537373313
 21
180.44508238096495
  0
LINE
  8
_1-0_
  6
CONTINUOUS
 62
    7
 10
318.32908011771536
 20
180.44509475295609
 11
324.16648246146536
 21
179.16998785895271
  0
LINE
  8
_1-2_
  6
CONTINUOUS
 62
    7
 10
276.43155484586151
 20
165.32970119167018
 11
276.08748977248734
 21
166.35300095016893
  0
LINE
  8
_1-0_
  6
CONTINUOUS
 62
    7
 10
274.53485437341641
 20
164.69192504882813
 11
274.22904349662161
 21
165.71000382706927
  0
LINE
  8
_1-0_
  6
CONTINUOUS
 62
    7
 10
370.10907972181167
 20
203.79187094198693
 11
371.5863944388725
 21
200.50895072318414
  0
LINE
  8
_1-0_
  6
CONTINUOUS
 62
    7
 10
371.5863944388725
 20
200.50895072318414
 11
367.20915923247469
 21
198.53920601509714
  0
LINE
  8
_1-0_
  6
CONTINUOUS
 62
    7
 10
370.10907972181167
 20
203.79185856999578
 11
371.5863944388725
 21
200.508938351193
  0
LINE
  8
_1-0_
  6
CONTINUOUS
 62
    7
 10
371.5863944388725
 20
200.508938351193
 11
367.20915923247469
 21
198.53919364310602
  0
LINE
  8
_1-2_
  6
CONTINUOUS
 62
    3
 10
371.19855726087417
 20
201.54731956688136
 11
373.01271180848818
 21
202.17498779296875
  0
LINE
  8
ADD_LINE
  6
DOT
 62
    7
 10
369.49260814769849
 20
206.77689835831927
 11
369.31487212309969
 21
207.35029065931167
  0
LINE
  8
_1-2_
  6
CONTINUOUS
 62
    3
 10
369.31487212309969
 20
207.35029065931167
 11
369.49260814769849
 21
206.77689835831927
  0
LINE
  8
_1-2_
  6
CONTINUOUS
 62
    3
 10
370.38116455078125
 20
203.90982550543708
 11
371.20120486697635
 21
201.53967367636193
  0
LINE
  8
_1-2_
  6
CONTINUOUS
 62
    3
 10
314.73763955606
 20
183.80897728172511
 11
315.49403834987334
 21
184.07069438212628
  0
LINE
  8
_1-2_
  6
CONTINUOUS
 62
    3
 10
316.65631268475511
 20
185.32156454550255
 11
370.38116455078125
 21
203.90982550543708
  0
LINE
  8
_1-2_
  6
CONTINUOUS
 62
    3
 10
315.63154065931167
 20
183.62705952412375
 11
315.49403834987334
 21
184.07069438212628
  0
LINE
  8
_1-2_
  6
CONTINUOUS
 62
    3
 10
314.87900192673146
 20
183.35288382865289
 11
314.73763955606
 21
183.80897728172511
  0
LINE
  8
_1-2_
  6
CONTINUOUS
 62
    3
 10
316.36072107263516
 20
183.66082268792232
 11
315.88798729149073
 21
183.49724022117823
  0
LINE
  8
_1-2_
  6
CONTINUOUS
 62
    3
 10
316.48637101456927
 20
183.9090295740076
 11
316.279387602935
 21
184.57691914326438
  0
LINE
  8
_1-2_
  6
CONTINUOUS
 62
    3
 10
314.28056871568839
 20
182.94109447582349
 11
314.75335198479729
 21
183.10467694256758
  0
LINE
  8
_1-2_
  6
CONTINUOUS
 62
    3
 10
369.49260814769849
 20
206.77689835831927
 11
312.76052114125844
 21
187.14814057221284
  0
LINE
  8
_1-2_
  6
CONTINUOUS
 62
    3
 10
314.02414682749156
 20
183.07090140677789
 11
312.76052114125844
 21
187.14814057221284
  0
LINE
  8
_1-2_
  6
CONTINUOUS
 62
    3
 10
373.01271180848818
 20
202.17498779296875
 11
371.20595571157099
 21
208.00459578230576
  0
LINE
  8
_1-2_
  6
CONTINUOUS
 62
    7
 10
312.76052114125844
 20
187.14814057221284
 11
308.05208773226354
 21
200.75661324165964
  0
LINE
  8
_1-0_
  6
CONTINUOUS
 62
    7
 10
367.20915923247469
 20
198.53920601509714
 11
365.7489920951225
 21
201.7840576171875
  0
LINE
  8
_1-0_
  6
CONTINUOUS
 62
    7
 10
367.20915923247469
 20
198.53919364310602
 11
365.74896735114021
 21
201.78404524519638
  0
LINE
  8
_1-0_
  6
CONTINUOUS
 62
    7
 10
365.74896735114021
 20
201.78404524519638
 11
370.08050042229729
 21
203.77884323532518
  0
LINE
  8
_1-0_
  6
CONTINUOUS
 62
    7
 10
365.7489920951225
 20
201.7840576171875
 11
371.5863944388725
 21
200.50895072318414
  0
LINE
  8
_1-2_
  6
CONTINUOUS
 62
    3
 10
362.15757627744932
 20
205.14794014595651
 11
362.91395032728042
 21
205.40965724635771
  0
LINE
  8
_1-2_
  6
CONTINUOUS
 62
    3
 10
363.05147738070104
 20
204.96602238835516
 11
362.91395032728042
 21
205.40965724635771
  0
LINE
  8
_1-2_
  6
CONTINUOUS
 62
    3
 10
362.29891390413854
 20
204.6918466928843
 11
362.15757627744932
 21
205.14794014595651
  0
LINE
  8
_1-2_
  6
CONTINUOUS
 62
    3
 10
363.78068253800677
 20
204.99978555215372
 11
363.30792401288011
 21
204.83620308540964
  0
LINE
  8
_1-2_
  6
CONTINUOUS
 62
    3
 10
363.90630773595865
 20
205.24799243823904
 11
363.69932432432432
 21
205.91588200749578
  0
LINE
  8
_1-2_
  6
CONTINUOUS
 62
    3
 10
361.70050543707771
 20
204.28005734005492
 11
362.17326396220443
 21
204.44363980679898
  0
LINE
  8
_1-2_
  6
CONTINUOUS
 62
    3
 10
361.44405880489865
 20
204.4098642710093
 11
360.18043311866558
 21
208.48710343644427
  0
LINE
  8
_1-2_
  6
CONTINUOUS
 62
    7
 10
360.18043311866558
 20
208.48710343644427
 11
355.47204919763516
 21
222.09557610589107
  0
LINE
  8
_1-2_
  6
CONTINUOUS
 62
    7
 10
309.57611908783787
 20
196.35178849503802
 11
260.63217575485641
 21
179.41765037742823
  0
LINE
  8
_1-2_
  6
CONTINUOUS
 62
    7
 10
323.78604373416385
 20
186.66563291807432
 11
323.43910835884714
 21
187.6683333113387
  0
LINE
  8
_1-2_
  6
CONTINUOUS
 62
    3
 10
321.89496014569261
 20
186.01132779508023
 11
323.78606847814615
 21
186.66563291807432
  0
LINE
  8
ADD_LINE
  6
DOT
 62
    7
 10
325.59279983108109
 20
180.83602492873734
 11
323.78606847814615
 21
186.66563291807432
  0
LINE
  8
_1-2_
  6
CONTINUOUS
 62
    7
 10
321.89496014569261
 20
186.01132779508023
 11
321.5806868269637
 21
187.02534856023016
  0
LINE
  8
ADD_LINE
  6
DOT
 62
    7
 10
373.01271180848818
 20
202.17498779296875
 11
371.20598045555323
 21
208.00459578230576
  0
LINE
  8
_1-2_
  6
CONTINUOUS
 62
    3
 10
369.31487212309969
 20
207.35029065931167
 11
371.20598045555323
 21
208.00459578230576
  0
LINE
  8
_1-2_
  6
CONTINUOUS
 62
    7
 10
356.99605580922724
 20
217.69075135926943
 11
308.05208773226354
 21
200.75661324165964
  0
LINE
  8
_1-2_
  6
CONTINUOUS
 62
    7
 10
371.20595571157099
 20
208.00459578230576
 11
370.85902033625422
 21
209.0072961755701
  0
LINE
  8
_1-0_
  6
CONTINUOUS
 62
    7
 10
318.32905537373313
 20
180.44508238096495
 11
322.68914300042229
 21
182.45301942567568
  0
LINE
  8
ADD_LINE
  6
DOT
 62
    7
 10
266.60423485008448
 20
161.73193854254646
 11
266.76101272170609
 21
161.22602308118667
  0
LINE
  8
_1-3_
  6
CONTINUOUS
 62
    7
 10
298.86675035631339
 20
186.83397860140414
 11
288.72038145323057
 21
214.71085831925677
  0
LINE
  8
_1-3_
  6
CONTINUOUS
 62
    7
 10
288.72038145323057
 20
214.71085831925677
 11
287.44651175834036
 21
214.71085831925677
  0
LINE
  8
_1-0_
  6
CONTINUOUS
 62
    7
 10
124.06438466664908
 20
155.8612802866343
 11
125.54169938370988
 21
159.14420050543708
  0
LINE
  8
_1-0_
  6
CONTINUOUS
 62
    7
 10
125.54169938370988
 20
159.14420050543708
 11
121.16447654930322
 21
161.11394521352409
  0
LINE
  8
_1-0_
  6
CONTINUOUS
 62
    7
 10
121.16447654930322
 20
161.11394521352409
 11
119.68716183224241
 21
157.8310249947213
  0
LINE
  8
_1-0_
  6
CONTINUOUS
 62
    7
 10
119.68716183224241
 20
157.8310249947213
 11
124.06438466664908
 21
155.8612802866343
  0
LINE
  8
_1-0_
  6
CONTINUOUS
 62
    7
 10
125.54169938370988
 20
159.14420050543708
 11
119.68716183224241
 21
157.8310249947213
  0
LINE
  8
_1-0_
  6
CONTINUOUS
 62
    7
 10
73.74456457189612
 20
182.4529080777555
 11
72.267249854835313
 21
179.16998785895271
  0
LINE
  8
_1-0_
  6
CONTINUOUS
 62
    7
 10
72.267249854835313
 20
179.16998785895271
 11
76.644485061233127
 21
177.20024315086573
  0
LINE
  8
_1-0_
  6
CONTINUOUS
 62
    7
 10
26.32465259448901
 20
203.79187094198693
 11
24.847337877428203
 21
200.50895072318414
  0
LINE
  8
_1-0_
  6
CONTINUOUS
 62
    7
 10
24.847337877428203
 20
200.50895072318414
 11
29.224573083826016
 21
198.53920601509714
  0
LINE
  8
_1-2_
  6
CONTINUOUS
 62
    3
 10
120.06591796875
 20
158.87273427602409
 11
118.24636923300254
 21
159.48455398147172
  0
LINE
  8
ADD_LINE
  6
DOT
 62
    7
 10
121.72618969066724
 20
164.11699862093539
 11
121.8988779428843
 21
164.69192504882813
  0
LINE
  8
_1-2_
  6
CONTINUOUS
 62
    3
 10
121.8988779428843
 20
164.69192504882813
 11
121.72618969066724
 21
164.11699862093539
  0
LINE
  8
_1-2_
  6
CONTINUOUS
 62
    3
 10
120.86267419763514
 20
161.24229224952492
 11
120.0633445945946
 21
158.86507601351352
  0
LINE
  8
_1-2_
  6
CONTINUOUS
 62
    3
 10
176.67949367213893
 20
141.62777462521115
 11
175.92081843195737
 21
141.88288508234797
  0
LINE
  8
_1-2_
  6
CONTINUOUS
 62
    3
 10
174.74769386085305
 20
143.12356072503167
 11
120.86267419763514
 21
161.24229224952492
  0
LINE
  8
_1-2_
  6
CONTINUOUS
 62
    3
 10
175.78720092773437
 20
141.4380625131968
 11
175.92081843195737
 21
141.88288508234797
  0
LINE
  8
_1-2_
  6
CONTINUOUS
 62
    3
 10
176.54212745460305
 20
141.17046871700802
 11
176.67949367213893
 21
141.62777462521115
  0
LINE
  8
_1-2_
  6
CONTINUOUS
 62
    3
 10
175.05773595861487
 20
141.46546647355365
 11
175.53190489073057
 21
141.3060286238387
  0
LINE
  8
_1-2_
  6
CONTINUOUS
 62
    3
 10
174.92993329022383
 20
141.71257225242823
 11
175.13108949403505
 21
142.38224338840794
  0
LINE
  8
_1-2_
  6
CONTINUOUS
 62
    3
 10
177.14411142710094
 20
140.76392508841852
 11
176.66993012299409
 21
140.92336293813347
  0
LINE
  8
_1-2_
  6
CONTINUOUS
 62
    3
 10
121.8988779428843
 20
164.69192504882813
 11
120.00217747043919
 21
165.32970119167018
  0
LINE
  8
_1-2_
  6
CONTINUOUS
 62
    3
 10
118.24636923300254
 20
159.48455398147172
 11
120.00217747043919
 21
165.32970119167018
  0
LINE
  8
_1-0_
  6
CONTINUOUS
 62
    7
 10
73.74456457189612
 20
182.45289570576438
 11
72.267249854835313
 21
179.16997548696159
  0
LINE
  8
_1-0_
  6
CONTINUOUS
 62
    7
 10
72.267249854835313
 20
179.16997548696159
 11
76.644485061233127
 21
177.20023077887458
  0
LINE
  8
_1-2_
  6
CONTINUOUS
 62
    3
 10
72.65508703283362
 20
180.20835670264992
 11
70.840932485219582
 21
180.83602492873734
  0
LINE
  8
ADD_LINE
  6
DOT
 62
    7
 10
74.361036146009297
 20
185.43793549408784
 11
74.538772170608127
 21
186.01132779508023
  0
LINE
  8
_1-2_
  6
CONTINUOUS
 62
    3
 10
74.538772170608127
 20
186.01132779508023
 11
74.361036146009297
 21
185.43793549408784
  0
LINE
  8
_1-2_
  6
CONTINUOUS
 62
    3
 10
73.47247974292651
 20
182.57086264120568
 11
72.652439426731405
 21
180.2007108121305
  0
LINE
  8
_1-2_
  6
CONTINUOUS
 62
    3
 10
129.11600473764781
 20
162.47001441749367
 11
128.3596183158256
 21
162.73173151789484
  0
LINE
  8
_1-2_
  6
CONTINUOUS
 62
    3
 10
127.19731923696158
 20
163.98260168127112
 11
73.47247974292651
 21
182.57086264120568
  0
LINE
  8
_1-2_
  6
CONTINUOUS
 62
    3
 10
128.22210363439612
 20
162.28809665989232
 11
128.3596183158256
 21
162.73173151789484
  0
LINE
  8
_1-2_
  6
CONTINUOUS
 62
    3
 10
128.9746547389675
 20
162.01392096442146
 11
129.11600473764781
 21
162.47001441749367
  0
LINE
  8
_1-2_
  6
CONTINUOUS
 62
    3
 10
127.49291084908151
 20
162.32185982369089
 11
127.96565700221707
 21
162.1582773569468
  0
LINE
  8
_1-2_
  6
CONTINUOUS
 62
    3
 10
127.36727327913852
 20
162.5700667097762
 11
127.57425669077281
 21
163.23795627903294
  0
LINE
  8
_1-2_
  6
CONTINUOUS
 62
    3
 10
129.57307557801943
 20
161.60213161159206
 11
129.10030468090162
 21
161.76571407833615
  0
LINE
  8
_1-2_
  6
CONTINUOUS
 62
    3
 10
74.361036146009297
 20
185.43793549408784
 11
131.09313552444047
 21
165.80917770798143
  0
LINE
  8
_1-2_
  6
CONTINUOUS
 62
    3
 10
129.82950983820734
 20
161.73193854254646
 11
131.09313552444047
 21
165.80917770798143
  0
LINE
  8
_1-2_
  6
CONTINUOUS
 62
    3
 10
70.840932485219582
 20
180.83602492873734
 11
72.647688582136823
 21
186.66563291807432
  0
LINE
  8
_1-2_
  6
CONTINUOUS
 62
    7
 10
131.09313552444047
 20
165.80917770798143
 11
135.80154418945313
 21
179.41765037742823
  0
LINE
  8
_1-0_
  6
CONTINUOUS
 62
    7
 10
76.644485061233127
 20
177.20024315086573
 11
78.104652198585313
 21
180.44509475295609
  0
LINE
  8
_1-0_
  6
CONTINUOUS
 62
    7
 10
76.644485061233127
 20
177.20023077887458
 11
78.104676942567551
 21
180.44508238096495
  0
LINE
  8
_1-0_
  6
CONTINUOUS
 62
    7
 10
78.104652198585313
 20
180.44509475295609
 11
72.267249854835313
 21
179.16998785895271
  0
LINE
  8
_1-2_
  6
CONTINUOUS
 62
    7
 10
120.00217747043919
 20
165.32970119167018
 11
120.34624254381335
 21
166.35300095016893
  0
LINE
  8
_1-0_
  6
CONTINUOUS
 62
    7
 10
121.8988779428843
 20
164.69192504882813
 11
122.20468881967906
 21
165.71000382706927
  0
LINE
  8
_1-0_
  6
CONTINUOUS
 62
    7
 10
26.32465259448901
 20
203.79187094198693
 11
24.847337877428203
 21
200.50895072318414
  0
LINE
  8
_1-0_
  6
CONTINUOUS
 62
    7
 10
24.847337877428203
 20
200.50895072318414
 11
29.224573083826016
 21
198.53920601509714
  0
LINE
  8
_1-0_
  6
CONTINUOUS
 62
    7
 10
26.32465259448901
 20
203.79185856999578
 11
24.847337877428203
 21
200.508938351193
  0
LINE
  8
_1-0_
  6
CONTINUOUS
 62
    7
 10
24.847337877428203
 20
200.508938351193
 11
29.224573083826016
 21
198.53919364310602
  0
LINE
  8
_1-2_
  6
CONTINUOUS
 62
    3
 10
25.23517505542651
 20
201.54731956688136
 11
23.4210205078125
 21
202.17498779296875
  0
LINE
  8
ADD_LINE
  6
DOT
 62
    7
 10
26.941124168602187
 20
206.77689835831927
 11
27.118860193201016
 21
207.35029065931167
  0
LINE
  8
_1-2_
  6
CONTINUOUS
 62
    3
 10
27.118860193201016
 20
207.35029065931167
 11
26.941124168602187
 21
206.77689835831927
  0
LINE
  8
_1-2_
  6
CONTINUOUS
 62
    3
 10
26.052567765519427
 20
203.90982550543708
 11
25.232527449324323
 21
201.53967367636193
  0
LINE
  8
_1-2_
  6
CONTINUOUS
 62
    3
 10
81.696092760240731
 20
183.80897728172511
 11
80.93969396642737
 21
184.07069438212628
  0
LINE
  8
_1-2_
  6
CONTINUOUS
 62
    3
 10
79.777419631545627
 20
185.32156454550255
 11
26.052567765519427
 21
203.90982550543708
  0
LINE
  8
_1-2_
  6
CONTINUOUS
 62
    3
 10
80.80219165698901
 20
183.62705952412375
 11
80.93969396642737
 21
184.07069438212628
  0
LINE
  8
_1-2_
  6
CONTINUOUS
 62
    3
 10
81.554730389569272
 20
183.35288382865289
 11
81.696092760240731
 21
183.80897728172511
  0
LINE
  8
_1-2_
  6
CONTINUOUS
 62
    3
 10
80.073011243665547
 20
183.66082268792232
 11
80.545745024809975
 21
183.49724022117823
  0
LINE
  8
_1-2_
  6
CONTINUOUS
 62
    3
 10
79.947361301731405
 20
183.9090295740076
 11
80.154344713365731
 21
184.57691914326438
  0
LINE
  8
_1-2_
  6
CONTINUOUS
 62
    3
 10
82.153163600612331
 20
182.94109447582349
 11
81.680380331503386
 21
183.10467694256758
  0
LINE
  8
_1-2_
  6
CONTINUOUS
 62
    3
 10
26.941124168602187
 20
206.77689835831927
 11
83.67321117504224
 21
187.14814057221284
  0
LINE
  8
_1-2_
  6
CONTINUOUS
 62
    3
 10
82.409585488809128
 20
183.07090140677789
 11
83.67321117504224
 21
187.14814057221284
  0
LINE
  8
_1-2_
  6
CONTINUOUS
 62
    3
 10
23.4210205078125
 20
202.17498779296875
 11
25.22777660472974
 21
208.00459578230576
  0
LINE
  8
_1-2_
  6
CONTINUOUS
 62
    7
 10
83.67321117504224
 20
187.14814057221284
 11
88.381644584037161
 21
200.75661324165964
  0
LINE
  8
_1-0_
  6
CONTINUOUS
 62
    7
 10
29.224573083826016
 20
198.53920601509714
 11
30.684740221178203
 21
201.7840576171875
  0
LINE
  8
_1-0_
  6
CONTINUOUS
 62
    7
 10
29.224573083826016
 20
198.53919364310602
 11
30.684764965160468
 21
201.78404524519638
  0
LINE
  8
_1-0_
  6
CONTINUOUS
 62
    7
 10
30.684764965160468
 20
201.78404524519638
 11
26.353231894003386
 21
203.77884323532518
  0
LINE
  8
_1-0_
  6
CONTINUOUS
 62
    7
 10
30.684740221178203
 20
201.7840576171875
 11
24.847337877428203
 21
200.50895072318414
  0
LINE
  8
_1-2_
  6
CONTINUOUS
 62
    3
 10
34.276156038851354
 20
205.14794014595651
 11
33.51978198902026
 21
205.40965724635771
  0
LINE
  8
_1-2_
  6
CONTINUOUS
 62
    3
 10
33.382254935599661
 20
204.96602238835516
 11
33.51978198902026
 21
205.40965724635771
  0
LINE
  8
_1-2_
  6
CONTINUOUS
 62
    3
 10
34.134818412162161
 20
204.6918466928843
 11
34.276156038851354
 21
205.14794014595651
  0
LINE
  8
_1-2_
  6
CONTINUOUS
 62
    3
 10
32.653049778293905
 20
204.99978555215372
 11
33.125808303420627
 21
204.83620308540964
  0
LINE
  8
_1-2_
  6
CONTINUOUS
 62
    3
 10
32.527424580342057
 20
205.24799243823904
 11
32.734407991976354
 21
205.91588200749578
  0
LINE
  8
_1-2_
  6
CONTINUOUS
 62
    3
 10
34.733226879222968
 20
204.28005734005492
 11
34.260468354096275
 21
204.44363980679898
  0
LINE
  8
_1-2_
  6
CONTINUOUS
 62
    3
 10
34.989673511402032
 20
204.4098642710093
 11
36.25329919763513
 21
208.48710343644427
  0
LINE
  8
_1-2_
  6
CONTINUOUS
 62
    7
 10
36.25329919763513
 20
208.48710343644427
 11
40.961683118665547
 21
222.09557610589107
  0
LINE
  8
_1-2_
  6
CONTINUOUS
 62
    7
 10
86.857613228462839
 20
196.35178849503802
 11
135.80154418945313
 21
179.41765037742823
  0
LINE
  8
_1-2_
  6
CONTINUOUS
 62
    7
 10
72.647688582136823
 20
186.66563291807432
 11
72.994623957453541
 21
187.6683333113387
  0
LINE
  8
_1-2_
  6
CONTINUOUS
 62
    3
 10
74.538772170608127
 20
186.01132779508023
 11
72.647663838154585
 21
186.66563291807432
  0
LINE
  8
ADD_LINE
  6
DOT
 62
    7
 10
70.840932485219582
 20
180.83602492873734
 11
72.647663838154585
 21
186.66563291807432
  0
LINE
  8
_1-2_
  6
CONTINUOUS
 62
    7
 10
74.538772170608127
 20
186.01132779508023
 11
74.853045489336978
 21
187.02534856023016
  0
LINE
  8
ADD_LINE
  6
DOT
 62
    7
 10
23.4210205078125
 20
202.17498779296875
 11
25.227751860747475
 21
208.00459578230576
  0
LINE
  8
_1-2_
  6
CONTINUOUS
 62
    3
 10
27.118860193201016
 20
207.35029065931167
 11
25.227751860747475
 21
208.00459578230576
  0
LINE
  8
_1-2_
  6
CONTINUOUS
 62
    7
 10
39.43767650707349
 20
217.69075135926943
 11
88.381644584037161
 21
200.75661324165964
  0
LINE
  8
_1-2_
  6
CONTINUOUS
 62
    7
 10
25.22777660472974
 20
208.00459578230576
 11
25.574711980046459
 21
209.0072961755701
  0
LINE
  8
_1-0_
  6
CONTINUOUS
 62
    7
 10
78.104676942567551
 20
180.44508238096495
 11
73.744589315878386
 21
182.45301942567568
  0
LINE
  8
_1-2_
  6
CONTINUOUS
 62
    3
 10
364.07627415012672
 20
206.66052740973396
 11
375.40540540540542
 21
210.58029587204393
  0
LINE
  8
_1-2_
  6
CONTINUOUS
 62
    3
 10
375.40540540540542
 20
213.75480033255914
 11
360.18043311866558
 21
208.48710343644427
  0
LINE
  8
_1-2_
  6
CONTINUOUS
 62
    7
 10
375.40540540540542
 20
228.99234256228885
 11
355.47204919763516
 21
222.09557610589107
  0
LINE
  8
_1-2_
  6
CONTINUOUS
 62
    3
 10
17.027027027027032
 20
215.13920139622044
 11
36.25329919763513
 21
208.48710343644427
  0
LINE
  8
_1-2_
  6
CONTINUOUS
 62
    7
 10
17.027027027027032
 20
230.37674362595018
 11
40.961683118665547
 21
222.09557610589107
  0
LINE
  8
_1-0_
  6
CONTINUOUS
 62
    7
 10
198.21686615815034
 20
120.73812536291175
 11
375.40540540540542
 21
200.472972972973
  0
LINE
  8
_1-0_
  6
CONTINUOUS
 62
    7
 10
198.21686615815034
 20
120.73812536291175
 11
17.027027027027032
 21
202.27354307432432
  0
LINE
  8
_1-0_
  6
CONTINUOUS
 62
    7
 10
197.82883102829393
 20
122.66728994008658
 11
17.027027027027032
 21
204.02808936866555
  0
LINE
  8
_1-2_
  6
CONTINUOUS
 62
    7
 10
197.82883102829393
 20
122.66728994008658
 11
197.58261603278083
 21
122.1201262602935
  0
LINE
  8
_1-0_
  6
CONTINUOUS
 62
    7
 10
198.8267063450169
 20
122.10915230415964
 11
375.40540540540542
 21
201.56956440693625
  0
LINE
  8
_1-2_
  6
CONTINUOUS
 62
    7
 10
198.5804913495038
 20
122.65630361196158
 11
198.8267063450169
 21
122.10915230415964
  0
LINE
  8
_1-0_
  6
CONTINUOUS
 62
    7
 10
198.5804913495038
 20
122.65630361196158
 11
375.40540540540542
 21
202.22750689532307
  0
LINE
  8
_1-2_
  6
CONTINUOUS
 62
    3
 10
198.21686615815034
 20
123.79408140440246
 11
229.22218941353464
 21
137.74647068332982
  0
LINE
  8
_1-2_
  6
CONTINUOUS
 62
    7
 10
227.36968169341216
 20
143.75491580447635
 11
235.13741158150339
 21
145.98814680769638
  0
LINE
  8
_1-2_
  6
CONTINUOUS
 62
    7
 10
227.36968169341216
 20
143.75491580447635
 11
230.41712580500425
 21
136.98279715873102
  0
LINE
  8
_1-2_
  6
CONTINUOUS
 62
    7
 10
235.13741158150339
 20
145.98814680769638
 11
237.71249307168497
 21
140.26570500554266
  0
LINE
  8
_1-2_
  6
CONTINUOUS
 62
    7
 10
227.36968169341216
 20
143.75491580447635
 11
237.71249307168497
 21
140.26570500554266
  0
LINE
  8
_1-2_
  6
CONTINUOUS
 62
    3
 10
229.22218941353464
 20
137.74647068332982
 11
226.51930525496201
 21
143.75289916992187
  0
LINE
  8
_1-2_
  6
CONTINUOUS
 62
    3
 10
226.51930525496201
 20
143.75289916992187
 11
234.75600783889359
 21
146.1417698215794
  0
LINE
  8
_1-2_
  6
CONTINUOUS
 62
    3
 10
234.75600783889359
 20
146.1417698215794
 11
230.88953791437925
 21
145.83651568438557
  0
LINE
  8
_1-2_
  6
CONTINUOUS
 62
    3
 10
176.67950604413008
 20
141.62777462521115
 11
175.92080605996622
 21
141.88288508234797
  0
LINE
  8
_1-2_
  6
CONTINUOUS
 62
    3
 10
175.78718855574326
 20
141.4380625131968
 11
175.92080605996622
 21
141.88288508234797
  0
LINE
  8
_1-2_
  6
CONTINUOUS
 62
    3
 10
176.54212745460305
 20
141.17046871700802
 11
176.67950604413008
 21
141.62777462521115
  0
LINE
  8
_1-2_
  6
CONTINUOUS
 62
    3
 10
175.05773595861487
 20
141.46546647355365
 11
175.53190489073057
 21
141.3060286238387
  0
LINE
  8
_1-2_
  6
CONTINUOUS
 62
    3
 10
174.92993329022383
 20
141.71257225242823
 11
175.13107712204393
 21
142.38224338840794
  0
LINE
  8
_1-2_
  6
CONTINUOUS
 62
    3
 10
177.14409905510982
 20
140.76392508841852
 11
176.66993012299409
 21
140.92336293813347
  0
LINE
  8
_1-2_
  6
CONTINUOUS
 62
    3
 10
198.21686615815034
 20
123.79408140440246
 11
167.21154290276607
 21
137.74647068332982
  0
LINE
  8
_1-2_
  6
CONTINUOUS
 62
    7
 10
169.06405062288852
 20
143.75491580447635
 11
161.29632073479732
 21
145.98814680769638
  0
LINE
  8
_1-2_
  6
CONTINUOUS
 62
    7
 10
169.06405062288852
 20
143.75491580447635
 11
166.01660651129646
 21
136.98279715873102
  0
LINE
  8
_1-2_
  6
CONTINUOUS
 62
    7
 10
161.29632073479732
 20
145.98814680769638
 11
158.72123924461573
 21
140.26570500554266
  0
LINE
  8
_1-2_
  6
CONTINUOUS
 62
    7
 10
169.06405062288852
 20
143.75491580447635
 11
158.72123924461573
 21
140.26570500554266
  0
LINE
  8
_1-2_
  6
CONTINUOUS
 62
    3
 10
169.9144270613387
 20
143.75289916992187
 11
161.67772447740711
 21
146.1417698215794
  0
LINE
  8
_1-2_
  6
CONTINUOUS
 62
    3
 10
161.67772447740711
 20
146.1417698215794
 11
165.54419440192146
 21
145.83651568438557
  0
LINE
  8
_1-3_
  6
CONTINUOUS
 62
    7
 10
232.82798148490289
 20
129.7336145349451
 11
230.36578204180745
 21
135.20513998495568
  0
LINE
  8
_1-3_
  6
CONTINUOUS
 62
    7
 10
230.36578204180745
 20
135.20513998495568
 11
241.30883294182857
 21
140.12953887114654
  0
LINE
  8
_1-3_
  6
CONTINUOUS
 62
    7
 10
243.77103238492401
 20
134.65801342113599
 11
232.82798148490289
 21
129.7336145349451
  0
LINE
  8
_1-3_
  6
CONTINUOUS
 62
    7
 10
230.36580678578972
 20
135.20513998495568
 11
243.77103238492401
 21
134.65801342113599
  0
LINE
  8
_1-3_
  6
CONTINUOUS
 62
    7
 10
152.66268755938557
 20
134.65797630516261
 11
155.12487463048987
 21
140.12950175517315
  0
LINE
  8
_1-3_
  6
CONTINUOUS
 62
    7
 10
155.12487463048987
 20
140.12950175517315
 11
166.06793790250211
 21
135.20513998495568
  0
LINE
  8
_1-3_
  6
CONTINUOUS
 62
    7
 10
166.06793790250211
 20
135.20513998495568
 11
163.60575083139781
 21
129.7336145349451
  0
LINE
  8
_1-3_
  6
CONTINUOUS
 62
    7
 10
163.60575083139781
 20
129.7336145349451
 11
152.66268755938557
 21
134.65797630516261
  0
LINE
  8
_1-3_
  6
CONTINUOUS
 62
    7
 10
152.66268755938557
 20
134.65798867715372
 11
166.06793790250211
 21
135.20513998495568
  0
LINE
  8
_1-2_
  6
CONTINUOUS
 62
    7
 10
134.16743922877956
 20
175.12590562975086
 11
179.32243553367823
 21
159.94261458113388
  0
LINE
  8
_1-1_
  6
CONTINUOUS
 62
    7
 10
177.14411142710094
 20
140.76391271642737
 11
179.32243553367823
 21
159.94261458113388
  0
LINE
  8
_1-2_
  6
CONTINUOUS
 62
    3
 10
121.72618969066724
 20
164.11699862093539
 11
177.66035750105576
 21
145.30923379434122
  0
LINE
  8
_1-2_
  6
CONTINUOUS
 62
    7
 10
262.26629308752115
 20
175.12590562975086
 11
217.34779976509714
 21
160.0221417401288
  0
LINE
  8
_1-1_
  6
CONTINUOUS
 62
    7
 10
219.28963326119089
 20
140.76391271642737
 11
218.14725308804901
 21
152.09351410736909
  0
LINE
  8
_1-1_
  6
CONTINUOUS
 62
    7
 10
218.14725308804901
 20
152.09351410736909
 11
217.34779976509714
 21
160.0221417401288
  0
LINE
  8
_1-2_
  6
CONTINUOUS
 62
    3
 10
274.70754262563344
 20
164.11699862093539
 11
218.8294199350718
 21
145.32808870882602
  0
LINE
  8
_1-1_
  6
CONTINUOUS
 62
    7
 10
198.21686615815034
 20
109.77227288323481
 11
15.385559185131171
 21
192.04633558118667
  0
LINE
  8
_1-1_
  6
CONTINUOUS
 62
    7
 10
198.21687853014149
 20
83.454226932010144
 11
15.385560731630079
 21
165.72828962996201
  0
LINE
  8
_1-1_
  6
CONTINUOUS
 62
    7
 10
67.950779682881148
 20
142.0739457413957
 11
86.101152574693842
 21
160.22432481920399
  0
LINE
  8
_1-1_
  6
CONTINUOUS
 62
    7
 10
66.390269511454818
 20
142.77617995803422
 11
84.540642403267526
 21
160.9265590358425
  0
LINE
  8
_1-1_
  6
CONTINUOUS
 62
    7
 10
64.829759340028488
 20
143.47841417467274
 11
82.980138417836784
 21
161.62878088048987
  0
LINE
  8
_1-1_
  6
CONTINUOUS
 62
    7
 10
133.5889125514675
 20
112.53680667361698
 11
151.73927925728464
 21
130.68717337943414
  0
LINE
  8
_1-1_
  6
CONTINUOUS
 62
    7
 10
135.14941653689823
 20
111.83457245697846
 11
153.29979561470651
 21
129.98495153478675
  0
LINE
  8
_1-1_
  6
CONTINUOUS
 62
    7
 10
136.7099328943201
 20
111.13235061233108
 11
154.86029960013727
 21
129.28271731814823
  0
LINE
  8
_1-1_
  6
CONTINUOUS
 62
    7
 10
255.33528095967063
 20
135.47555459512247
 11
273.48563529349661
 21
117.32517551731419
  0
LINE
  8
_1-1_
  6
CONTINUOUS
 62
    7
 10
253.7747522302576
 20
134.77332037848396
 11
271.92515605204818
 21
116.62294130067568
  0
LINE
  8
_1-1_
  6
CONTINUOUS
 62
    7
 10
252.21422350084461
 20
134.07108616184544
 11
270.36462732263516
 21
115.92070708403718
  0
LINE
  8
_1-1_
  6
CONTINUOUS
 62
    7
 10
343.68567389410896
 20
175.23324502480997
 11
361.83605297191724
 21
157.08285357501057
  0
LINE
  8
_1-1_
  6
CONTINUOUS
 62
    7
 10
342.12516990867823
 20
174.53101080817146
 11
360.27557373046875
 21
156.38063173036318
  0
LINE
  8
_1-1_
  6
CONTINUOUS
 62
    7
 10
340.5646659232475
 20
173.82877659153294
 11
358.71504500105578
 21
155.67839751372466
  0
LINE
  8
_1-1_
  6
CONTINUOUS
 62
    7
 10
198.21686615815034
 20
109.77227288323481
 11
375.40540540540542
 21
189.50712049329604
  0
LINE
  8
_1-1_
  6
CONTINUOUS
 62
    7
 10
198.21687853014149
 20
83.454226932010144
 11
375.40540540540542
 21
163.18906217008023
  0
LINE
  8
_1-1_
  6
CONTINUOUS
 62
    3
 10
169.9144270613387
 20
143.75289916992187
 11
167.21154290276607
 21
137.74647068332982
  0
LINE
  8
_1-3_
  6
CONTINUOUS
 62
    7
 10
241.30883294182857
 20
140.12953887114654
 11
243.77103238492401
 21
134.65801342113599
  0
LINE
  8
_1-1_
  6
CONTINUOUS
 62
    5
 10
137.02703939901818
 20
20.135134104135886
 11
214.86486486486487
 21
20.135134104135886
  0
LINE
  8
_1-2_
  6
CONTINUOUS
 62
    3
 10
32.357458166173984
 20
206.66052740973396
 11
17.027027027027032
 21
211.96469693570523
  0
LINE
  8
_1-0_
  6
DASHED1
 62
    7
 10
198.21686615815034
 20
121.236852697424
 11
17.027027027027032
 21
202.77225803684544
  0
LINE
  8
_1-0_
  6
DASHED1
 62
    7
 10
198.21686615815034
 20
121.236852697424
 11
243.81294869087839
 21
141.75508241395693
  0
LINE
  8
_1-0_
  6
DASHED1
 62
    7
 10
198.21686615815034
 20
120.98749521616344
 11
375.31209584828974
 21
200.68033991633237
  0
LINE
  8
_1-0_
  6
DASHED1
 62
    7
 10
198.21686615815034
 20
120.98749521616344
 11
152.62078362542232
 21
141.50571256070523
  0
LINE
  8
_1-0_
  6
DASHED1
 62
    6
 10
198.21686615815034
 20
120.73812536291175
 11
152.62078362542232
 21
141.25635507944469
  0
LINE
  8
_1-0_
  6
DASHED1
 62
    6
 10
198.21686615815034
 20
120.73812536291175
 11
243.81294869087839
 21
141.25635507944469
  0
LINE
  8
_1-0_
  6
CONTINUOUS
 62
    7
 10
129.17918849635768
 20
89.16387609533362
 11
149.27032470703125
 21
133.81087844436234
  0
LINE
  8
_1-0_
  6
CONTINUOUS
 62
    7
 10
174.77525865709461
 20
68.645646378800677
 11
194.8664072397593
 21
113.2926487278294
  0
LINE
  8
_1-0_
  6
CONTINUOUS
 62
    7
 10
129.17918849635768
 20
89.16387609533362
 11
174.77525865709461
 21
68.645646378800677
  0
LINE
  8
_1-0_
  6
CONTINUOUS
 62
    7
 10
218.12797752586573
 20
76.491202277106211
 11
200.77623521959461
 21
115.05063443570525
  0
LINE
  8
_1-0_
  6
CONTINUOUS
 62
    7
 10
263.72406005859375
 20
97.009438179634714
 11
246.37231775232266
 21
135.56887652422932
  0
LINE
  8
_1-0_
  6
CONTINUOUS
 62
    7
 10
218.12797752586573
 20
76.491202277106211
 11
263.72406005859375
 21
97.009438179634714
  0
ARC
  8
_1-2_
  6
CONTINUOUS
 62
    3
 10
221.87725995038008
 20
142.55485740867823
 40
0.599999959404404
 50
108.58587646484376
 51
196.71983337402344
  0
ARC
  8
_1-2_
  6
CONTINUOUS
 62
    3
 10
220.83806218327703
 20
141.49559227195948
 40
0.1999999904954755
 50
196.71755981445312
 51
288.5885009765625
  0
ARC
  8
_1-2_
  6
CONTINUOUS
 62
    3
 10
219.70006169499578
 20
141.11293895824537
 40
0.1999999904954755
 50
288.58401489257812
 51
16.717575073242227
  0
ARC
  8
_1-2_
  6
CONTINUOUS
 62
    3
 10
221.312255859375
 20
141.65503012167443
 40
0.1999999904954755
 50
288.5885009765625
 51
16.719955444335923
  0
ARC
  8
_1-2_
  6
CONTINUOUS
 62
    3
 10
269.43257099873313
 20
163.41558095571159
 40
0.599999959404404
 50
109.08587646484375
 51
197.21983337402344
  0
ARC
  8
_1-2_
  6
CONTINUOUS
 62
    3
 10
268.40267696896115
 20
162.34728426546664
 40
0.1999999904954755
 50
197.21755981445312
 51
289.0885009765625
  0
ARC
  8
_1-2_
  6
CONTINUOUS
 62
    3
 10
267.26801691828547
 20
161.95470861486487
 40
0.1999999904954755
 50
289.08401489257812
 51
17.217575073242223
  0
ARC
  8
_1-2_
  6
CONTINUOUS
 62
    3
 10
268.87541075010557
 20
162.51085436021961
 40
0.1999999904954755
 50
289.0885009765625
 51
17.219955444335916
  0
ARC
  8
_1-2_
  6
CONTINUOUS
 62
    3
 10
266.7952583931588
 20
161.79115089210305
 40
0.1999999904954755
 50
197.216552734375
 51
289.08514404296875
  0
ARC
  8
_1-2_
  6
CONTINUOUS
 62
    3
 10
316.85248297614021
 20
184.754543819943
 40
0.599999959404404
 50
109.08587646484375
 51
197.21983337402344
  0
ARC
  8
_1-2_
  6
CONTINUOUS
 62
    3
 10
315.82258894636828
 20
183.68624712969807
 40
0.1999999904954755
 50
197.21755981445312
 51
289.0885009765625
  0
ARC
  8
_1-2_
  6
CONTINUOUS
 62
    3
 10
314.68792889569261
 20
183.2936714790963
 40
0.1999999904954755
 50
289.08401489257812
 51
17.217575073242223
  0
ARC
  8
_1-2_
  6
CONTINUOUS
 62
    3
 10
316.29532272751271
 20
183.84981722445102
 40
0.1999999904954755
 50
289.0885009765625
 51
17.219955444335916
  0
ARC
  8
_1-2_
  6
CONTINUOUS
 62
    3
 10
314.21517037056589
 20
183.13011375633448
 40
0.1999999904954755
 50
197.216552734375
 51
289.08514404296875
  0
ARC
  8
_1-2_
  6
CONTINUOUS
 62
    3
 10
364.27244444151182
 20
206.09350668417443
 40
0.599999959404404
 50
109.08587646484375
 51
197.21983337402344
  0
ARC
  8
_1-2_
  6
CONTINUOUS
 62
    3
 10
363.2425504117399
 20
205.02520999392948
 40
0.1999999904954755
 50
197.21755981445312
 51
289.0885009765625
  0
ARC
  8
_1-2_
  6
CONTINUOUS
 62
    3
 10
362.10786561708193
 20
204.63263434332771
 40
0.1999999904954755
 50
289.08401489257812
 51
17.217575073242223
  0
ARC
  8
_1-2_
  6
CONTINUOUS
 62
    3
 10
363.71525944890203
 20
205.18878008868245
 40
0.1999999904954755
 50
289.0885009765625
 51
17.219955444335916
  0
ARC
  8
_1-2_
  6
CONTINUOUS
 62
    3
 10
361.63510709195526
 20
204.46907662056589
 40
0.1999999904954755
 50
197.216552734375
 51
289.08514404296875
  0
ARC
  8
_1-2_
  6
CONTINUOUS
 62
    3
 10
174.55645999392948
 20
142.55485740867823
 40
0.599999959404404
 50
343.28016662597656
 51
71.414108276367131
  0
ARC
  8
_1-2_
  6
CONTINUOUS
 62
    3
 10
175.59565776103253
 20
141.49559227195948
 40
0.1999999904954755
 50
251.41149902343753
 51
343.28242492675787
  0
ARC
  8
_1-2_
  6
CONTINUOUS
 62
    3
 10
176.7336706213049
 20
141.11293895824537
 40
0.1999999904954755
 50
163.28242492675778
 51
251.41598510742185
  0
ARC
  8
_1-2_
  6
CONTINUOUS
 62
    3
 10
175.12148882891682
 20
141.65503012167443
 40
0.1999999904954755
 50
163.28004455566406
 51
251.41149902343753
  0
ARC
  8
_1-2_
  6
CONTINUOUS
 62
    3
 10
127.00114894557645
 20
163.41558095571159
 40
0.599999959404404
 50
342.77923583984375
 51
70.913177490234318
  0
ARC
  8
_1-2_
  6
CONTINUOUS
 62
    3
 10
128.03104297534841
 20
162.34728426546664
 40
0.1999999904954755
 50
250.90820312500003
 51
342.77912902832037
  0
ARC
  8
_1-2_
  6
CONTINUOUS
 62
    3
 10
129.16571539801521
 20
161.95470861486487
 40
0.1999999904954755
 50
162.77912902832031
 51
250.91268920898437
  0
ARC
  8
_1-2_
  6
CONTINUOUS
 62
    3
 10
127.5583215661951
 20
162.51085436021961
 40
0.1999999904954755
 50
162.77674865722659
 51
250.90820312500003
  0
ARC
  8
_1-2_
  6
CONTINUOUS
 62
    3
 10
129.6384739231419
 20
161.79115089210305
 40
0.1999999904954755
 50
250.91156005859378
 51
342.7801513671875
  0
ARC
  8
_1-2_
  6
CONTINUOUS
 62
    3
 10
79.581249340160468
 20
184.754543819943
 40
0.599999959404404
 50
342.77923583984375
 51
70.913177490234318
  0
ARC
  8
_1-2_
  6
CONTINUOUS
 62
    3
 10
80.611143369932449
 20
183.68624712969807
 40
0.1999999904954755
 50
250.90820312500003
 51
342.77912902832037
  0
ARC
  8
_1-2_
  6
CONTINUOUS
 62
    3
 10
81.745803420608127
 20
183.2936714790963
 40
0.1999999904954755
 50
162.77912902832031
 51
250.91268920898437
  0
ARC
  8
_1-2_
  6
CONTINUOUS
 62
    3
 10
80.138409588788022
 20
183.84981722445102
 40
0.1999999904954755
 50
162.77674865722659
 51
250.90820312500003
  0
ARC
  8
_1-2_
  6
CONTINUOUS
 62
    3
 10
82.218561945734805
 20
183.13011375633448
 40
0.1999999904954755
 50
250.91156005859378
 51
342.7801513671875
  0
ARC
  8
_1-2_
  6
CONTINUOUS
 62
    3
 10
32.161287874788854
 20
206.09350668417443
 40
0.599999959404404
 50
342.77923583984375
 51
70.913177490234318
  0
ARC
  8
_1-2_
  6
CONTINUOUS
 62
    3
 10
33.191181904560807
 20
205.02520999392948
 40
0.1999999904954755
 50
250.90820312500003
 51
342.77912902832037
  0
ARC
  8
_1-2_
  6
CONTINUOUS
 62
    3
 10
34.32586669921875
 20
204.63263434332771
 40
0.1999999904954755
 50
162.77912902832031
 51
250.91268920898437
  0
ARC
  8
_1-2_
  6
CONTINUOUS
 62
    3
 10
32.718472867398646
 20
205.18878008868245
 40
0.1999999904954755
 50
162.77674865722659
 51
250.90820312500003
  0
ARC
  8
_1-2_
  6
CONTINUOUS
 62
    3
 10
34.798625224345443
 20
204.46907662056589
 40
0.1999999904954755
 50
250.91156005859378
 51
342.7801513671875
  0
ARC
  8
_1-2_
  6
CONTINUOUS
 62
    3
 10
174.55647236592063
 20
142.55485740867823
 40
0.599999959404404
 50
343.28016662597656
 51
71.414108276367131
  0
ARC
  8
_1-2_
  6
CONTINUOUS
 62
    3
 10
175.59567013302365
 20
141.49559227195948
 40
0.1999999904954755
 50
251.41149902343753
 51
343.28242492675787
  0
ARC
  8
_1-2_
  6
CONTINUOUS
 62
    3
 10
176.7336706213049
 20
141.11293895824537
 40
0.1999999904954755
 50
163.28242492675778
 51
251.41598510742185
  0
ARC
  8
_1-2_
  6
CONTINUOUS
 62
    3
 10
175.12147645692568
 20
141.65503012167443
 40
0.1999999904954755
 50
163.28004455566406
 51
251.41149902343753
  0
CIRCLE
  8
_1-1_
  6
CONTINUOUS
 62
    7
 10
17.715747936351875
 20
198.44986786713471
 40
0.1627875663138724
  0
CIRCLE
  8
_1-1_
  6
CONTINUOUS
 62
    7
 10
20.23896603970914
 20
198.20569425015836
 40
0.1627875663138724
  0
CIRCLE
  8
_1-1_
  6
CONTINUOUS
 62
    7
 10
20.564542718835781
 20
196.41502174171242
 40
0.1627875663138724
  0
CIRCLE
  8
_1-1_
  6
CONTINUOUS
 62
    7
 10
19.831995577425573
 20
196.57781240102409
 40
0.1627875663138724
  0
CIRCLE
  8
_1-1_
  6
CONTINUOUS
 62
    7
 10
20.401753606023021
 20
197.31035799593539
 40
0.1627875663138724
  0
CIRCLE
  8
_1-1_
  6
CONTINUOUS
 62
    7
 10
21.459877426559871
 20
197.06617200696792
 40
0.1627875663138724
  0
CIRCLE
  8
_1-1_
  6
CONTINUOUS
 62
    7
 10
18.285507511448202
 20
196.74059068834461
 40
0.1627875663138724
  0
CIRCLE
  8
_1-1_
  6
CONTINUOUS
 62
    7
 10
18.611082644075964
 20
198.04290359084672
 40
0.1627875663138724
  0
CIRCLE
  8
_1-1_
  6
CONTINUOUS
 62
    7
 10
17.797141719508829
 20
199.91497142894849
 40
0.1627875663138724
  0
CIRCLE
  8
_1-1_
  6
CONTINUOUS
 62
    7
 10
19.587812681455887
 20
199.58939011032518
 40
0.1627875663138724
  0
CIRCLE
  8
_1-1_
  6
CONTINUOUS
 62
    7
 10
21.785454105686483
 20
198.61265852644638
 40
0.1627875663138724
  0
CIRCLE
  8
_1-1_
  6
CONTINUOUS
 62
    7
 10
23.901701746760182
 20
197.47314865524706
 40
0.1627875663138724
  0
CIRCLE
  8
_1-1_
  6
CONTINUOUS
 62
    7
 10
23.331943718162734
 20
195.35689482817779
 40
0.1627875663138724
  0
CIRCLE
  8
_1-1_
  6
CONTINUOUS
 62
    7
 10
22.843577926223332
 20
194.78713989257812
 40
0.1627875663138724
  0
CIRCLE
  8
_1-1_
  6
CONTINUOUS
 62
    7
 10
25.041220896952865
 20
194.54295390361065
 40
0.1627875663138724
  0
CIRCLE
  8
_1-1_
  6
CONTINUOUS
 62
    7
 10
23.169154605349974
 20
195.51968548748945
 40
0.1627875663138724
  0
CIRCLE
  8
_1-1_
  6
CONTINUOUS
 62
    7
 10
20.808725614805496
 20
195.27549949852198
 40
0.1627875663138724
  0
CIRCLE
  8
_1-1_
  6
CONTINUOUS
 62
    7
 10
24.471461321856538
 20
195.27549949852198
 40
0.1627875663138724
  0
CIRCLE
  8
_1-1_
  6
CONTINUOUS
 62
    7
 10
23.413337501319688
 20
196.25223108240078
 40
0.1627875663138724
  0
CIRCLE
  8
_1-1_
  6
CONTINUOUS
 62
    7
 10
26.343526066960521
 20
194.62434923326649
 40
0.1627875663138724
  0
CIRCLE
  8
_1-1_
  6
CONTINUOUS
 62
    7
 10
28.215593905062292
 20
193.40343166042021
 40
0.1627875663138724
  0
CIRCLE
  8
_1-1_
  6
CONTINUOUS
 62
    7
 10
31.991030718829194
 20
193.04810807511615
 40
0.1627875663138724
  0
CIRCLE
  8
_1-1_
  6
CONTINUOUS
 62
    7
 10
29.492853525522605
 20
195.02035192541175
 40
0.1627875663138724
  0
CIRCLE
  8
_1-1_
  6
CONTINUOUS
 62
    7
 10
27.65209301097974
 20
196.20369576119089
 40
0.1627875663138724
  0
CIRCLE
  8
_1-1_
  6
CONTINUOUS
 62
    7
 10
26.337265839447838
 20
195.94074146167654
 40
0.1627875663138724
  0
CIRCLE
  8
_1-1_
  6
CONTINUOUS
 62
    7
 10
32.911407883102839
 20
189.89252038904141
 40
0.1627875663138724
  0
CIRCLE
  8
_1-1_
  6
CONTINUOUS
 62
    7
 10
33.568824561866563
 20
189.36658704603042
 40
0.1627875663138724
  0
CIRCLE
  8
_1-1_
  6
CONTINUOUS
 62
    7
 10
30.281753540039063
 20
191.33883089632602
 40
0.1627875663138724
  0
CIRCLE
  8
_1-1_
  6
CONTINUOUS
 62
    7
 10
32.779924547350078
 20
192.390697582348
 40
0.1627875663138724
  0
CIRCLE
  8
_1-1_
  6
CONTINUOUS
 62
    7
 10
35.409578890413854
 20
192.25920806059966
 40
0.1627875663138724
  0
CIRCLE
  8
_1-1_
  6
CONTINUOUS
 62
    7
 10
36.461445576435807
 20
190.02400991078972
 40
0.1627875663138724
  0
CIRCLE
  8
_1-1_
  6
CONTINUOUS
 62
    7
 10
36.461445576435807
 20
188.97214322476773
 40
0.1627875663138724
  0
CIRCLE
  8
_1-1_
  6
CONTINUOUS
 62
    7
 10
39.435461920660885
 20
189.26485216295399
 40
0.1627875663138724
  0
CIRCLE
  8
_1-1_
  6
CONTINUOUS
 62
    7
 10
39.761037053288646
 20
187.47417965450802
 40
0.1627875663138724
  0
CIRCLE
  8
_1-1_
  6
CONTINUOUS
 62
    7
 10
39.028491458377317
 20
187.63697031381969
 40
0.1627875663138724
  0
CIRCLE
  8
_1-1_
  6
CONTINUOUS
 62
    7
 10
39.598249486974765
 20
188.36951590873102
 40
0.1627875663138724
  0
CIRCLE
  8
_1-1_
  6
CONTINUOUS
 62
    7
 10
40.656373307511615
 20
188.12532991976352
 40
0.1627875663138724
  0
CIRCLE
  8
_1-1_
  6
CONTINUOUS
 62
    7
 10
37.482004938898854
 20
187.79974860114021
 40
0.1627875663138724
  0
CIRCLE
  8
_1-1_
  6
CONTINUOUS
 62
    7
 10
37.807580071526615
 20
189.10206150364232
 40
0.1627875663138724
  0
CIRCLE
  8
_1-1_
  6
CONTINUOUS
 62
    7
 10
40.981948440139377
 20
189.67181643924198
 40
0.1627875663138724
  0
CIRCLE
  8
_1-1_
  6
CONTINUOUS
 62
    7
 10
43.098196081213047
 20
188.53230656804266
 40
0.1627875663138724
  0
CIRCLE
  8
_1-1_
  6
CONTINUOUS
 62
    7
 10
35.885424227327917
 20
191.89451887800888
 40
0.1627875663138724
  0
CIRCLE
  8
_1-1_
  6
CONTINUOUS
 62
    7
 10
36.21099935995565
 20
190.10384636956294
 40
0.1627875663138724
  0
CIRCLE
  8
_1-1_
  6
CONTINUOUS
 62
    7
 10
35.47845376504435
 20
190.26663702887458
 40
0.1627875663138724
  0
CIRCLE
  8
_1-1_
  6
CONTINUOUS
 62
    7
 10
36.048211793641798
 20
190.99918262378591
 40
0.1627875663138724
  0
CIRCLE
  8
_1-1_
  6
CONTINUOUS
 62
    7
 10
37.106335614178647
 20
190.75499663481841
 40
0.1627875663138724
  0
CIRCLE
  8
_1-1_
  6
CONTINUOUS
 62
    7
 10
33.931967245565886
 20
190.4294153161951
 40
0.1627875663138724
  0
CIRCLE
  8
_1-1_
  6
CONTINUOUS
 62
    7
 10
34.257542378193619
 20
191.73172821869721
 40
0.1627875663138724
  0
CIRCLE
  8
_1-1_
  6
CONTINUOUS
 62
    7
 10
37.431910746806381
 20
192.30148315429688
 40
0.1627875663138724
  0
CIRCLE
  8
_1-1_
  6
CONTINUOUS
 62
    7
 10
39.548158387880079
 20
191.16197328309755
 40
0.1627875663138724
  0
CIRCLE
  8
_1-1_
  6
CONTINUOUS
 62
    7
 10
44.95774037129172
 20
186.24075399862755
 40
0.1627875663138724
  0
CIRCLE
  8
_1-1_
  6
CONTINUOUS
 62
    7
 10
45.28331859691724
 20
184.45008149018159
 40
0.1627875663138724
  0
CIRCLE
  8
_1-1_
  6
CONTINUOUS
 62
    7
 10
44.550769909008125
 20
184.61287214949326
 40
0.1627875663138724
  0
CIRCLE
  8
_1-1_
  6
CONTINUOUS
 62
    7
 10
45.120527937605573
 20
185.34541774440456
 40
0.1627875663138724
  0
CIRCLE
  8
_1-1_
  6
CONTINUOUS
 62
    7
 10
46.178651758142422
 20
185.10123175543708
 40
0.1627875663138724
  0
CIRCLE
  8
_1-1_
  6
CONTINUOUS
 62
    7
 10
43.004280296531874
 20
184.77565043681378
 40
0.1627875663138724
  0
CIRCLE
  8
_1-1_
  6
CONTINUOUS
 62
    7
 10
43.329855429159636
 20
186.07796333931589
 40
0.1627875663138724
  0
CIRCLE
  8
_1-1_
  6
CONTINUOUS
 62
    7
 10
46.504229983767942
 20
186.64771827491555
 40
0.1627875663138724
  0
CIRCLE
  8
_1-1_
  6
CONTINUOUS
 62
    7
 10
48.620477624841641
 20
185.50820840371622
 40
0.1627875663138724
  0
CIRCLE
  8
_1-1_
  6
CONTINUOUS
 62
    7
 10
53.109673164986276
 20
183.34812061206716
 40
0.1627875663138724
  0
CIRCLE
  8
_1-1_
  6
CONTINUOUS
 62
    7
 10
53.43524829761401
 20
181.5574481036212
 40
0.1627875663138724
  0
CIRCLE
  8
_1-1_
  6
CONTINUOUS
 62
    7
 10
52.702702702702709
 20
181.72023876293287
 40
0.1627875663138724
  0
CIRCLE
  8
_1-1_
  6
CONTINUOUS
 62
    7
 10
53.27245763830237
 20
182.45278435784419
 40
0.1627875663138724
  0
CIRCLE
  8
_1-1_
  6
CONTINUOUS
 62
    7
 10
54.330584551837006
 20
182.20859836887669
 40
0.1627875663138724
  0
CIRCLE
  8
_1-1_
  6
CONTINUOUS
 62
    7
 10
51.156216183224245
 20
181.88301705025339
 40
0.1627875663138724
  0
CIRCLE
  8
_1-1_
  6
CONTINUOUS
 62
    7
 10
51.481791315851979
 20
183.1853299527555
 40
0.1627875663138724
  0
CIRCLE
  8
_1-1_
  6
CONTINUOUS
 62
    7
 10
54.65615968446474
 20
183.75508488835516
 40
0.1627875663138724
  0
CIRCLE
  8
_1-1_
  6
CONTINUOUS
 62
    7
 10
56.772407325538438
 20
182.61557501715583
 40
0.1627875663138724
  0
CIRCLE
  8
_1-1_
  6
CONTINUOUS
 62
    7
 10
59.026404715873099
 20
180.98143294050888
 40
0.1627875663138724
  0
CIRCLE
  8
_1-1_
  6
CONTINUOUS
 62
    7
 10
59.351979848500832
 20
179.19076043206294
 40
0.1627875663138724
  0
CIRCLE
  8
_1-1_
  6
CONTINUOUS
 62
    7
 10
58.619434253589532
 20
179.35355109137458
 40
0.1627875663138724
  0
CIRCLE
  8
_1-1_
  6
CONTINUOUS
 62
    7
 10
59.189189189189193
 20
180.08609668628591
 40
0.1627875663138724
  0
CIRCLE
  8
_1-1_
  6
CONTINUOUS
 62
    7
 10
60.247316102723829
 20
179.84191069731841
 40
0.1627875663138724
  0
CIRCLE
  8
_1-1_
  6
CONTINUOUS
 62
    7
 10
57.072947734111068
 20
179.5163293786951
 40
0.1627875663138724
  0
CIRCLE
  8
_1-1_
  6
CONTINUOUS
 62
    7
 10
57.398522866738801
 20
180.81864228119721
 40
0.1627875663138724
  0
CIRCLE
  8
_1-1_
  6
CONTINUOUS
 62
    7
 10
60.572891235351563
 20
181.38839721679687
 40
0.1627875663138724
  0
CIRCLE
  8
_1-1_
  6
CONTINUOUS
 62
    7
 10
62.689138876425261
 20
180.24888734559755
 40
0.1627875663138724
  0
CIRCLE
  8
_1-1_
  6
CONTINUOUS
 62
    7
 10
48.507778064624688
 20
184.26851014833193
 40
0.1627875663138724
  0
CIRCLE
  8
_1-1_
  6
CONTINUOUS
 62
    7
 10
48.833356290250208
 20
182.47783763988599
 40
0.1627875663138724
  0
CIRCLE
  8
_1-1_
  6
CONTINUOUS
 62
    7
 10
48.100807602341121
 20
182.64062829919766
 40
0.1627875663138724
  0
CIRCLE
  8
_1-1_
  6
CONTINUOUS
 62
    7
 10
48.670565630938569
 20
183.37317389410896
 40
0.1627875663138724
  0
CIRCLE
  8
_1-1_
  6
CONTINUOUS
 62
    7
 10
49.728689451475418
 20
183.12898790514149
 40
0.1627875663138724
  0
CIRCLE
  8
_1-1_
  6
CONTINUOUS
 62
    7
 10
46.55431798986487
 20
182.80340658651818
 40
0.1627875663138724
  0
CIRCLE
  8
_1-1_
  6
CONTINUOUS
 62
    7
 10
46.879893122492604
 20
184.10571948902029
 40
0.1627875663138724
  0
CIRCLE
  8
_1-1_
  6
CONTINUOUS
 62
    7
 10
50.054267677100938
 20
184.67547442461995
 40
0.1627875663138724
  0
CIRCLE
  8
_1-1_
  6
CONTINUOUS
 62
    7
 10
52.170515318174637
 20
183.53596455342063
 40
0.1627875663138724
  0
CIRCLE
  8
_1-1_
  6
CONTINUOUS
 62
    7
 10
55.739333694045627
 20
181.24439961201438
 40
0.1627875663138724
  0
CIRCLE
  8
_1-1_
  6
CONTINUOUS
 62
    7
 10
56.06490882667336
 20
179.45372710356841
 40
0.1627875663138724
  0
CIRCLE
  8
_1-1_
  6
CONTINUOUS
 62
    7
 10
55.332363231762031
 20
179.61651776288008
 40
0.1627875663138724
  0
CIRCLE
  8
_1-1_
  6
CONTINUOUS
 62
    7
 10
55.902124353357266
 20
180.34906335779141
 40
0.1627875663138724
  0
CIRCLE
  8
_1-1_
  6
CONTINUOUS
 62
    7
 10
56.960245080896328
 20
180.10487736882391
 40
0.1627875663138724
  0
CIRCLE
  8
_1-1_
  6
CONTINUOUS
 62
    7
 10
53.785876712283567
 20
179.7792960502006
 40
0.1627875663138724
  0
CIRCLE
  8
_1-1_
  6
CONTINUOUS
 62
    7
 10
54.111451844911329
 20
181.08160895270271
 40
0.1627875663138724
  0
CIRCLE
  8
_1-1_
  6
CONTINUOUS
 62
    7
 10
57.285820213524062
 20
181.65136388830237
 40
0.1627875663138724
  0
CIRCLE
  8
_1-1_
  6
CONTINUOUS
 62
    7
 10
59.40206785459776
 20
180.51185401710305
 40
0.1627875663138724
  0
CIRCLE
  8
_1-1_
  6
CONTINUOUS
 62
    7
 10
42.45956627098289
 20
187.55557498416385
 40
0.1627875663138724
  0
CIRCLE
  8
_1-1_
  6
CONTINUOUS
 62
    7
 10
42.785141403610652
 20
185.76490247571792
 40
0.1627875663138724
  0
CIRCLE
  8
_1-1_
  6
CONTINUOUS
 62
    7
 10
42.052595808699323
 20
185.92769313502956
 40
0.1627875663138724
  0
CIRCLE
  8
_1-1_
  6
CONTINUOUS
 62
    7
 10
42.622353837296771
 20
186.66023872994089
 40
0.1627875663138724
  0
CIRCLE
  8
_1-1_
  6
CONTINUOUS
 62
    7
 10
43.68047765783362
 20
186.41605274097341
 40
0.1627875663138724
  0
CIRCLE
  8
_1-1_
  6
CONTINUOUS
 62
    7
 10
40.506109289220859
 20
186.09047142235011
 40
0.1627875663138724
  0
CIRCLE
  8
_1-1_
  6
CONTINUOUS
 62
    7
 10
40.831684421848593
 20
187.39278432485222
 40
0.1627875663138724
  0
CIRCLE
  8
_1-1_
  6
CONTINUOUS
 62
    7
 10
44.006052790461354
 20
187.96253926045188
 40
0.1627875663138724
  0
CIRCLE
  8
_1-1_
  6
CONTINUOUS
 62
    7
 10
46.122300431535052
 20
186.82302938925255
 40
0.1627875663138724
  0
CIRCLE
  8
_1-1_
  6
CONTINUOUS
 62
    7
 10
68.098717766839115
 20
176.51102426889781
 40
0.1627875663138724
  0
CIRCLE
  8
_1-1_
  6
CONTINUOUS
 62
    7
 10
68.424292899466849
 20
174.72035176045188
 40
0.1627875663138724
  0
CIRCLE
  8
_1-1_
  6
CONTINUOUS
 62
    7
 10
67.69174730455552
 20
174.88314241976352
 40
0.1627875663138724
  0
CIRCLE
  8
_1-1_
  6
CONTINUOUS
 62
    7
 10
68.261508426150783
 20
175.61568801467484
 40
0.1627875663138724
  0
CIRCLE
  8
_1-1_
  6
CONTINUOUS
 62
    7
 10
69.319629153689846
 20
175.37150202570737
 40
0.1627875663138724
  0
CIRCLE
  8
_1-1_
  6
CONTINUOUS
 62
    7
 10
66.145260785077085
 20
175.04592070708404
 40
0.1627875663138724
  0
CIRCLE
  8
_1-1_
  6
CONTINUOUS
 62
    7
 10
66.470835917704818
 20
176.34823360958615
 40
0.1627875663138724
  0
CIRCLE
  8
_1-1_
  6
CONTINUOUS
 62
    7
 10
69.645204286317551
 20
176.91798854518581
 40
0.1627875663138724
  0
CIRCLE
  8
_1-1_
  6
CONTINUOUS
 62
    7
 10
71.761451927391249
 20
175.77847867398648
 40
0.1627875663138724
  0
CIRCLE
  8
_1-1_
  6
CONTINUOUS
 62
    7
 10
61.919025730442343
 20
178.6147452689506
 40
0.1627875663138724
  0
CIRCLE
  8
_1-1_
  6
CONTINUOUS
 62
    7
 10
62.244600863070104
 20
176.82407276050466
 40
0.1627875663138724
  0
CIRCLE
  8
_1-1_
  6
CONTINUOUS
 62
    7
 10
61.512055268158804
 20
176.9868634198163
 40
0.1627875663138724
  0
CIRCLE
  8
_1-1_
  6
CONTINUOUS
 62
    7
 10
62.081810203758437
 20
177.71940901472763
 40
0.1627875663138724
  0
CIRCLE
  8
_1-1_
  6
CONTINUOUS
 62
    7
 10
63.139937117293073
 20
177.47522302576016
 40
0.1627875663138724
  0
CIRCLE
  8
_1-1_
  6
CONTINUOUS
 62
    7
 10
59.965568748680312
 20
177.14964170713682
 40
0.1627875663138724
  0
CIRCLE
  8
_1-1_
  6
CONTINUOUS
 62
    7
 10
60.291143881308074
 20
178.45195460963893
 40
0.1627875663138724
  0
CIRCLE
  8
_1-1_
  6
CONTINUOUS
 62
    7
 10
63.465512249920835
 20
179.02170954523862
 40
0.1627875663138724
  0
CIRCLE
  8
_1-1_
  6
CONTINUOUS
 62
    7
 10
65.581759890994533
 20
177.88219967403927
 40
0.1627875663138724
  0
CIRCLE
  8
_1-1_
  6
CONTINUOUS
 62
    7
 10
77.959937018317135
 20
171.77763655379013
 40
0.1627875663138724
  0
CIRCLE
  8
_1-1_
  6
CONTINUOUS
 62
    7
 10
78.285512150944896
 20
169.98696404534419
 40
0.1627875663138724
  0
CIRCLE
  8
_1-1_
  6
CONTINUOUS
 62
    7
 10
77.552960370038022
 20
170.14975470465583
 40
0.1627875663138724
  0
CIRCLE
  8
_1-1_
  6
CONTINUOUS
 62
    7
 10
78.122721491633229
 20
170.88230029956716
 40
0.1627875663138724
  0
CIRCLE
  8
_1-1_
  6
CONTINUOUS
 62
    7
 10
79.180842219172291
 20
170.63811431059966
 40
0.1627875663138724
  0
CIRCLE
  8
_1-1_
  6
CONTINUOUS
 62
    7
 10
76.00647385055953
 20
170.31253299197635
 40
0.1627875663138724
  0
CIRCLE
  8
_1-1_
  6
CONTINUOUS
 62
    7
 10
76.332048983187292
 20
171.61484589447846
 40
0.1627875663138724
  0
CIRCLE
  8
_1-1_
  6
CONTINUOUS
 62
    7
 10
79.506423537795627
 20
172.18460083007812
 40
0.1627875663138724
  0
CIRCLE
  8
_1-1_
  6
CONTINUOUS
 62
    7
 10
81.622671178869297
 20
171.0450909588788
 40
0.1627875663138724
  0
CIRCLE
  8
_1-1_
  6
CONTINUOUS
 62
    7
 10
73.35803882495776
 20
174.14432422534841
 40
0.1627875663138724
  0
CIRCLE
  8
_1-1_
  6
CONTINUOUS
 62
    7
 10
73.683613957585521
 20
172.35365171690245
 40
0.1627875663138724
  0
CIRCLE
  8
_1-1_
  6
CONTINUOUS
 62
    7
 10
72.951062176678647
 20
172.51644237621412
 40
0.1627875663138724
  0
CIRCLE
  8
_1-1_
  6
CONTINUOUS
 62
    7
 10
73.520823298273854
 20
173.24898797112544
 40
0.1627875663138724
  0
CIRCLE
  8
_1-1_
  6
CONTINUOUS
 62
    7
 10
74.578944025812916
 20
173.00480198215794
 40
0.1627875663138724
  0
CIRCLE
  8
_1-1_
  6
CONTINUOUS
 62
    7
 10
71.404575657200155
 20
172.67922066353464
 40
0.1627875663138724
  0
CIRCLE
  8
_1-1_
  6
CONTINUOUS
 62
    7
 10
71.730150789827917
 20
173.98153356603675
 40
0.1627875663138724
  0
CIRCLE
  8
_1-1_
  6
CONTINUOUS
 62
    7
 10
74.904525344436252
 20
174.55128850163641
 40
0.1627875663138724
  0
CIRCLE
  8
_1-1_
  6
CONTINUOUS
 62
    7
 10
77.020772985509922
 20
173.41177863043708
 40
0.1627875663138724
  0
CIRCLE
  8
_1-1_
  6
CONTINUOUS
 62
    7
 10
85.980389569256758
 20
168.88501553922086
 40
0.1627875663138724
  0
CIRCLE
  8
_1-1_
  6
CONTINUOUS
 62
    7
 10
86.305964701884506
 20
167.09434303077492
 40
0.1627875663138724
  0
CIRCLE
  8
_1-1_
  6
CONTINUOUS
 62
    7
 10
85.573412920977617
 20
167.25713369008659
 40
0.1627875663138724
  0
CIRCLE
  8
_1-1_
  6
CONTINUOUS
 62
    7
 10
86.143174042572852
 20
167.98967928499789
 40
0.1627875663138724
  0
CIRCLE
  8
_1-1_
  6
CONTINUOUS
 62
    7
 10
87.201294770111915
 20
167.74549329603042
 40
0.1627875663138724
  0
CIRCLE
  8
_1-1_
  6
CONTINUOUS
 62
    7
 10
84.026926401499153
 20
167.41991197740711
 40
0.1627875663138724
  0
CIRCLE
  8
_1-1_
  6
CONTINUOUS
 62
    7
 10
84.352501534126901
 20
168.72222487990922
 40
0.1627875663138724
  0
CIRCLE
  8
_1-1_
  6
CONTINUOUS
 62
    7
 10
87.526876088735222
 20
169.29197981550888
 40
0.1627875663138724
  0
CIRCLE
  8
_1-1_
  6
CONTINUOUS
 62
    7
 10
89.64312372980892
 20
168.15246994430956
 40
0.1627875663138724
  0
CIRCLE
  8
_1-1_
  6
CONTINUOUS
 62
    7
 10
81.641458047402864
 20
170.068359375
 40
0.1627875663138724
  0
CIRCLE
  8
_1-1_
  6
CONTINUOUS
 62
    7
 10
81.967033180030626
 20
168.27768686655406
 40
0.1627875663138724
  0
CIRCLE
  8
_1-1_
  6
CONTINUOUS
 62
    7
 10
81.234481399123752
 20
168.44047752586573
 40
0.1627875663138724
  0
CIRCLE
  8
_1-1_
  6
CONTINUOUS
 62
    7
 10
81.804242520718958
 20
169.17302312077703
 40
0.1627875663138724
  0
CIRCLE
  8
_1-1_
  6
CONTINUOUS
 62
    7
 10
82.862363248258035
 20
168.92883713180956
 40
0.1627875663138724
  0
CIRCLE
  8
_1-1_
  6
CONTINUOUS
 62
    7
 10
79.68799487964526
 20
168.60325581318625
 40
0.1627875663138724
  0
CIRCLE
  8
_1-1_
  6
CONTINUOUS
 62
    7
 10
80.013570012273021
 20
169.90556871568836
 40
0.1627875663138724
  0
CIRCLE
  8
_1-1_
  6
CONTINUOUS
 62
    7
 10
83.187944566881342
 20
170.47532365128802
 40
0.1627875663138724
  0
CIRCLE
  8
_1-1_
  6
CONTINUOUS
 62
    7
 10
85.304192207955026
 20
169.3358137800887
 40
0.1627875663138724
  0
CIRCLE
  8
_1-1_
  6
CONTINUOUS
 62
    7
 10
99.128673656566733
 20
162.57384016707138
 40
0.1627875663138724
  0
CIRCLE
  8
_1-1_
  6
CONTINUOUS
 62
    7
 10
99.45424878919448
 20
160.78316765862544
 40
0.1627875663138724
  0
CIRCLE
  8
_1-1_
  6
CONTINUOUS
 62
    7
 10
98.721697008287592
 20
160.94595831793708
 40
0.1627875663138724
  0
CIRCLE
  8
_1-1_
  6
CONTINUOUS
 62
    7
 10
99.291458129882813
 20
161.67850391284841
 40
0.1627875663138724
  0
CIRCLE
  8
_1-1_
  6
CONTINUOUS
 62
    7
 10
100.34957885742187
 20
161.43431792388091
 40
0.1627875663138724
  0
CIRCLE
  8
_1-1_
  6
CONTINUOUS
 62
    7
 10
97.175210488809128
 20
161.1087366052576
 40
0.1627875663138724
  0
CIRCLE
  8
_1-1_
  6
CONTINUOUS
 62
    7
 10
97.500785621436876
 20
162.41104950775971
 40
0.1627875663138724
  0
CIRCLE
  8
_1-1_
  6
CONTINUOUS
 62
    7
 10
100.6751601760452
 20
162.98080444335937
 40
0.1627875663138724
  0
CIRCLE
  8
_1-1_
  6
CONTINUOUS
 62
    7
 10
102.79140781711888
 20
161.84129457216005
 40
0.1627875663138724
  0
CIRCLE
  8
_1-1_
  6
CONTINUOUS
 62
    7
 10
90.976743955869935
 20
165.07201736037797
 40
0.1627875663138724
  0
CIRCLE
  8
_1-1_
  6
CONTINUOUS
 62
    7
 10
91.302319088497683
 20
163.28134485193203
 40
0.1627875663138724
  0
CIRCLE
  8
_1-1_
  6
CONTINUOUS
 62
    7
 10
90.569767307590794
 20
163.44413551124367
 40
0.1627875663138724
  0
CIRCLE
  8
_1-1_
  6
CONTINUOUS
 62
    7
 10
91.139528429186029
 20
164.176681106155
 40
0.1627875663138724
  0
CIRCLE
  8
_1-1_
  6
CONTINUOUS
 62
    7
 10
92.197649156725092
 20
163.9324951171875
 40
0.1627875663138724
  0
CIRCLE
  8
_1-1_
  6
CONTINUOUS
 62
    7
 10
89.023280788112331
 20
163.60691379856419
 40
0.1627875663138724
  0
CIRCLE
  8
_1-1_
  6
CONTINUOUS
 62
    7
 10
89.348855920740078
 20
164.9092267010663
 40
0.1627875663138724
  0
CIRCLE
  8
_1-1_
  6
CONTINUOUS
 62
    7
 10
92.523230475348399
 20
165.47898163666596
 40
0.1627875663138724
  0
CIRCLE
  8
_1-1_
  6
CONTINUOUS
 62
    7
 10
94.639478116422097
 20
164.33947176546664
 40
0.1627875663138724
  0
CIRCLE
  8
_1-1_
  6
CONTINUOUS
 62
    7
 10
94.395298313450169
 20
164.02015067435602
 40
0.1627875663138724
  0
CIRCLE
  8
_1-1_
  6
CONTINUOUS
 62
    7
 10
94.720873446077917
 20
162.22947816591005
 40
0.1627875663138724
  0
CIRCLE
  8
_1-1_
  6
CONTINUOUS
 62
    7
 10
93.988321665171043
 20
162.39226882522172
 40
0.1627875663138724
  0
CIRCLE
  8
_1-1_
  6
CONTINUOUS
 62
    7
 10
94.558082786766263
 20
163.12481442013302
 40
0.1627875663138724
  0
CIRCLE
  8
_1-1_
  6
CONTINUOUS
 62
    7
 10
95.616203514305326
 20
162.88062843116555
 40
0.1627875663138724
  0
CIRCLE
  8
_1-1_
  6
CONTINUOUS
 62
    7
 10
92.441835145692579
 20
162.55504711254224
 40
0.1627875663138724
  0
CIRCLE
  8
_1-1_
  6
CONTINUOUS
 62
    7
 10
92.767410278320313
 20
163.85736001504435
 40
0.1627875663138724
  0
CIRCLE
  8
_1-1_
  6
CONTINUOUS
 62
    7
 10
95.941784832928633
 20
164.42711495064401
 40
0.1627875663138724
  0
CIRCLE
  8
_1-1_
  6
CONTINUOUS
 62
    7
 10
98.058032474002331
 20
163.28760507944469
 40
0.1627875663138724
  0
CIRCLE
  8
_1-1_
  6
CONTINUOUS
 62
    7
 10
88.873010583826016
 20
167.57018218169341
 40
0.1627875663138724
  0
CIRCLE
  8
_1-1_
  6
CONTINUOUS
 62
    7
 10
89.198585716453763
 20
165.77950967324747
 40
0.1627875663138724
  0
CIRCLE
  8
_1-1_
  6
CONTINUOUS
 62
    7
 10
88.466033935546875
 20
165.94230033255914
 40
0.1627875663138724
  0
CIRCLE
  8
_1-1_
  6
CONTINUOUS
 62
    7
 10
89.03579505714211
 20
166.67484592747044
 40
0.1627875663138724
  0
CIRCLE
  8
_1-1_
  6
CONTINUOUS
 62
    7
 10
90.093915784681172
 20
166.43065993850297
 40
0.1627875663138724
  0
CIRCLE
  8
_1-1_
  6
CONTINUOUS
 62
    7
 10
86.919547416068411
 20
166.10507861987966
 40
0.1627875663138724
  0
CIRCLE
  8
_1-1_
  6
CONTINUOUS
 62
    7
 10
87.245122548696159
 20
167.40739152238177
 40
0.1627875663138724
  0
CIRCLE
  8
_1-1_
  6
CONTINUOUS
 62
    7
 10
90.419497103304479
 20
167.97714645798143
 40
0.1627875663138724
  0
CIRCLE
  8
_1-1_
  6
CONTINUOUS
 62
    7
 10
92.535744744378178
 20
166.83763658678211
 40
0.1627875663138724
  0
CIRCLE
  8
_1-1_
  6
CONTINUOUS
 62
    7
 10
109.12137005780195
 20
159.15528580949115
 40
0.1627875663138724
  0
CIRCLE
  8
_1-1_
  6
CONTINUOUS
 62
    7
 10
109.44693900443413
 20
157.36461330104518
 40
0.1627875663138724
  0
CIRCLE
  8
_1-1_
  6
CONTINUOUS
 62
    7
 10
108.71439340952281
 20
157.52740396035685
 40
0.1627875663138724
  0
CIRCLE
  8
_1-1_
  6
CONTINUOUS
 62
    7
 10
109.28414834512247
 20
158.25994955526818
 40
0.1627875663138724
  0
CIRCLE
  8
_1-1_
  6
CONTINUOUS
 62
    7
 10
110.3422752586571
 20
158.01576356630068
 40
0.1627875663138724
  0
CIRCLE
  8
_1-1_
  6
CONTINUOUS
 62
    7
 10
107.16790689004435
 20
157.69018224767737
 40
0.1627875663138724
  0
CIRCLE
  8
_1-1_
  6
CONTINUOUS
 62
    7
 10
107.49348820866766
 20
158.99249515017948
 40
0.1627875663138724
  0
CIRCLE
  8
_1-1_
  6
CONTINUOUS
 62
    7
 10
110.66785657728042
 20
159.56225008577914
 40
0.1627875663138724
  0
CIRCLE
  8
_1-1_
  6
CONTINUOUS
 62
    7
 10
112.78409803235854
 20
158.42274021457982
 40
0.1627875663138724
  0
CIRCLE
  8
_1-1_
  6
CONTINUOUS
 62
    7
 10
101.62685084987332
 20
160.99604013803844
 40
0.1627875663138724
  0
CIRCLE
  8
_1-1_
  6
CONTINUOUS
 62
    7
 10
101.95242598250105
 20
159.2053676295925
 40
0.1627875663138724
  0
CIRCLE
  8
_1-1_
  6
CONTINUOUS
 62
    7
 10
101.21987420159418
 20
159.36815828890414
 40
0.1627875663138724
  0
CIRCLE
  8
_1-1_
  6
CONTINUOUS
 62
    7
 10
101.7896353231894
 20
160.10070388381547
 40
0.1627875663138724
  0
CIRCLE
  8
_1-1_
  6
CONTINUOUS
 62
    7
 10
102.84775605072846
 20
159.85651789484797
 40
0.1627875663138724
  0
CIRCLE
  8
_1-1_
  6
CONTINUOUS
 62
    7
 10
99.673387682115717
 20
159.53093657622466
 40
0.1627875663138724
  0
CIRCLE
  8
_1-1_
  6
CONTINUOUS
 62
    7
 10
99.998962814743464
 20
160.83324947872677
 40
0.1627875663138724
  0
CIRCLE
  8
_1-1_
  6
CONTINUOUS
 62
    7
 10
103.17333736935178
 20
161.40300441432643
 40
0.1627875663138724
  0
CIRCLE
  8
_1-1_
  6
CONTINUOUS
 62
    7
 10
105.28957882442991
 20
160.26349454312711
 40
0.1627875663138724
  0
CIRCLE
  8
_1-1_
  6
CONTINUOUS
 62
    7
 10
113.46030157965583
 20
155.73673145191091
 40
0.1627875663138724
  0
CIRCLE
  8
_1-1_
  6
CONTINUOUS
 62
    7
 10
113.78587052628801
 20
153.94605894346495
 40
0.1627875663138724
  0
CIRCLE
  8
_1-1_
  6
CONTINUOUS
 62
    7
 10
113.05332493137669
 20
154.10884960277662
 40
0.1627875663138724
  0
CIRCLE
  8
_1-1_
  6
CONTINUOUS
 62
    7
 10
113.62307986697635
 20
154.84139519768794
 40
0.1627875663138724
  0
CIRCLE
  8
_1-1_
  6
CONTINUOUS
 62
    7
 10
114.68120678051099
 20
154.59720920872044
 40
0.1627875663138724
  0
CIRCLE
  8
_1-1_
  6
CONTINUOUS
 62
    7
 10
111.50683841189823
 20
154.27162789009714
 40
0.1627875663138724
  0
CIRCLE
  8
_1-1_
  6
CONTINUOUS
 62
    7
 10
111.83241973052154
 20
155.57394079259925
 40
0.1627875663138724
  0
CIRCLE
  8
_1-1_
  6
CONTINUOUS
 62
    7
 10
115.0067880991343
 20
156.14369572819891
 40
0.1627875663138724
  0
CIRCLE
  8
_1-1_
  6
CONTINUOUS
 62
    7
 10
117.12302955421242
 20
155.00418585699958
 40
0.1627875663138724
  0
CIRCLE
  8
_1-1_
  6
CONTINUOUS
 62
    7
 10
105.04540520745356
 20
158.89231913798565
 40
0.1627875663138724
  0
CIRCLE
  8
_1-1_
  6
CONTINUOUS
 62
    7
 10
105.37097415408573
 20
157.10164662953972
 40
0.1627875663138724
  0
CIRCLE
  8
_1-1_
  6
CONTINUOUS
 62
    7
 10
104.63842855917441
 20
157.26443728885135
 40
0.1627875663138724
  0
CIRCLE
  8
_1-1_
  6
CONTINUOUS
 62
    7
 10
105.20819586676521
 20
157.99698288376268
 40
0.1627875663138724
  0
CIRCLE
  8
_1-1_
  6
CONTINUOUS
 62
    7
 10
106.26631040830871
 20
157.75279689479518
 40
0.1627875663138724
  0
CIRCLE
  8
_1-1_
  6
CONTINUOUS
 62
    7
 10
103.09194203969595
 20
157.42721557617187
 40
0.1627875663138724
  0
CIRCLE
  8
_1-1_
  6
CONTINUOUS
 62
    7
 10
103.4175171723237
 20
158.72952847867398
 40
0.1627875663138724
  0
CIRCLE
  8
_1-1_
  6
CONTINUOUS
 62
    7
 10
106.59189172693202
 20
159.29928341427365
 40
0.1627875663138724
  0
CIRCLE
  8
_1-1_
  6
CONTINUOUS
 62
    7
 10
108.70813318201014
 20
158.15977354307432
 40
0.1627875663138724
  0
CIRCLE
  8
_1-1_
  6
CONTINUOUS
 62
    7
 10
121.48076650258658
 20
151.00334373680323
 40
0.1627875663138724
  0
CIRCLE
  8
_1-1_
  6
CONTINUOUS
 62
    7
 10
121.80633544921875
 20
149.21267122835727
 40
0.1627875663138724
  0
CIRCLE
  8
_1-1_
  6
CONTINUOUS
 62
    7
 10
121.07378985430744
 20
149.37546188766893
 40
0.1627875663138724
  0
CIRCLE
  8
_1-1_
  6
CONTINUOUS
 62
    7
 10
121.6435447899071
 20
150.10800748258023
 40
0.1627875663138724
  0
CIRCLE
  8
_1-1_
  6
CONTINUOUS
 62
    7
 10
122.70167170344173
 20
149.86382149361276
 40
0.1627875663138724
  0
CIRCLE
  8
_1-1_
  6
CONTINUOUS
 62
    7
 10
119.52730333482897
 20
149.53824017498945
 40
0.1627875663138724
  0
CIRCLE
  8
_1-1_
  6
CONTINUOUS
 62
    7
 10
119.85288465345229
 20
150.84055307749156
 40
0.1627875663138724
  0
CIRCLE
  8
_1-1_
  6
CONTINUOUS
 62
    7
 10
123.02725302206504
 20
151.41030801309122
 40
0.1627875663138724
  0
CIRCLE
  8
_1-1_
  6
CONTINUOUS
 62
    7
 10
125.14349447714316
 20
150.2707981418919
 40
0.1627875663138724
  0
CIRCLE
  8
_1-1_
  6
CONTINUOUS
 62
    7
 10
127.26600853172509
 20
148.89962273675044
 40
0.1627875663138724
  0
CIRCLE
  8
_1-1_
  6
CONTINUOUS
 62
    7
 10
127.59157747835727
 20
147.10895022830448
 40
0.1627875663138724
  0
CIRCLE
  8
_1-1_
  6
CONTINUOUS
 62
    7
 10
126.85903188344595
 20
147.27174088761615
 40
0.1627875663138724
  0
CIRCLE
  8
_1-1_
  6
CONTINUOUS
 62
    7
 10
127.42878681904561
 20
148.00428648252745
 40
0.1627875663138724
  0
CIRCLE
  8
_1-1_
  6
CONTINUOUS
 62
    7
 10
128.48691373258023
 20
147.76010049355997
 40
0.1627875663138724
  0
CIRCLE
  8
_1-1_
  6
CONTINUOUS
 62
    7
 10
125.31254536396749
 20
147.43451917493667
 40
0.1627875663138724
  0
CIRCLE
  8
_1-1_
  6
CONTINUOUS
 62
    7
 10
125.63812668259079
 20
148.73683207743878
 40
0.1627875663138724
  0
CIRCLE
  8
_1-1_
  6
CONTINUOUS
 62
    7
 10
128.81249505120354
 20
149.30658701303844
 40
0.1627875663138724
  0
CIRCLE
  8
_1-1_
  6
CONTINUOUS
 62
    7
 10
130.92873650628167
 20
148.16707714183912
 40
0.1627875663138724
  0
CIRCLE
  8
_1-1_
  6
CONTINUOUS
 62
    7
 10
117.27331213048987
 20
154.02745427312078
 40
0.1627875663138724
  0
CIRCLE
  8
_1-1_
  6
CONTINUOUS
 62
    7
 10
117.59888107712204
 20
152.23678176467484
 40
0.1627875663138724
  0
CIRCLE
  8
_1-1_
  6
CONTINUOUS
 62
    7
 10
116.86633548221073
 20
152.39957242398648
 40
0.1627875663138724
  0
CIRCLE
  8
_1-1_
  6
CONTINUOUS
 62
    7
 10
117.43610278980152
 20
153.13211801889781
 40
0.1627875663138724
  0
CIRCLE
  8
_1-1_
  6
CONTINUOUS
 62
    7
 10
118.49421733134503
 20
152.88793202993034
 40
0.1627875663138724
  0
CIRCLE
  8
_1-1_
  6
CONTINUOUS
 62
    7
 10
115.31984896273227
 20
152.562350711307
 40
0.1627875663138724
  0
CIRCLE
  8
_1-1_
  6
CONTINUOUS
 62
    7
 10
115.64543028135559
 20
153.86466361380914
 40
0.1627875663138724
  0
CIRCLE
  8
_1-1_
  6
CONTINUOUS
 62
    7
 10
118.81979864996833
 20
154.4344185494088
 40
0.1627875663138724
  0
CIRCLE
  8
_1-1_
  6
CONTINUOUS
 62
    7
 10
120.93604010504646
 20
153.29490867820948
 40
0.1627875663138724
  0
CIRCLE
  8
_1-1_
  6
CONTINUOUS
 62
    7
 10
123.71596465239655
 20
153.63299807986698
 40
0.1627875663138724
  0
CIRCLE
  8
_1-1_
  6
CONTINUOUS
 62
    7
 10
124.04153359902872
 20
151.84232557142104
 40
0.1627875663138724
  0
CIRCLE
  8
_1-1_
  6
CONTINUOUS
 62
    7
 10
123.30898800411741
 20
152.00511623073268
 40
0.1627875663138724
  0
CIRCLE
  8
_1-1_
  6
CONTINUOUS
 62
    7
 10
123.87874293971707
 20
152.73766182564401
 40
0.1627875663138724
  0
CIRCLE
  8
_1-1_
  6
CONTINUOUS
 62
    7
 10
124.93686985325169
 20
152.49347583667654
 40
0.1627875663138724
  0
CIRCLE
  8
_1-1_
  6
CONTINUOUS
 62
    7
 10
121.76250148463895
 20
152.16789451805323
 40
0.1627875663138724
  0
CIRCLE
  8
_1-1_
  6
CONTINUOUS
 62
    7
 10
122.08808280326225
 20
153.47020742055534
 40
0.1627875663138724
  0
CIRCLE
  8
_1-1_
  6
CONTINUOUS
 62
    7
 10
125.262451171875
 20
154.039962356155
 40
0.1627875663138724
  0
CIRCLE
  8
_1-1_
  6
CONTINUOUS
 62
    7
 10
127.37869262695312
 20
152.90045248495568
 40
0.1627875663138724
  0
CIRCLE
  8
_1-1_
  6
CONTINUOUS
 62
    7
 10
141.86060312631969
 20
141.93102449984164
 40
0.1627875663138724
  0
CIRCLE
  8
_1-1_
  6
CONTINUOUS
 62
    7
 10
142.18617207295188
 20
140.1403519913957
 40
0.1627875663138724
  0
CIRCLE
  8
_1-1_
  6
CONTINUOUS
 62
    7
 10
141.45362647804055
 20
140.30314265070734
 40
0.1627875663138724
  0
CIRCLE
  8
_1-1_
  6
CONTINUOUS
 62
    7
 10
142.02338141364021
 20
141.03568824561867
 40
0.1627875663138724
  0
CIRCLE
  8
_1-1_
  6
CONTINUOUS
 62
    7
 10
143.08150832717484
 20
140.7915022566512
 40
0.1627875663138724
  0
CIRCLE
  8
_1-1_
  6
CONTINUOUS
 62
    7
 10
139.90713995856208
 20
140.46592093802789
 40
0.1627875663138724
  0
CIRCLE
  8
_1-1_
  6
CONTINUOUS
 62
    7
 10
140.23272127718539
 20
141.76823384053
 40
0.1627875663138724
  0
CIRCLE
  8
_1-1_
  6
CONTINUOUS
 62
    7
 10
143.40708964579815
 20
142.33798877612966
 40
0.1627875663138724
  0
CIRCLE
  8
_1-1_
  6
CONTINUOUS
 62
    7
 10
145.52333110087628
 20
141.19847890493034
 40
0.1627875663138724
  0
CIRCLE
  8
_1-1_
  6
CONTINUOUS
 62
    7
 10
133.31421723236909
 20
146.53293506519216
 40
0.1627875663138724
  0
CIRCLE
  8
_1-1_
  6
CONTINUOUS
 62
    7
 10
133.63978617900128
 20
144.7422625567462
 40
0.1627875663138724
  0
CIRCLE
  8
_1-1_
  6
CONTINUOUS
 62
    7
 10
132.90724058408995
 20
144.90505321605787
 40
0.1627875663138724
  0
CIRCLE
  8
_1-1_
  6
CONTINUOUS
 62
    7
 10
133.47700789168076
 20
145.63759881096919
 40
0.1627875663138724
  0
CIRCLE
  8
_1-1_
  6
CONTINUOUS
 62
    7
 10
134.53512243322425
 20
145.39341282200169
 40
0.1627875663138724
  0
CIRCLE
  8
_1-1_
  6
CONTINUOUS
 62
    7
 10
131.36075406461148
 20
145.06783150337839
 40
0.1627875663138724
  0
CIRCLE
  8
_1-1_
  6
CONTINUOUS
 62
    7
 10
131.68633538323479
 20
146.3701444058805
 40
0.1627875663138724
  0
CIRCLE
  8
_1-1_
  6
CONTINUOUS
 62
    7
 10
134.86070375184755
 20
146.93989934148016
 40
0.1627875663138724
  0
CIRCLE
  8
_1-1_
  6
CONTINUOUS
 62
    7
 10
136.97694520692568
 20
145.80038947028083
 40
0.1627875663138724
  0
CIRCLE
  8
_1-1_
  6
CONTINUOUS
 62
    7
 10
148.69771184148016
 20
140.35323684279984
 40
0.1627875663138724
  0
CIRCLE
  8
_1-1_
  6
CONTINUOUS
 62
    7
 10
149.02328078811234
 20
138.56256433435388
 40
0.1627875663138724
  0
CIRCLE
  8
_1-1_
  6
CONTINUOUS
 62
    7
 10
148.29073519320102
 20
138.72535499366555
 40
0.1627875663138724
  0
CIRCLE
  8
_1-1_
  6
CONTINUOUS
 62
    7
 10
148.86049012880068
 20
139.45790058857688
 40
0.1627875663138724
  0
CIRCLE
  8
_1-1_
  6
CONTINUOUS
 62
    7
 10
149.91861704233531
 20
139.21371459960937
 40
0.1627875663138724
  0
CIRCLE
  8
_1-1_
  6
CONTINUOUS
 62
    7
 10
146.74424867372255
 20
138.88813328098607
 40
0.1627875663138724
  0
CIRCLE
  8
_1-1_
  6
CONTINUOUS
 62
    7
 10
147.06982999234586
 20
140.19044618348818
 40
0.1627875663138724
  0
CIRCLE
  8
_1-1_
  6
CONTINUOUS
 62
    7
 10
150.24419836095862
 20
140.76020111908784
 40
0.1627875663138724
  0
CIRCLE
  8
_1-1_
  6
CONTINUOUS
 62
    7
 10
152.36043981603675
 20
139.62069124788852
 40
0.1627875663138724
  0
CIRCLE
  8
_1-1_
  6
CONTINUOUS
 62
    7
 10
135.81239442567568
 20
144.16624739363388
 40
0.1627875663138724
  0
CIRCLE
  8
_1-1_
  6
CONTINUOUS
 62
    7
 10
135.97518508498734
 20
143.27091113941091
 40
0.1627875663138724
  0
CIRCLE
  8
_1-1_
  6
CONTINUOUS
 62
    7
 10
137.03329962653083
 20
143.02672515044341
 40
0.1627875663138724
  0
CIRCLE
  8
_1-1_
  6
CONTINUOUS
 62
    7
 10
134.18451257654138
 20
144.00345673432221
 40
0.1627875663138724
  0
CIRCLE
  8
_1-1_
  6
CONTINUOUS
 62
    7
 10
137.35888094515414
 20
144.57321166992187
 40
0.1627875663138724
  0
CIRCLE
  8
_1-1_
  6
CONTINUOUS
 62
    7
 10
139.47512240023227
 20
143.43370179872255
 40
0.1627875663138724
  0
CIRCLE
  8
_1-1_
  6
CONTINUOUS
 62
    7
 10
139.88835927602409
 20
144.42921406513938
 40
0.1627875663138724
  0
CIRCLE
  8
_1-1_
  6
CONTINUOUS
 62
    7
 10
140.05114993533573
 20
143.53387781091638
 40
0.1627875663138724
  0
CIRCLE
  8
_1-1_
  6
CONTINUOUS
 62
    7
 10
141.10926447687922
 20
143.28969182194891
 40
0.1627875663138724
  0
CIRCLE
  8
_1-1_
  6
CONTINUOUS
 62
    7
 10
138.26047742688979
 20
144.26642340582771
 40
0.1627875663138724
  0
CIRCLE
  8
_1-1_
  6
CONTINUOUS
 62
    7
 10
141.43484579550255
 20
144.83617834142737
 40
0.1627875663138724
  0
CIRCLE
  8
_1-1_
  6
CONTINUOUS
 62
    7
 10
143.55108725058068
 20
143.69666847022805
 40
0.1627875663138724
  0
CIRCLE
  8
_1-1_
  6
CONTINUOUS
 62
    7
 10
131.2104962323163
 20
148.50517891548776
 40
0.1627875663138724
  0
CIRCLE
  8
_1-1_
  6
CONTINUOUS
 62
    7
 10
131.37328689162797
 20
147.60984266126479
 40
0.1627875663138724
  0
CIRCLE
  8
_1-1_
  6
CONTINUOUS
 62
    7
 10
132.43140143317146
 20
147.36565667229732
 40
0.1627875663138724
  0
CIRCLE
  8
_1-1_
  6
CONTINUOUS
 62
    7
 10
129.582614383182
 20
148.34238825617609
 40
0.1627875663138724
  0
CIRCLE
  8
_1-1_
  6
CONTINUOUS
 62
    7
 10
132.75698275179477
 20
148.91214319177575
 40
0.1627875663138724
  0
CIRCLE
  8
_1-1_
  6
CONTINUOUS
 62
    7
 10
134.87322420687289
 20
147.77263332057643
 40
0.1627875663138724
  0
CIRCLE
  8
_1-1_
  6
CONTINUOUS
 62
    7
 10
145.54212415540542
 20
142.32549306508659
 40
0.1627875663138724
  0
CIRCLE
  8
_1-1_
  6
CONTINUOUS
 62
    7
 10
145.70491481471706
 20
141.43015681086359
 40
0.1627875663138724
  0
CIRCLE
  8
_1-1_
  6
CONTINUOUS
 62
    7
 10
146.76302935626057
 20
141.18597082189612
 40
0.1627875663138724
  0
CIRCLE
  8
_1-1_
  6
CONTINUOUS
 62
    7
 10
143.91424230627112
 20
142.16270240577492
 40
0.1627875663138724
  0
CIRCLE
  8
_1-1_
  6
CONTINUOUS
 62
    7
 10
147.08861067488388
 20
142.73245734137458
 40
0.1627875663138724
  0
CIRCLE
  8
_1-1_
  6
CONTINUOUS
 62
    7
 10
149.20485212996201
 20
141.59294747017526
 40
0.1627875663138724
  0
CIRCLE
  8
_1-1_
  6
CONTINUOUS
 62
    7
 10
149.2236328125
 20
137.85507202148437
 40
0.1627875663138724
  0
CIRCLE
  8
_1-1_
  6
CONTINUOUS
 62
    7
 10
149.38642347181167
 20
136.95973576726141
 40
0.1627875663138724
  0
CIRCLE
  8
_1-1_
  6
CONTINUOUS
 62
    7
 10
150.44453801335516
 20
136.71554977829393
 40
0.1627875663138724
  0
CIRCLE
  8
_1-1_
  6
CONTINUOUS
 62
    7
 10
147.59575096336573
 20
137.69228136217274
 40
0.1627875663138724
  0
CIRCLE
  8
_1-1_
  6
CONTINUOUS
 62
    7
 10
150.77011933197846
 20
138.2620362977724
 40
0.1627875663138724
  0
CIRCLE
  8
_1-1_
  6
CONTINUOUS
 62
    7
 10
152.88636078705659
 20
137.12252642657307
 40
0.1627875663138724
  0
CIRCLE
  8
_1-1_
  6
CONTINUOUS
 62
    7
 10
178.41283437368034
 20
125.62716509844806
 40
0.1627875663138724
  0
CIRCLE
  8
_1-1_
  6
CONTINUOUS
 62
    7
 10
178.57562503299198
 20
124.73182884422509
 40
0.1627875663138724
  0
CIRCLE
  8
_1-1_
  6
CONTINUOUS
 62
    7
 10
179.6337395745355
 20
124.4876428552576
 40
0.1627875663138724
  0
CIRCLE
  8
_1-1_
  6
CONTINUOUS
 62
    7
 10
176.78495252454604
 20
125.46437443913641
 40
0.1627875663138724
  0
CIRCLE
  8
_1-1_
  6
CONTINUOUS
 62
    7
 10
179.9593208931588
 20
126.03412937473607
 40
0.1627875663138724
  0
CIRCLE
  8
_1-1_
  6
CONTINUOUS
 62
    7
 10
182.07556234823693
 20
124.89461950353675
 40
0.1627875663138724
  0
CIRCLE
  8
_1-1_
  6
CONTINUOUS
 62
    7
 10
173.15351331556167
 20
127.4679317989865
 40
0.1627875663138724
  0
CIRCLE
  8
_1-1_
  6
CONTINUOUS
 62
    7
 10
173.31630397487331
 20
126.57259554476352
 40
0.1627875663138724
  0
CIRCLE
  8
_1-1_
  6
CONTINUOUS
 62
    7
 10
174.37441851641682
 20
126.32840955579604
 40
0.1627875663138724
  0
CIRCLE
  8
_1-1_
  6
CONTINUOUS
 62
    7
 10
171.52563146642737
 20
127.30514113967484
 40
0.1627875663138724
  0
CIRCLE
  8
_1-1_
  6
CONTINUOUS
 62
    7
 10
174.69999983504013
 20
127.87489607527451
 40
0.1627875663138724
  0
CIRCLE
  8
_1-1_
  6
CONTINUOUS
 62
    7
 10
176.81624129011826
 20
126.73538620407517
 40
0.1627875663138724
  0
CIRCLE
  8
_1-1_
  6
CONTINUOUS
 62
    7
 10
170.6553484942462
 20
130.88648615656672
 40
0.1627875663138724
  0
CIRCLE
  8
_1-1_
  6
CONTINUOUS
 62
    7
 10
170.81813915355787
 20
129.99114990234375
 40
0.1627875663138724
  0
CIRCLE
  8
_1-1_
  6
CONTINUOUS
 62
    7
 10
171.87625369510135
 20
129.74696391337628
 40
0.1627875663138724
  0
CIRCLE
  8
_1-1_
  6
CONTINUOUS
 62
    7
 10
169.02746664511193
 20
130.72369549725508
 40
0.1627875663138724
  0
CIRCLE
  8
_1-1_
  6
CONTINUOUS
 62
    7
 10
172.20183501372466
 20
131.29345043285474
 40
0.1627875663138724
  0
CIRCLE
  8
_1-1_
  6
CONTINUOUS
 62
    7
 10
174.31807646880279
 20
130.15394056165542
 40
0.1627875663138724
  0
CIRCLE
  8
_1-1_
  6
CONTINUOUS
 62
    7
 10
166.44789412214951
 20
131.41240712758659
 40
0.1627875663138724
  0
CIRCLE
  8
_1-1_
  6
CONTINUOUS
 62
    7
 10
166.61068478146115
 20
130.51707087336359
 40
0.1627875663138724
  0
CIRCLE
  8
_1-1_
  6
CONTINUOUS
 62
    7
 10
167.66879932300466
 20
130.27288488439612
 40
0.1627875663138724
  0
CIRCLE
  8
_1-1_
  6
CONTINUOUS
 62
    7
 10
164.82001227301521
 20
131.24961646827492
 40
0.1627875663138724
  0
CIRCLE
  8
_1-1_
  6
CONTINUOUS
 62
    7
 10
167.99438064162797
 20
131.81937140387458
 40
0.1627875663138724
  0
CIRCLE
  8
_1-1_
  6
CONTINUOUS
 62
    7
 10
170.11062209670609
 20
130.67986153267526
 40
0.1627875663138724
  0
CIRCLE
  8
_1-1_
  6
CONTINUOUS
 62
    7
 10
184.59253259607266
 20
122.9975107553843
 40
0.1627875663138724
  0
CIRCLE
  8
_1-1_
  6
CONTINUOUS
 62
    7
 10
184.7553232553843
 20
122.10217450116133
 40
0.1627875663138724
  0
CIRCLE
  8
_1-1_
  6
CONTINUOUS
 62
    7
 10
185.81343779692779
 20
121.85798851219384
 40
0.1627875663138724
  0
CIRCLE
  8
_1-1_
  6
CONTINUOUS
 62
    7
 10
182.96465074693836
 20
122.83472009607264
 40
0.1627875663138724
  0
CIRCLE
  8
_1-1_
  6
CONTINUOUS
 62
    7
 10
186.13901911555112
 20
123.40447503167231
 40
0.1627875663138724
  0
CIRCLE
  8
_1-1_
  6
CONTINUOUS
 62
    7
 10
188.25526057062925
 20
122.26496516047298
 40
0.1627875663138724
  0
CIRCLE
  8
_1-1_
  6
CONTINUOUS
 62
    7
 10
177.36096768765836
 20
127.86237562024917
 40
0.1627875663138724
  0
CIRCLE
  8
_1-1_
  6
CONTINUOUS
 62
    7
 10
177.52375834697003
 20
126.96703936602619
 40
0.1627875663138724
  0
CIRCLE
  8
_1-1_
  6
CONTINUOUS
 62
    7
 10
178.58187288851352
 20
126.72285337705871
 40
0.1627875663138724
  0
CIRCLE
  8
_1-1_
  6
CONTINUOUS
 62
    7
 10
175.73308583852409
 20
127.6995849609375
 40
0.1627875663138724
  0
CIRCLE
  8
_1-1_
  6
CONTINUOUS
 62
    7
 10
178.90745420713682
 20
128.26933989653716
 40
0.1627875663138724
  0
CIRCLE
  8
_1-1_
  6
CONTINUOUS
 62
    7
 10
181.02369566221495
 20
127.12983002533784
 40
0.1627875663138724
  0
CIRCLE
  8
_1-1_
  6
CONTINUOUS
 62
    7
 10
187.61663076039909
 20
122.9975107553843
 40
0.1627875663138724
  0
CIRCLE
  8
_1-1_
  6
CONTINUOUS
 62
    7
 10
187.77942141971073
 20
122.10217450116133
 40
0.1627875663138724
  0
CIRCLE
  8
_1-1_
  6
CONTINUOUS
 62
    7
 10
188.83753596125425
 20
121.85798851219384
 40
0.1627875663138724
  0
CIRCLE
  8
_1-1_
  6
CONTINUOUS
 62
    7
 10
185.98874891126479
 20
122.83472009607264
 40
0.1627875663138724
  0
CIRCLE
  8
_1-1_
  6
CONTINUOUS
 62
    7
 10
189.16311727987755
 20
123.40447503167231
 40
0.1627875663138724
  0
CIRCLE
  8
_1-1_
  6
CONTINUOUS
 62
    7
 10
191.27935873495568
 20
122.26496516047298
 40
0.1627875663138724
  0
CIRCLE
  8
_1-1_
  6
CONTINUOUS
 62
    7
 10
204.70939017630914
 20
122.20861074086783
 40
0.1627875663138724
  0
CIRCLE
  8
_1-1_
  6
CONTINUOUS
 62
    7
 10
204.87218083562078
 20
121.31327448664486
 40
0.1627875663138724
  0
CIRCLE
  8
_1-1_
  6
CONTINUOUS
 62
    7
 10
205.9302953771643
 20
121.06908849767737
 40
0.1627875663138724
  0
CIRCLE
  8
_1-1_
  6
CONTINUOUS
 62
    7
 10
203.08150832717484
 20
122.04582008155617
 40
0.1627875663138724
  0
CIRCLE
  8
_1-1_
  6
CONTINUOUS
 62
    7
 10
206.25587669578761
 20
122.61557501715583
 40
0.1627875663138724
  0
CIRCLE
  8
_1-1_
  6
CONTINUOUS
 62
    7
 10
208.37211815086573
 20
121.47606514595651
 40
0.1627875663138724
  0
CIRCLE
  8
_1-1_
  6
CONTINUOUS
 62
    7
 10
208.12794453388938
 20
123.78641076990077
 40
0.1627875663138724
  0
CIRCLE
  8
_1-1_
  6
CONTINUOUS
 62
    7
 10
208.29073519320102
 20
122.8910745156778
 40
0.1627875663138724
  0
CIRCLE
  8
_1-1_
  6
CONTINUOUS
 62
    7
 10
209.34883736275339
 20
122.64688852671031
 40
0.1627875663138724
  0
CIRCLE
  8
_1-1_
  6
CONTINUOUS
 62
    7
 10
206.50006268475508
 20
123.62362011058912
 40
0.1627875663138724
  0
CIRCLE
  8
_1-1_
  6
CONTINUOUS
 62
    7
 10
209.67441868137669
 20
124.19337504618878
 40
0.1627875663138724
  0
CIRCLE
  8
_1-1_
  6
CONTINUOUS
 62
    7
 10
211.79067250844597
 20
123.05386517498945
 40
0.1627875663138724
  0
CIRCLE
  8
_1-1_
  6
CONTINUOUS
 62
    7
 10
227.16477677628802
 20
132.42201109190245
 40
0.1627875663138724
  0
CIRCLE
  8
_1-1_
  6
CONTINUOUS
 62
    7
 10
227.32756743559966
 20
131.52667483767948
 40
0.1627875663138724
  0
CIRCLE
  8
_1-1_
  6
CONTINUOUS
 62
    7
 10
228.38566960515203
 20
131.28248884871201
 40
0.1627875663138724
  0
CIRCLE
  8
_1-1_
  6
CONTINUOUS
 62
    7
 10
225.53689492715372
 20
132.25922043259081
 40
0.1627875663138724
  0
CIRCLE
  8
_1-1_
  6
CONTINUOUS
 62
    7
 10
228.71125092377534
 20
132.82897536819047
 40
0.1627875663138724
  0
CIRCLE
  8
_1-1_
  6
CONTINUOUS
 62
    7
 10
230.82750475084461
 20
131.68946549699115
 40
0.1627875663138724
  0
CIRCLE
  8
_1-1_
  6
CONTINUOUS
 62
    7
 10
224.86069137985643
 20
130.54995562579182
 40
0.1627875663138724
  0
CIRCLE
  8
_1-1_
  6
CONTINUOUS
 62
    7
 10
225.02348203916807
 20
129.65461937156883
 40
0.1627875663138724
  0
CIRCLE
  8
_1-1_
  6
CONTINUOUS
 62
    7
 10
226.08160895270271
 20
129.41043338260135
 40
0.1627875663138724
  0
CIRCLE
  8
_1-1_
  6
CONTINUOUS
 62
    7
 10
223.23280953072214
 20
130.38716496648016
 40
0.1627875663138724
  0
CIRCLE
  8
_1-1_
  6
CONTINUOUS
 62
    7
 10
226.40719027132602
 20
130.95691990207982
 40
0.1627875663138724
  0
CIRCLE
  8
_1-1_
  6
CONTINUOUS
 62
    7
 10
228.52341935441302
 20
129.8174100308805
 40
0.1627875663138724
  0
CIRCLE
  8
_1-1_
  6
CONTINUOUS
 62
    7
 10
219.82051540065459
 20
128.24587022936024
 40
0.1627875663138724
  0
CIRCLE
  8
_1-1_
  6
CONTINUOUS
 62
    7
 10
219.98330605996622
 20
127.35053397513725
 40
0.1627875663138724
  0
CIRCLE
  8
_1-1_
  6
CONTINUOUS
 62
    7
 10
221.04140822951859
 20
127.10634798616977
 40
0.1627875663138724
  0
CIRCLE
  8
_1-1_
  6
CONTINUOUS
 62
    7
 10
218.19263355152029
 20
128.08307957004857
 40
0.1627875663138724
  0
CIRCLE
  8
_1-1_
  6
CONTINUOUS
 62
    7
 10
221.3669895481419
 20
128.65283450564823
 40
0.1627875663138724
  0
CIRCLE
  8
_1-1_
  6
CONTINUOUS
 62
    7
 10
223.48324337521117
 20
127.51332463444891
 40
0.1627875663138724
  0
CIRCLE
  8
_1-1_
  6
CONTINUOUS
 62
    7
 10
217.0844248178843
 20
126.37380239125845
 40
0.1627875663138724
  0
CIRCLE
  8
_1-1_
  6
CONTINUOUS
 62
    7
 10
217.24721547719597
 20
125.47846613703548
 40
0.1627875663138724
  0
CIRCLE
  8
_1-1_
  6
CONTINUOUS
 62
    7
 10
218.30531764674834
 20
125.234280148068
 40
0.1627875663138724
  0
CIRCLE
  8
_1-1_
  6
CONTINUOUS
 62
    7
 10
215.45654296875
 20
126.2110117319468
 40
0.1627875663138724
  0
CIRCLE
  8
_1-1_
  6
CONTINUOUS
 62
    7
 10
218.63089896537164
 20
126.78076666754646
 40
0.1627875663138724
  0
CIRCLE
  8
_1-1_
  6
CONTINUOUS
 62
    7
 10
220.74715279244089
 20
125.64125679634714
 40
0.1627875663138724
  0
CIRCLE
  8
_1-1_
  6
CONTINUOUS
 62
    7
 10
212.76427397856841
 20
124.78975450670397
 40
0.1627875663138724
  0
CIRCLE
  8
_1-1_
  6
CONTINUOUS
 62
    7
 10
212.92706463788008
 20
123.894418252481
 40
0.1627875663138724
  0
CIRCLE
  8
_1-1_
  6
CONTINUOUS
 62
    7
 10
213.98516680743245
 20
123.65023226351352
 40
0.1627875663138724
  0
CIRCLE
  8
_1-1_
  6
CONTINUOUS
 62
    7
 10
211.13639212943414
 20
124.62696384739232
 40
0.1627875663138724
  0
CIRCLE
  8
_1-1_
  6
CONTINUOUS
 62
    7
 10
214.31074812605576
 20
125.19671878299198
 40
0.1627875663138724
  0
CIRCLE
  8
_1-1_
  6
CONTINUOUS
 62
    7
 10
216.427001953125
 20
124.05720891179266
 40
0.1627875663138724
  0
CIRCLE
  8
_1-1_
  6
CONTINUOUS
 62
    7
 10
249.05355092641472
 20
140.05428004909206
 40
0.1627875663138724
  0
CIRCLE
  8
_1-1_
  6
CONTINUOUS
 62
    7
 10
249.21634158572635
 20
139.15894379486909
 40
0.1627875663138724
  0
CIRCLE
  8
_1-1_
  6
CONTINUOUS
 62
    7
 10
250.27444375527872
 20
138.91475780590162
 40
0.1627875663138724
  0
CIRCLE
  8
_1-1_
  6
CONTINUOUS
 62
    7
 10
247.42566907728042
 20
139.89148938978042
 40
0.1627875663138724
  0
CIRCLE
  8
_1-1_
  6
CONTINUOUS
 62
    7
 10
250.60002507390203
 20
140.46124432538008
 40
0.1627875663138724
  0
CIRCLE
  8
_1-1_
  6
CONTINUOUS
 62
    7
 10
252.7162789009713
 20
139.32173445418076
 40
0.1627875663138724
  0
CIRCLE
  8
_1-1_
  6
CONTINUOUS
 62
    7
 10
243.29334980732688
 20
139.19025730442357
 40
0.1627875663138724
  0
CIRCLE
  8
_1-1_
  6
CONTINUOUS
 62
    7
 10
243.45614046663852
 20
138.2949210502006
 40
0.1627875663138724
  0
CIRCLE
  8
_1-1_
  6
CONTINUOUS
 62
    7
 10
244.51424263619089
 20
138.05073506123313
 40
0.1627875663138724
  0
CIRCLE
  8
_1-1_
  6
CONTINUOUS
 62
    7
 10
244.83982395481419
 20
139.59722158071159
 40
0.1627875663138724
  0
CIRCLE
  8
_1-1_
  6
CONTINUOUS
 62
    7
 10
246.95607778188347
 20
138.45771170951227
 40
0.1627875663138724
  0
CIRCLE
  8
_1-1_
  6
CONTINUOUS
 62
    7
 10
258.12585779138516
 20
145.09445602829393
 40
0.1627875663138724
  0
CIRCLE
  8
_1-1_
  6
CONTINUOUS
 62
    7
 10
258.28864845069683
 20
144.19911977407097
 40
0.1627875663138724
  0
CIRCLE
  8
_1-1_
  6
CONTINUOUS
 62
    7
 10
259.34677536423141
 20
143.95493378510346
 40
0.1627875663138724
  0
CIRCLE
  8
_1-1_
  6
CONTINUOUS
 62
    7
 10
256.49797594225083
 20
144.93166536898227
 40
0.1627875663138724
  0
CIRCLE
  8
_1-1_
  6
CONTINUOUS
 62
    7
 10
259.67235668285474
 20
145.50142030458193
 40
0.1627875663138724
  0
CIRCLE
  8
_1-1_
  6
CONTINUOUS
 62
    7
 10
261.78858576594172
 20
144.3619104333826
 40
0.1627875663138724
  0
CIRCLE
  8
_1-1_
  6
CONTINUOUS
 62
    7
 10
254.52573209195526
 20
143.79841572529563
 40
0.1627875663138724
  0
CIRCLE
  8
_1-1_
  6
CONTINUOUS
 62
    7
 10
254.6885227512669
 20
142.90307947107263
 40
0.1627875663138724
  0
CIRCLE
  8
_1-1_
  6
CONTINUOUS
 62
    7
 10
255.74662492081927
 20
142.65889348210516
 40
0.1627875663138724
  0
CIRCLE
  8
_1-1_
  6
CONTINUOUS
 62
    7
 10
252.89785024282097
 20
143.63562506598396
 40
0.1627875663138724
  0
CIRCLE
  8
_1-1_
  6
CONTINUOUS
 62
    7
 10
256.07220623944261
 20
144.20538000158362
 40
0.1627875663138724
  0
CIRCLE
  8
_1-1_
  6
CONTINUOUS
 62
    7
 10
258.18846006651182
 20
143.0658701303843
 40
0.1627875663138724
  0
CIRCLE
  8
_1-1_
  6
CONTINUOUS
 62
    7
 10
251.64563153241133
 20
141.78233791042018
 40
0.1627875663138724
  0
CIRCLE
  8
_1-1_
  6
CONTINUOUS
 62
    7
 10
251.808422191723
 20
140.88700165619721
 40
0.1627875663138724
  0
CIRCLE
  8
_1-1_
  6
CONTINUOUS
 62
    7
 10
252.86652436127534
 20
140.64281566722974
 40
0.1627875663138724
  0
CIRCLE
  8
_1-1_
  6
CONTINUOUS
 62
    7
 10
250.01774968327703
 20
141.61954725110854
 40
0.1627875663138724
  0
CIRCLE
  8
_1-1_
  6
CONTINUOUS
 62
    7
 10
253.19210567989867
 20
142.1893021867082
 40
0.1627875663138724
  0
CIRCLE
  8
_1-1_
  6
CONTINUOUS
 62
    7
 10
255.30835950696792
 20
141.04979231550888
 40
0.1627875663138724
  0
CIRCLE
  8
_1-1_
  6
CONTINUOUS
 62
    7
 10
263.74204893369932
 20
146.39050870328336
 40
0.1627875663138724
  0
CIRCLE
  8
_1-1_
  6
CONTINUOUS
 62
    7
 10
263.90483959301099
 20
145.49517244906039
 40
0.1627875663138724
  0
CIRCLE
  8
_1-1_
  6
CONTINUOUS
 62
    7
 10
264.96296650654563
 20
145.25098646009292
 40
0.1627875663138724
  0
CIRCLE
  8
_1-1_
  6
CONTINUOUS
 62
    7
 10
262.11416708456505
 20
146.22771804397172
 40
0.1627875663138724
  0
CIRCLE
  8
_1-1_
  6
CONTINUOUS
 62
    7
 10
265.28854782516896
 20
146.79747297957138
 40
0.1627875663138724
  0
CIRCLE
  8
_1-1_
  6
CONTINUOUS
 62
    7
 10
267.40477690825594
 20
145.65796310837206
 40
0.1627875663138724
  0
CIRCLE
  8
_1-1_
  6
CONTINUOUS
 62
    7
 10
267.05415467958193
 20
149.55860447239232
 40
0.1627875663138724
  0
CIRCLE
  8
_1-1_
  6
CONTINUOUS
 62
    7
 10
267.21694533889359
 20
148.66326821816935
 40
0.1627875663138724
  0
CIRCLE
  8
_1-1_
  6
CONTINUOUS
 62
    7
 10
268.27504750844594
 20
148.41908222920188
 40
0.1627875663138724
  0
CIRCLE
  8
_1-1_
  6
CONTINUOUS
 62
    7
 10
265.42627283044766
 20
149.39581381308068
 40
0.1627875663138724
  0
CIRCLE
  8
_1-1_
  6
CONTINUOUS
 62
    7
 10
268.60062882706927
 20
149.96556874868034
 40
0.1627875663138724
  0
CIRCLE
  8
_1-1_
  6
CONTINUOUS
 62
    7
 10
270.71688265413854
 20
148.82605887748102
 40
0.1627875663138724
  0
CIRCLE
  8
_1-1_
  6
CONTINUOUS
 62
    7
 10
269.64626002956084
 20
152.15069745038008
 40
0.1627875663138724
  0
CIRCLE
  8
_1-1_
  6
CONTINUOUS
 62
    7
 10
269.8090506888725
 20
151.25536119615711
 40
0.1627875663138724
  0
CIRCLE
  8
_1-1_
  6
CONTINUOUS
 62
    7
 10
270.86717760240708
 20
151.01117520718961
 40
0.1627875663138724
  0
CIRCLE
  8
_1-1_
  6
CONTINUOUS
 62
    7
 10
268.01837818042651
 20
151.98790679106841
 40
0.1627875663138724
  0
CIRCLE
  8
_1-1_
  6
CONTINUOUS
 62
    7
 10
271.19275892103042
 20
152.55766172666807
 40
0.1627875663138724
  0
CIRCLE
  8
_1-1_
  6
CONTINUOUS
 62
    7
 10
273.3089880041174
 20
151.41815185546875
 40
0.1627875663138724
  0
CIRCLE
  8
_1-1_
  6
CONTINUOUS
 62
    7
 10
272.23834063555745
 20
151.28667470571159
 40
0.1627875663138724
  0
CIRCLE
  8
_1-1_
  6
CONTINUOUS
 62
    7
 10
272.40113129486912
 20
150.39133845148859
 40
0.1627875663138724
  0
CIRCLE
  8
_1-1_
  6
CONTINUOUS
 62
    7
 10
273.45925820840375
 20
150.14715246252112
 40
0.1627875663138724
  0
CIRCLE
  8
_1-1_
  6
CONTINUOUS
 62
    7
 10
270.61045878642318
 20
151.12388404639992
 40
0.1627875663138724
  0
CIRCLE
  8
_1-1_
  6
CONTINUOUS
 62
    7
 10
273.78483952702703
 20
151.69363898199958
 40
0.1627875663138724
  0
CIRCLE
  8
_1-1_
  6
CONTINUOUS
 62
    7
 10
275.90106861011401
 20
150.55412911080026
 40
0.1627875663138724
  0
CIRCLE
  8
_1-1_
  6
CONTINUOUS
 62
    7
 10
288.22290368982266
 20
158.91893129091005
 40
0.1627875663138724
  0
CIRCLE
  8
_1-1_
  6
CONTINUOUS
 62
    7
 10
288.38569434913433
 20
158.02359503668708
 40
0.1627875663138724
  0
CIRCLE
  8
_1-1_
  6
CONTINUOUS
 62
    7
 10
289.44382126266896
 20
157.77940904771961
 40
0.1627875663138724
  0
CIRCLE
  8
_1-1_
  6
CONTINUOUS
 62
    7
 10
286.59502184068833
 20
158.75614063159841
 40
0.1627875663138724
  0
CIRCLE
  8
_1-1_
  6
CONTINUOUS
 62
    7
 10
289.76940258129224
 20
159.32589556719807
 40
0.1627875663138724
  0
CIRCLE
  8
_1-1_
  6
CONTINUOUS
 62
    7
 10
291.88563166437922
 20
158.18638569599875
 40
0.1627875663138724
  0
CIRCLE
  8
_1-1_
  6
CONTINUOUS
 62
    7
 10
281.59866745407521
 20
156.03883073136615
 40
0.1627875663138724
  0
CIRCLE
  8
_1-1_
  6
CONTINUOUS
 62
    7
 10
281.76145811338682
 20
155.14349447714318
 40
0.1627875663138724
  0
CIRCLE
  8
_1-1_
  6
CONTINUOUS
 62
    7
 10
282.81956028293922
 20
154.89930848817568
 40
0.1627875663138724
  0
CIRCLE
  8
_1-1_
  6
CONTINUOUS
 62
    7
 10
279.97078560494089
 20
155.87604007205448
 40
0.1627875663138724
  0
CIRCLE
  8
_1-1_
  6
CONTINUOUS
 62
    7
 10
283.1451416015625
 20
156.44579500765414
 40
0.1627875663138724
  0
CIRCLE
  8
_1-1_
  6
CONTINUOUS
 62
    7
 10
285.26139542863177
 20
155.30628513645482
 40
0.1627875663138724
  0
CIRCLE
  8
_1-1_
  6
CONTINUOUS
 62
    7
 10
276.84651142842063
 20
153.59074773015203
 40
0.1627875663138724
  0
CIRCLE
  8
_1-1_
  6
CONTINUOUS
 62
    7
 10
277.00930208773229
 20
152.69541147592906
 40
0.1627875663138724
  0
CIRCLE
  8
_1-1_
  6
CONTINUOUS
 62
    7
 10
278.06742900126693
 20
152.45122548696159
 40
0.1627875663138724
  0
CIRCLE
  8
_1-1_
  6
CONTINUOUS
 62
    7
 10
275.21862957928636
 20
153.42795707084039
 40
0.1627875663138724
  0
CIRCLE
  8
_1-1_
  6
CONTINUOUS
 62
    7
 10
278.39301031989021
 20
153.99771200644005
 40
0.1627875663138724
  0
CIRCLE
  8
_1-1_
  6
CONTINUOUS
 62
    7
 10
280.50923940297719
 20
152.85820213524073
 40
0.1627875663138724
  0
CIRCLE
  8
_1-1_
  6
CONTINUOUS
 62
    7
 10
284.76678796716641
 20
156.18284070813979
 40
0.1627875663138724
  0
CIRCLE
  8
_1-1_
  6
CONTINUOUS
 62
    7
 10
284.92957862647808
 20
155.28750445391682
 40
0.1627875663138724
  0
CIRCLE
  8
_1-1_
  6
CONTINUOUS
 62
    7
 10
285.98768079603042
 20
155.04331846494932
 40
0.1627875663138724
  0
CIRCLE
  8
_1-1_
  6
CONTINUOUS
 62
    7
 10
283.13890611803208
 20
156.02005004882812
 40
0.1627875663138724
  0
CIRCLE
  8
_1-1_
  6
CONTINUOUS
 62
    7
 10
286.31326211465375
 20
156.58980498442779
 40
0.1627875663138724
  0
CIRCLE
  8
_1-1_
  6
CONTINUOUS
 62
    7
 10
288.42951594172297
 20
155.45029511322846
 40
0.1627875663138724
  0
CIRCLE
  8
_1-1_
  6
CONTINUOUS
 62
    7
 10
293.11906969225089
 20
159.63895643079604
 40
0.1627875663138724
  0
CIRCLE
  8
_1-1_
  6
CONTINUOUS
 62
    7
 10
293.2818603515625
 20
158.74362017657307
 40
0.1627875663138724
  0
CIRCLE
  8
_1-1_
  6
CONTINUOUS
 62
    7
 10
294.33998726509714
 20
158.49943418760557
 40
0.1627875663138724
  0
CIRCLE
  8
_1-1_
  6
CONTINUOUS
 62
    7
 10
291.49118784311656
 20
159.47616577148437
 40
0.1627875663138724
  0
CIRCLE
  8
_1-1_
  6
CONTINUOUS
 62
    7
 10
294.66556858372047
 20
160.04592070708404
 40
0.1627875663138724
  0
CIRCLE
  8
_1-1_
  6
CONTINUOUS
 62
    7
 10
296.78179766680745
 20
158.90641083588471
 40
0.1627875663138724
  0
CIRCLE
  8
_1-1_
  6
CONTINUOUS
 62
    7
 10
291.06541814030828
 20
158.74988040408573
 40
0.1627875663138724
  0
CIRCLE
  8
_1-1_
  6
CONTINUOUS
 62
    7
 10
293.18167196737755
 20
157.61037053288641
 40
0.1627875663138724
  0
CIRCLE
  8
_1-1_
  6
CONTINUOUS
 62
    7
 10
301.7593713708826
 20
163.23909450221706
 40
0.1627875663138724
  0
CIRCLE
  8
_1-1_
  6
CONTINUOUS
 62
    7
 10
301.92216203019427
 20
162.34375824799409
 40
0.1627875663138724
  0
CIRCLE
  8
_1-1_
  6
CONTINUOUS
 62
    7
 10
302.98028894372891
 20
162.09957225902662
 40
0.1627875663138724
  0
CIRCLE
  8
_1-1_
  6
CONTINUOUS
 62
    7
 10
300.13148952174834
 20
163.07630384290542
 40
0.1627875663138724
  0
CIRCLE
  8
_1-1_
  6
CONTINUOUS
 62
    7
 10
303.30587026235219
 20
163.64605877850508
 40
0.1627875663138724
  0
CIRCLE
  8
_1-1_
  6
CONTINUOUS
 62
    7
 10
305.42209934543922
 20
162.50654890730576
 40
0.1627875663138724
  0
CIRCLE
  8
_1-1_
  6
CONTINUOUS
 62
    7
 10
299.70571981894005
 20
162.35001847550677
 40
0.1627875663138724
  0
CIRCLE
  8
_1-1_
  6
CONTINUOUS
 62
    7
 10
301.82197364600933
 20
161.21050860430745
 40
0.1627875663138724
  0
CIRCLE
  8
_1-1_
  6
CONTINUOUS
 62
    7
 10
296.43120018211573
 20
163.38309210699958
 40
0.1627875663138724
  0
CIRCLE
  8
_1-1_
  6
CONTINUOUS
 62
    7
 10
296.5939908414274
 20
162.48775585277662
 40
0.1627875663138724
  0
CIRCLE
  8
_1-1_
  6
CONTINUOUS
 62
    7
 10
297.65211775496203
 20
162.24356986380914
 40
0.1627875663138724
  0
CIRCLE
  8
_1-1_
  6
CONTINUOUS
 62
    7
 10
294.80331833298146
 20
163.22030144768794
 40
0.1627875663138724
  0
CIRCLE
  8
_1-1_
  6
CONTINUOUS
 62
    7
 10
297.97769907358531
 20
163.79005638328761
 40
0.1627875663138724
  0
CIRCLE
  8
_1-1_
  6
CONTINUOUS
 62
    7
 10
300.09392815667229
 20
162.65054651208828
 40
0.1627875663138724
  0
CIRCLE
  8
_1-1_
  6
CONTINUOUS
 62
    7
 10
294.37754863017318
 20
162.49401608028927
 40
0.1627875663138724
  0
CIRCLE
  8
_1-1_
  6
CONTINUOUS
 62
    7
 10
296.4938024572424
 20
161.35450620908995
 40
0.1627875663138724
  0
CIRCLE
  8
_1-1_
  6
CONTINUOUS
 62
    7
 10
307.95160242029141
 20
166.26319266654352
 40
0.1627875663138724
  0
CIRCLE
  8
_1-1_
  6
CONTINUOUS
 62
    7
 10
308.11439307960308
 20
165.36785641232052
 40
0.1627875663138724
  0
CIRCLE
  8
_1-1_
  6
CONTINUOUS
 62
    7
 10
309.17251999313771
 20
165.12367042335305
 40
0.1627875663138724
  0
CIRCLE
  8
_1-1_
  6
CONTINUOUS
 62
    7
 10
306.32372057115714
 20
166.10040200723185
 40
0.1627875663138724
  0
CIRCLE
  8
_1-1_
  6
CONTINUOUS
 62
    7
 10
309.49810131176099
 20
166.67015694283151
 40
0.1627875663138724
  0
CIRCLE
  8
_1-1_
  6
CONTINUOUS
 62
    7
 10
311.61433039484797
 20
165.53064707163219
 40
0.1627875663138724
  0
CIRCLE
  8
_1-1_
  6
CONTINUOUS
 62
    7
 10
305.89795086834886
 20
165.3741166398332
 40
0.1627875663138724
  0
CIRCLE
  8
_1-1_
  6
CONTINUOUS
 62
    7
 10
308.01420469541807
 20
164.23460676863388
 40
0.1627875663138724
  0
CIRCLE
  8
_1-1_
  6
CONTINUOUS
 62
    7
 10
305.21551183752115
 20
167.12722778320312
 40
0.1627875663138724
  0
CIRCLE
  8
_1-1_
  6
CONTINUOUS
 62
    7
 10
305.37830249683276
 20
166.23189152898016
 40
0.1627875663138724
  0
CIRCLE
  8
_1-1_
  6
CONTINUOUS
 62
    7
 10
306.4364294103674
 20
165.98770554001268
 40
0.1627875663138724
  0
CIRCLE
  8
_1-1_
  6
CONTINUOUS
 62
    7
 10
303.58762998838682
 20
166.96443712389149
 40
0.1627875663138724
  0
CIRCLE
  8
_1-1_
  6
CONTINUOUS
 62
    7
 10
306.76201072899073
 20
167.53419205949115
 40
0.1627875663138724
  0
CIRCLE
  8
_1-1_
  6
CONTINUOUS
 62
    7
 10
308.87823981207771
 20
166.39468218829182
 40
0.1627875663138724
  0
CIRCLE
  8
_1-1_
  6
CONTINUOUS
 62
    7
 10
303.16186028557854
 20
166.23815175649284
 40
0.1627875663138724
  0
CIRCLE
  8
_1-1_
  6
CONTINUOUS
 62
    7
 10
305.27811411264781
 20
165.09864188529352
 40
0.1627875663138724
  0
CIRCLE
  8
_1-1_
  6
CONTINUOUS
 62
    7
 10
315.00784384237755
 20
169.28729083086995
 40
0.1627875663138724
  0
CIRCLE
  8
_1-1_
  6
CONTINUOUS
 62
    7
 10
315.17063450168922
 20
168.39195457664698
 40
0.1627875663138724
  0
CIRCLE
  8
_1-1_
  6
CONTINUOUS
 62
    7
 10
316.22876141522386
 20
168.14776858767948
 40
0.1627875663138724
  0
CIRCLE
  8
_1-1_
  6
CONTINUOUS
 62
    7
 10
313.37996199324328
 20
169.12450017155828
 40
0.1627875663138724
  0
CIRCLE
  8
_1-1_
  6
CONTINUOUS
 62
    7
 10
316.55434273384714
 20
169.69425510715794
 40
0.1627875663138724
  0
CIRCLE
  8
_1-1_
  6
CONTINUOUS
 62
    7
 10
318.67057181693411
 20
168.55474523595862
 40
0.1627875663138724
  0
CIRCLE
  8
_1-1_
  6
CONTINUOUS
 62
    7
 10
312.954192290435
 20
168.39821480415964
 40
0.1627875663138724
  0
CIRCLE
  8
_1-1_
  6
CONTINUOUS
 62
    7
 10
315.07044611750422
 20
167.25870493296031
 40
0.1627875663138724
  0
CIRCLE
  8
_1-1_
  6
CONTINUOUS
 62
    7
 10
328.2563163138725
 20
177.20757974160685
 40
0.1627875663138724
  0
CIRCLE
  8
_1-1_
  6
CONTINUOUS
 62
    7
 10
328.41910697318411
 20
176.31224348738388
 40
0.1627875663138724
  0
CIRCLE
  8
_1-1_
  6
CONTINUOUS
 62
    7
 10
329.47723388671875
 20
176.06805749841641
 40
0.1627875663138724
  0
CIRCLE
  8
_1-1_
  6
CONTINUOUS
 62
    7
 10
326.62843446473818
 20
177.04478908229518
 40
0.1627875663138724
  0
CIRCLE
  8
_1-1_
  6
CONTINUOUS
 62
    7
 10
329.80281520534209
 20
177.61454401789487
 40
0.1627875663138724
  0
CIRCLE
  8
_1-1_
  6
CONTINUOUS
 62
    7
 10
331.91904428842906
 20
176.47503414669552
 40
0.1627875663138724
  0
CIRCLE
  8
_1-1_
  6
CONTINUOUS
 62
    7
 10
326.2026647619299
 20
176.31850371489654
 40
0.1627875663138724
  0
CIRCLE
  8
_1-1_
  6
CONTINUOUS
 62
    7
 10
328.31891858899917
 20
175.17899384369721
 40
0.1627875663138724
  0
CIRCLE
  8
_1-1_
  6
CONTINUOUS
 62
    7
 10
320.48002500791807
 20
172.74341892551732
 40
0.1627875663138724
  0
CIRCLE
  8
_1-1_
  6
CONTINUOUS
 62
    7
 10
320.64281566722974
 20
171.84808267129435
 40
0.1627875663138724
  0
CIRCLE
  8
_1-1_
  6
CONTINUOUS
 62
    7
 10
321.70094258076438
 20
171.60389668232688
 40
0.1627875663138724
  0
CIRCLE
  8
_1-1_
  6
CONTINUOUS
 62
    7
 10
318.8521431587838
 20
172.58062826620568
 40
0.1627875663138724
  0
CIRCLE
  8
_1-1_
  6
CONTINUOUS
 62
    7
 10
322.02652389938771
 20
173.15038320180534
 40
0.1627875663138724
  0
CIRCLE
  8
_1-1_
  6
CONTINUOUS
 62
    7
 10
324.14275298247469
 20
172.01087333060602
 40
0.1627875663138724
  0
CIRCLE
  8
_1-1_
  6
CONTINUOUS
 62
    7
 10
318.42637345597552
 20
171.85434289880703
 40
0.1627875663138724
  0
CIRCLE
  8
_1-1_
  6
CONTINUOUS
 62
    7
 10
320.54262728304479
 20
170.71483302760768
 40
0.1627875663138724
  0
CIRCLE
  8
_1-1_
  6
CONTINUOUS
 62
    7
 10
311.69571335251271
 20
169.71932076119089
 40
0.1627875663138724
  0
CIRCLE
  8
_1-1_
  6
CONTINUOUS
 62
    7
 10
311.85850401182432
 20
168.82398450696792
 40
0.1627875663138724
  0
CIRCLE
  8
_1-1_
  6
CONTINUOUS
 62
    7
 10
312.91663092535896
 20
168.57979851800044
 40
0.1627875663138724
  0
CIRCLE
  8
_1-1_
  6
CONTINUOUS
 62
    7
 10
310.06783150337839
 20
169.55653010187922
 40
0.1627875663138724
  0
CIRCLE
  8
_1-1_
  6
CONTINUOUS
 62
    7
 10
313.24221224398229
 20
170.12628503747891
 40
0.1627875663138724
  0
CIRCLE
  8
_1-1_
  6
CONTINUOUS
 62
    7
 10
315.35844132706927
 20
168.98677516627956
 40
0.1627875663138724
  0
CIRCLE
  8
_1-1_
  6
CONTINUOUS
 62
    7
 10
309.6420618005701
 20
168.83024473448057
 40
0.1627875663138724
  0
CIRCLE
  8
_1-1_
  6
CONTINUOUS
 62
    7
 10
311.75831562763938
 20
167.69073486328125
 40
0.1627875663138724
  0
CIRCLE
  8
_1-1_
  6
CONTINUOUS
 62
    7
 10
337.90463834195526
 20
179.51165276604732
 40
0.1627875663138724
  0
CIRCLE
  8
_1-1_
  6
CONTINUOUS
 62
    7
 10
338.06742900126693
 20
178.61631651182432
 40
0.1627875663138724
  0
CIRCLE
  8
_1-1_
  6
CONTINUOUS
 62
    7
 10
339.12555591480157
 20
178.37213052285685
 40
0.1627875663138724
  0
CIRCLE
  8
_1-1_
  6
CONTINUOUS
 62
    7
 10
336.27675649282094
 20
179.34886210673565
 40
0.1627875663138724
  0
CIRCLE
  8
_1-1_
  6
CONTINUOUS
 62
    7
 10
339.45113723342484
 20
179.91861704233531
 40
0.1627875663138724
  0
CIRCLE
  8
_1-1_
  6
CONTINUOUS
 62
    7
 10
341.56736631651182
 20
178.77910717113599
 40
0.1627875663138724
  0
CIRCLE
  8
_1-1_
  6
CONTINUOUS
 62
    7
 10
335.85098679001271
 20
178.62257673933701
 40
0.1627875663138724
  0
CIRCLE
  8
_1-1_
  6
CONTINUOUS
 62
    7
 10
337.96724061708193
 20
177.48306686813768
 40
0.1627875663138724
  0
CIRCLE
  8
_1-1_
  6
CONTINUOUS
 62
    7
 10
334.16050266575172
 20
179.79967271959461
 40
0.1627875663138724
  0
CIRCLE
  8
_1-1_
  6
CONTINUOUS
 62
    7
 10
334.32329332506339
 20
178.90433646537164
 40
0.1627875663138724
  0
CIRCLE
  8
_1-1_
  6
CONTINUOUS
 62
    7
 10
335.38142023859797
 20
178.66015047640414
 40
0.1627875663138724
  0
CIRCLE
  8
_1-1_
  6
CONTINUOUS
 62
    7
 10
332.5326208166174
 20
179.63688206028294
 40
0.1627875663138724
  0
CIRCLE
  8
_1-1_
  6
CONTINUOUS
 62
    7
 10
335.7070015572213
 20
180.2066369958826
 40
0.1627875663138724
  0
CIRCLE
  8
_1-1_
  6
CONTINUOUS
 62
    7
 10
337.82323064030828
 20
179.06712712468328
 40
0.1627875663138724
  0
CIRCLE
  8
_1-1_
  6
CONTINUOUS
 62
    7
 10
332.10685111380911
 20
178.9105966928843
 40
0.1627875663138724
  0
CIRCLE
  8
_1-1_
  6
CONTINUOUS
 62
    7
 10
334.22310494087839
 20
177.77108682168497
 40
0.1627875663138724
  0
CIRCLE
  8
_1-1_
  6
CONTINUOUS
 62
    7
 10
322.92812038112334
 20
174.61548676361909
 40
0.1627875663138724
  0
CIRCLE
  8
_1-1_
  6
CONTINUOUS
 62
    7
 10
323.090911040435
 20
173.72015050939612
 40
0.1627875663138724
  0
CIRCLE
  8
_1-1_
  6
CONTINUOUS
 62
    7
 10
324.14903795396964
 20
173.47596452042865
 40
0.1627875663138724
  0
CIRCLE
  8
_1-1_
  6
CONTINUOUS
 62
    7
 10
321.30023853198907
 20
174.45269610430745
 40
0.1627875663138724
  0
CIRCLE
  8
_1-1_
  6
CONTINUOUS
 62
    7
 10
324.47461927259292
 20
175.02245103990711
 40
0.1627875663138724
  0
CIRCLE
  8
_1-1_
  6
CONTINUOUS
 62
    7
 10
326.5908483556799
 20
173.88294116870779
 40
0.1627875663138724
  0
CIRCLE
  8
_1-1_
  6
CONTINUOUS
 62
    7
 10
320.87446882918078
 20
173.7264107369088
 40
0.1627875663138724
  0
CIRCLE
  8
_1-1_
  6
CONTINUOUS
 62
    7
 10
322.99072265625
 20
172.58690086570948
 40
0.1627875663138724
  0
CIRCLE
  8
_1-1_
  6
CONTINUOUS
 62
    7
 10
349.42504058013094
 20
185.27185388513516
 40
0.1627875663138724
  0
CIRCLE
  8
_1-1_
  6
CONTINUOUS
 62
    7
 10
349.58783123944261
 20
184.37651763091216
 40
0.1627875663138724
  0
CIRCLE
  8
_1-1_
  6
CONTINUOUS
 62
    7
 10
350.64595815297724
 20
184.13233164194469
 40
0.1627875663138724
  0
CIRCLE
  8
_1-1_
  6
CONTINUOUS
 62
    7
 10
347.79715873099661
 20
185.10906322582349
 40
0.1627875663138724
  0
CIRCLE
  8
_1-1_
  6
CONTINUOUS
 62
    7
 10
350.97153947160052
 20
185.67881816142315
 40
0.1627875663138724
  0
CIRCLE
  8
_1-1_
  6
CONTINUOUS
 62
    7
 10
353.0877685546875
 20
184.53930829022383
 40
0.1627875663138724
  0
CIRCLE
  8
_1-1_
  6
CONTINUOUS
 62
    7
 10
347.37138902818839
 20
184.38277785842484
 40
0.1627875663138724
  0
CIRCLE
  8
_1-1_
  6
CONTINUOUS
 62
    7
 10
349.4876428552576
 20
183.24326798722552
 40
0.1627875663138724
  0
CIRCLE
  8
_1-1_
  6
CONTINUOUS
 62
    7
 10
342.94481432115714
 20
183.83180360536318
 40
0.1627875663138724
  0
CIRCLE
  8
_1-1_
  6
CONTINUOUS
 62
    7
 10
343.10760498046875
 20
182.93646735114021
 40
0.1627875663138724
  0
CIRCLE
  8
_1-1_
  6
CONTINUOUS
 62
    7
 10
344.16573189400339
 20
182.69228136217274
 40
0.1627875663138724
  0
CIRCLE
  8
_1-1_
  6
CONTINUOUS
 62
    7
 10
341.31693247202281
 20
183.66901294605154
 40
0.1627875663138724
  0
CIRCLE
  8
_1-1_
  6
CONTINUOUS
 62
    7
 10
344.49131321262672
 20
184.2387678816512
 40
0.1627875663138724
  0
CIRCLE
  8
_1-1_
  6
CONTINUOUS
 62
    7
 10
346.6075422957137
 20
183.09925801045188
 40
0.1627875663138724
  0
CIRCLE
  8
_1-1_
  6
CONTINUOUS
 62
    7
 10
340.89116276921453
 20
182.94272757865289
 40
0.1627875663138724
  0
CIRCLE
  8
_1-1_
  6
CONTINUOUS
 62
    7
 10
343.0074165962838
 20
181.80321770745357
 40
0.1627875663138724
  0
CIRCLE
  8
_1-1_
  6
CONTINUOUS
 62
    7
 10
338.48065350506761
 20
181.38372060414909
 40
0.1627875663138724
  0
CIRCLE
  8
_1-1_
  6
CONTINUOUS
 62
    7
 10
338.64344416437922
 20
180.48838434992612
 40
0.1627875663138724
  0
CIRCLE
  8
_1-1_
  6
CONTINUOUS
 62
    7
 10
339.70157107791385
 20
180.24419836095862
 40
0.1627875663138724
  0
CIRCLE
  8
_1-1_
  6
CONTINUOUS
 62
    7
 10
336.85277165593328
 20
181.22092994483742
 40
0.1627875663138724
  0
CIRCLE
  8
_1-1_
  6
CONTINUOUS
 62
    7
 10
340.02715239653719
 20
181.79068488043708
 40
0.1627875663138724
  0
CIRCLE
  8
_1-1_
  6
CONTINUOUS
 62
    7
 10
342.14338147962417
 20
180.65117500923776
 40
0.1627875663138724
  0
CIRCLE
  8
_1-1_
  6
CONTINUOUS
 62
    7
 10
336.427001953125
 20
180.49464457743878
 40
0.1627875663138724
  0
CIRCLE
  8
_1-1_
  6
CONTINUOUS
 62
    7
 10
338.54325578019427
 20
179.35513470623945
 40
0.1627875663138724
  0
CIRCLE
  8
_1-1_
  6
CONTINUOUS
 62
    7
 10
357.77732230521536
 20
189.0159895613387
 40
0.1627875663138724
  0
CIRCLE
  8
_1-1_
  6
CONTINUOUS
 62
    7
 10
357.94011296452703
 20
188.12065330711573
 40
0.1627875663138724
  0
CIRCLE
  8
_1-1_
  6
CONTINUOUS
 62
    7
 10
358.99823987806167
 20
187.87646731814823
 40
0.1627875663138724
  0
CIRCLE
  8
_1-1_
  6
CONTINUOUS
 62
    7
 10
356.14944045608109
 20
188.85319890202703
 40
0.1627875663138724
  0
CIRCLE
  8
_1-1_
  6
CONTINUOUS
 62
    7
 10
359.323821196685
 20
189.42295383762669
 40
0.1627875663138724
  0
CIRCLE
  8
_1-1_
  6
CONTINUOUS
 62
    7
 10
361.44005027977198
 20
188.28344396642737
 40
0.1627875663138724
  0
CIRCLE
  8
_1-1_
  6
CONTINUOUS
 62
    7
 10
355.72367075327281
 20
188.12691353462839
 40
0.1627875663138724
  0
CIRCLE
  8
_1-1_
  6
CONTINUOUS
 62
    7
 10
357.83992458034209
 20
186.98740366342906
 40
0.1627875663138724
  0
CIRCLE
  8
_1-1_
  6
CONTINUOUS
 62
    7
 10
365.84160882073479
 20
192.3280953072213
 40
0.1627875663138724
  0
CIRCLE
  8
_1-1_
  6
CONTINUOUS
 62
    7
 10
366.00439948004646
 20
191.43275905299834
 40
0.1627875663138724
  0
CIRCLE
  8
_1-1_
  6
CONTINUOUS
 62
    7
 10
367.06252639358109
 20
191.18857306403083
 40
0.1627875663138724
  0
CIRCLE
  8
_1-1_
  6
CONTINUOUS
 62
    7
 10
364.21372697160052
 20
192.16530464790964
 40
0.1627875663138724
  0
CIRCLE
  8
_1-1_
  6
CONTINUOUS
 62
    7
 10
367.38810771220443
 20
192.7350595835093
 40
0.1627875663138724
  0
CIRCLE
  8
_1-1_
  6
CONTINUOUS
 62
    7
 10
369.50433679529141
 20
191.59554971230997
 40
0.1627875663138724
  0
CIRCLE
  8
_1-1_
  6
CONTINUOUS
 62
    7
 10
363.78795726879224
 20
191.43901928051099
 40
0.1627875663138724
  0
CIRCLE
  8
_1-1_
  6
CONTINUOUS
 62
    7
 10
365.90421109586151
 20
190.29950940931167
 40
0.1627875663138724
  0
CIRCLE
  8
_1-1_
  6
CONTINUOUS
 62
    7
 10
372.177825102935
 20
195.64021342509503
 40
0.1627875663138724
  0
CIRCLE
  8
_1-1_
  6
CONTINUOUS
 62
    7
 10
372.34061576224661
 20
194.74487717087206
 40
0.1627875663138724
  0
CIRCLE
  8
_1-1_
  6
CONTINUOUS
 62
    7
 10
373.39874267578125
 20
194.50069118190459
 40
0.1627875663138724
  0
CIRCLE
  8
_1-1_
  6
CONTINUOUS
 62
    7
 10
370.54994325380068
 20
195.47742276578336
 40
0.1627875663138724
  0
CIRCLE
  8
_1-1_
  6
CONTINUOUS
 62
    7
 10
373.72432399440459
 20
196.04717770138302
 40
0.1627875663138724
  0
CIRCLE
  8
_1-1_
  6
CONTINUOUS
 62
    7
 10
375.84055307749156
 20
194.9076678301837
 40
0.1627875663138724
  0
CIRCLE
  8
_1-1_
  6
CONTINUOUS
 62
    7
 10
370.1241735509924
 20
194.75113739838471
 40
0.1627875663138724
  0
CIRCLE
  8
_1-1_
  6
CONTINUOUS
 62
    7
 10
372.24042737806167
 20
193.61162752718539
 40
0.1627875663138724
  0
CIRCLE
  8
_1-1_
  6
CONTINUOUS
 62
    7
 10
368.4337141707137
 20
196.07223098342484
 40
0.1627875663138724
  0
CIRCLE
  8
_1-1_
  6
CONTINUOUS
 62
    7
 10
368.59650483002537
 20
195.17689472920188
 40
0.1627875663138724
  0
CIRCLE
  8
_1-1_
  6
CONTINUOUS
 62
    7
 10
369.65463174356
 20
194.93270874023437
 40
0.1627875663138724
  0
CIRCLE
  8
_1-1_
  6
CONTINUOUS
 62
    7
 10
366.80583232157943
 20
195.90944032411318
 40
0.1627875663138724
  0
CIRCLE
  8
_1-1_
  6
CONTINUOUS
 62
    7
 10
369.98021306218328
 20
196.47919525971284
 40
0.1627875663138724
  0
CIRCLE
  8
_1-1_
  6
CONTINUOUS
 62
    7
 10
372.09644214527032
 20
195.33968538851352
 40
0.1627875663138724
  0
CIRCLE
  8
_1-1_
  6
CONTINUOUS
 62
    7
 10
366.38006261877115
 20
195.18315495671453
 40
0.1627875663138724
  0
CIRCLE
  8
_1-1_
  6
CONTINUOUS
 62
    7
 10
368.49631644584036
 20
194.04364508551521
 40
0.1627875663138724
  0
CIRCLE
  8
_1-1_
  6
CONTINUOUS
 62
    7
 10
360.51343763196792
 20
191.32007495777029
 40
0.1627875663138724
  0
CIRCLE
  8
_1-1_
  6
CONTINUOUS
 62
    7
 10
360.67622829127959
 20
190.42473870354732
 40
0.1627875663138724
  0
CIRCLE
  8
_1-1_
  6
CONTINUOUS
 62
    7
 10
361.73435520481422
 20
190.18055271457982
 40
0.1627875663138724
  0
CIRCLE
  8
_1-1_
  6
CONTINUOUS
 62
    7
 10
358.88555578283365
 20
191.15728429845862
 40
0.1627875663138724
  0
CIRCLE
  8
_1-1_
  6
CONTINUOUS
 62
    7
 10
362.0599365234375
 20
191.72703923405828
 40
0.1627875663138724
  0
CIRCLE
  8
_1-1_
  6
CONTINUOUS
 62
    7
 10
364.17616560652453
 20
190.58752936285896
 40
0.1627875663138724
  0
CIRCLE
  8
_1-1_
  6
CONTINUOUS
 62
    7
 10
358.45978608002537
 20
190.43099893105997
 40
0.1627875663138724
  0
CIRCLE
  8
_1-1_
  6
CONTINUOUS
 62
    7
 10
360.57603990709464
 20
189.29148905986065
 40
0.1627875663138724
  0
CIRCLE
  8
_1-1_
  6
CONTINUOUS
 62
    7
 10
351.00910083667657
 20
187.57593928156675
 40
0.1627875663138724
  0
CIRCLE
  8
_1-1_
  6
CONTINUOUS
 62
    7
 10
351.17189149598818
 20
186.68060302734375
 40
0.1627875663138724
  0
CIRCLE
  8
_1-1_
  6
CONTINUOUS
 62
    7
 10
352.23001840952281
 20
186.43641703837628
 40
0.1627875663138724
  0
CIRCLE
  8
_1-1_
  6
CONTINUOUS
 62
    7
 10
349.38121898754224
 20
187.41314862225508
 40
0.1627875663138724
  0
CIRCLE
  8
_1-1_
  6
CONTINUOUS
 62
    7
 10
352.55559972814615
 20
187.98290355785474
 40
0.1627875663138724
  0
CIRCLE
  8
_1-1_
  6
CONTINUOUS
 62
    7
 10
354.67182881123313
 20
186.84339368665542
 40
0.1627875663138724
  0
CIRCLE
  8
_1-1_
  6
CONTINUOUS
 62
    7
 10
348.95544928473396
 20
186.68686325485643
 40
0.1627875663138724
  0
CIRCLE
  8
_1-1_
  6
CONTINUOUS
 62
    7
 10
351.07170311180323
 20
185.54735338365711
 40
0.1627875663138724
  0
CIRCLE
  8
_1-1_
  6
CONTINUOUS
 62
    7
 10
345.53691967113599
 20
182.2477557208087
 40
0.1627875663138724
  0
CIRCLE
  8
_1-1_
  6
CONTINUOUS
 62
    7
 10
345.69971033044766
 20
181.35241946658573
 40
0.1627875663138724
  0
CIRCLE
  8
_1-1_
  6
CONTINUOUS
 62
    7
 10
346.75783724398229
 20
181.10823347761826
 40
0.1627875663138724
  0
CIRCLE
  8
_1-1_
  6
CONTINUOUS
 62
    7
 10
343.90903782200172
 20
182.08496506149706
 40
0.1627875663138724
  0
CIRCLE
  8
_1-1_
  6
CONTINUOUS
 62
    7
 10
347.08341856260557
 20
182.65471999709672
 40
0.1627875663138724
  0
CIRCLE
  8
_1-1_
  6
CONTINUOUS
 62
    7
 10
349.19964764569261
 20
181.5152101258974
 40
0.1627875663138724
  0
CIRCLE
  8
_1-1_
  6
CONTINUOUS
 62
    7
 10
343.48326811919344
 20
181.35867969409841
 40
0.1627875663138724
  0
CIRCLE
  8
_1-1_
  6
CONTINUOUS
 62
    7
 10
345.59952194626271
 20
180.21916982289909
 40
0.1627875663138724
  0
ARC
  8
_1-2_
  6
CONTINUOUS
 62
    3
 10
177.20785192541175
 20
140.95348873653927
 40
0.1999999904954755
 50
342.77896118164062
 51
343.28344726562494
  0
CIRCLE
  8
_1-1_
  6
CONTINUOUS
 62
    7
 10
17.817492098421667
 20
194.17666873416385
 40
0.1627875663138724
  0
CIRCLE
  8
_1-1_
  6
CONTINUOUS
 62
    7
 10
20.340710201778933
 20
193.9324951171875
 40
0.1627875663138724
  0
CIRCLE
  8
_1-1_
  6
CONTINUOUS
 62
    7
 10
20.666286880905574
 20
192.14182260874156
 40
0.1627875663138724
  0
CIRCLE
  8
_1-1_
  6
CONTINUOUS
 62
    7
 10
19.933739739495365
 20
192.30461326805323
 40
0.1627875663138724
  0
CIRCLE
  8
_1-1_
  6
CONTINUOUS
 62
    7
 10
20.503497768092814
 20
193.03715886296453
 40
0.1627875663138724
  0
CIRCLE
  8
_1-1_
  6
CONTINUOUS
 62
    7
 10
21.561621588629635
 20
192.79297287399706
 40
0.1627875663138724
  0
CIRCLE
  8
_1-1_
  6
CONTINUOUS
 62
    7
 10
18.387251673517994
 20
192.46739155537375
 40
0.1627875663138724
  0
CIRCLE
  8
_1-1_
  6
CONTINUOUS
 62
    7
 10
18.712826806145756
 20
193.76970445787586
 40
0.1627875663138724
  0
CIRCLE
  8
_1-1_
  6
CONTINUOUS
 62
    7
 10
21.887198267756276
 20
194.33945939347552
 40
0.1627875663138724
  0
CIRCLE
  8
_1-1_
  6
CONTINUOUS
 62
    7
 10
22.945322088293125
 20
190.51394075960727
 40
0.1627875663138724
  0
CIRCLE
  8
_1-1_
  6
CONTINUOUS
 62
    7
 10
20.91046977687526
 20
191.00230036555112
 40
0.1627875663138724
  0
CIRCLE
  8
_1-1_
  6
CONTINUOUS
 62
    7
 10
22.497653961181641
 20
191.73484596046242
 40
0.1627875663138724
  0
CIRCLE
  8
_1-1_
  6
CONTINUOUS
 62
    7
 10
25.020872064538906
 20
191.49067234348607
 40
0.1627875663138724
  0
CIRCLE
  8
_1-1_
  6
CONTINUOUS
 62
    7
 10
25.346448743665547
 20
189.69999983504013
 40
0.1627875663138724
  0
CIRCLE
  8
_1-1_
  6
CONTINUOUS
 62
    7
 10
24.613901602255339
 20
189.86279049435177
 40
0.1627875663138724
  0
CIRCLE
  8
_1-1_
  6
CONTINUOUS
 62
    7
 10
25.183659630852787
 20
190.5953360892631
 40
0.1627875663138724
  0
CIRCLE
  8
_1-1_
  6
CONTINUOUS
 62
    7
 10
26.241784997888516
 20
190.35115010029563
 40
0.1627875663138724
  0
CIRCLE
  8
_1-1_
  6
CONTINUOUS
 62
    7
 10
23.067413536277968
 20
190.02556878167232
 40
0.1627875663138724
  0
CIRCLE
  8
_1-1_
  6
CONTINUOUS
 62
    7
 10
23.39298866890573
 20
191.32788168417443
 40
0.1627875663138724
  0
CIRCLE
  8
_1-1_
  6
CONTINUOUS
 62
    7
 10
26.567360130516249
 20
191.89763661977409
 40
0.1627875663138724
  0
CIRCLE
  8
_1-1_
  6
CONTINUOUS
 62
    7
 10
27.625483951053099
 20
188.07211798590583
 40
0.1627875663138724
  0
CIRCLE
  8
_1-1_
  6
CONTINUOUS
 62
    7
 10
25.590631639635234
 20
188.56047759184966
 40
0.1627875663138724
  0
CIRCLE
  8
_1-1_
  6
CONTINUOUS
 62
    7
 10
26.465619061444272
 20
190.00522922825169
 40
0.1627875663138724
  0
CIRCLE
  8
_1-1_
  6
CONTINUOUS
 62
    7
 10
28.98883716480151
 20
189.76105561127534
 40
0.1627875663138724
  0
CIRCLE
  8
_1-1_
  6
CONTINUOUS
 62
    7
 10
29.314412297429271
 20
187.9703831028294
 40
0.1627875663138724
  0
CIRCLE
  8
_1-1_
  6
CONTINUOUS
 62
    7
 10
28.581866702517942
 20
188.13317376214107
 40
0.1627875663138724
  0
CIRCLE
  8
_1-1_
  6
CONTINUOUS
 62
    7
 10
29.15162473111539
 20
188.86571935705237
 40
0.1627875663138724
  0
CIRCLE
  8
_1-1_
  6
CONTINUOUS
 62
    7
 10
30.20974855165224
 20
188.6215333680849
 40
0.1627875663138724
  0
CIRCLE
  8
_1-1_
  6
CONTINUOUS
 62
    7
 10
27.035380183039479
 20
188.29595204946159
 40
0.1627875663138724
  0
CIRCLE
  8
_1-1_
  6
CONTINUOUS
 62
    7
 10
27.36095531566724
 20
189.5982649519637
 40
0.1627875663138724
  0
CIRCLE
  8
_1-1_
  6
CONTINUOUS
 62
    7
 10
30.535323684279973
 20
190.16801988756336
 40
0.1627875663138724
  0
CIRCLE
  8
_1-1_
  6
CONTINUOUS
 62
    7
 10
31.593450597814609
 20
186.3425012536951
 40
0.1627875663138724
  0
CIRCLE
  8
_1-1_
  6
CONTINUOUS
 62
    7
 10
29.558598286396744
 20
186.83086085963896
 40
0.1627875663138724
  0
CIRCLE
  8
_1-1_
  6
CONTINUOUS
 62
    7
 10
31.145782470703125
 20
187.86863584776182
 40
0.1627875663138724
  0
CIRCLE
  8
_1-1_
  6
CONTINUOUS
 62
    7
 10
33.669000574060391
 20
187.6244622307855
 40
0.1627875663138724
  0
CIRCLE
  8
_1-1_
  6
CONTINUOUS
 62
    7
 10
33.994575706688124
 20
185.83378972233953
 40
0.1627875663138724
  0
CIRCLE
  8
_1-1_
  6
CONTINUOUS
 62
    7
 10
33.262030111776824
 20
185.9965803816512
 40
0.1627875663138724
  0
CIRCLE
  8
_1-1_
  6
CONTINUOUS
 62
    7
 10
33.831788140374272
 20
186.7291259765625
 40
0.1627875663138724
  0
CIRCLE
  8
_1-1_
  6
CONTINUOUS
 62
    7
 10
34.889911960911093
 20
186.48493998759503
 40
0.1627875663138724
  0
CIRCLE
  8
_1-1_
  6
CONTINUOUS
 62
    7
 10
31.71554359229836
 20
186.15935866897172
 40
0.1627875663138724
  0
CIRCLE
  8
_1-1_
  6
CONTINUOUS
 62
    7
 10
32.041118724926093
 20
187.46167157147383
 40
0.1627875663138724
  0
CIRCLE
  8
_1-1_
  6
CONTINUOUS
 62
    7
 10
35.215487093538854
 20
188.03142650707349
 40
0.1627875663138724
  0
CIRCLE
  8
_1-1_
  6
CONTINUOUS
 62
    7
 10
36.27361400707349
 20
184.20590787320523
 40
0.1627875663138724
  0
CIRCLE
  8
_1-1_
  6
CONTINUOUS
 62
    7
 10
34.238761695655626
 20
184.69426747914909
 40
0.1627875663138724
  0
CIRCLE
  8
_1-1_
  6
CONTINUOUS
 62
    7
 10
35.622457555822422
 20
185.83377735034841
 40
0.1627875663138724
  0
CIRCLE
  8
_1-1_
  6
CONTINUOUS
 62
    7
 10
38.145675659179688
 20
185.58960373337206
 40
0.1627875663138724
  0
CIRCLE
  8
_1-1_
  6
CONTINUOUS
 62
    7
 10
38.471250791807449
 20
183.79893122492612
 40
0.1627875663138724
  0
CIRCLE
  8
_1-1_
  6
CONTINUOUS
 62
    7
 10
37.73870519689612
 20
183.96172188423776
 40
0.1627875663138724
  0
CIRCLE
  8
_1-1_
  6
CONTINUOUS
 62
    7
 10
38.308463225493568
 20
184.69426747914909
 40
0.1627875663138724
  0
CIRCLE
  8
_1-1_
  6
CONTINUOUS
 62
    7
 10
39.366587046030418
 20
184.45008149018159
 40
0.1627875663138724
  0
CIRCLE
  8
_1-1_
  6
CONTINUOUS
 62
    7
 10
36.192218677417657
 20
184.12450017155828
 40
0.1627875663138724
  0
CIRCLE
  8
_1-1_
  6
CONTINUOUS
 62
    7
 10
36.51779381004539
 20
185.42681307406039
 40
0.1627875663138724
  0
CIRCLE
  8
_1-1_
  6
CONTINUOUS
 62
    7
 10
39.692162178658151
 20
185.99656800966005
 40
0.1627875663138724
  0
CIRCLE
  8
_1-1_
  6
CONTINUOUS
 62
    7
 10
40.750289092192787
 20
182.17104937579182
 40
0.1627875663138724
  0
CIRCLE
  8
_1-1_
  6
CONTINUOUS
 62
    7
 10
38.715436780774922
 20
182.65940898173565
 40
0.1627875663138724
  0
CIRCLE
  8
_1-1_
  6
CONTINUOUS
 62
    7
 10
42.744446831780522
 20
182.37453151393581
 40
0.1627875663138724
  0
CIRCLE
  8
_1-1_
  6
CONTINUOUS
 62
    7
 10
45.267664935137788
 20
182.13035789695948
 40
0.1627875663138724
  0
CIRCLE
  8
_1-1_
  6
CONTINUOUS
 62
    7
 10
45.593243160763308
 20
180.33968538851352
 40
0.1627875663138724
  0
CIRCLE
  8
_1-1_
  6
CONTINUOUS
 62
    7
 10
44.86069447285422
 20
180.50247604782518
 40
0.1627875663138724
  0
CIRCLE
  8
_1-1_
  6
CONTINUOUS
 62
    7
 10
45.43045250145164
 20
181.23502164273648
 40
0.1627875663138724
  0
CIRCLE
  8
_1-1_
  6
CONTINUOUS
 62
    7
 10
46.488576321988489
 20
180.99083565376901
 40
0.1627875663138724
  0
CIRCLE
  8
_1-1_
  6
CONTINUOUS
 62
    7
 10
43.31420486037797
 20
180.6652543351457
 40
0.1627875663138724
  0
CIRCLE
  8
_1-1_
  6
CONTINUOUS
 62
    7
 10
43.639779993005703
 20
181.96756723764781
 40
0.1627875663138724
  0
CIRCLE
  8
_1-1_
  6
CONTINUOUS
 62
    7
 10
46.81415454761401
 20
182.53732217324747
 40
0.1627875663138724
  0
CIRCLE
  8
_1-1_
  6
CONTINUOUS
 62
    7
 10
47.872275275153072
 20
178.71180353937925
 40
0.1627875663138724
  0
CIRCLE
  8
_1-1_
  6
CONTINUOUS
 62
    7
 10
45.837422963735207
 20
179.20016314532307
 40
0.1627875663138724
  0
CIRCLE
  8
_1-1_
  6
CONTINUOUS
 62
    7
 10
51.087347494589324
 20
178.91527330553211
 40
0.1627875663138724
  0
CIRCLE
  8
_1-1_
  6
CONTINUOUS
 62
    7
 10
53.610565597946589
 20
178.67109968855576
 40
0.1627875663138724
  0
CIRCLE
  8
_1-1_
  6
CONTINUOUS
 62
    7
 10
53.936140730574323
 20
176.88042718010982
 40
0.1627875663138724
  0
CIRCLE
  8
_1-1_
  6
CONTINUOUS
 62
    7
 10
53.203595135663022
 20
177.04321783942146
 40
0.1627875663138724
  0
CIRCLE
  8
_1-1_
  6
CONTINUOUS
 62
    7
 10
53.773350071262655
 20
177.77576343433279
 40
0.1627875663138724
  0
CIRCLE
  8
_1-1_
  6
CONTINUOUS
 62
    7
 10
54.831476984797291
 20
177.53157744536529
 40
0.1627875663138724
  0
CIRCLE
  8
_1-1_
  6
CONTINUOUS
 62
    7
 10
51.65710861618453
 20
177.20599612674198
 40
0.1627875663138724
  0
CIRCLE
  8
_1-1_
  6
CONTINUOUS
 62
    7
 10
51.982683748812292
 20
178.50830902924409
 40
0.1627875663138724
  0
CIRCLE
  8
_1-1_
  6
CONTINUOUS
 62
    7
 10
55.157052117425053
 20
179.07806396484375
 40
0.1627875663138724
  0
CIRCLE
  8
_1-1_
  6
CONTINUOUS
 62
    7
 10
56.215179030959689
 20
175.25254533097552
 40
0.1627875663138724
  0
CIRCLE
  8
_1-1_
  6
CONTINUOUS
 62
    7
 10
54.180326719541824
 20
175.74090493691935
 40
0.1627875663138724
  0
CIRCLE
  8
_1-1_
  6
CONTINUOUS
 62
    7
 10
56.377963504275755
 20
177.18564420133023
 40
0.1627875663138724
  0
CIRCLE
  8
_1-1_
  6
CONTINUOUS
 62
    7
 10
58.901181607633021
 20
176.94147058435391
 40
0.1627875663138724
  0
CIRCLE
  8
_1-1_
  6
CONTINUOUS
 62
    7
 10
59.226756740260782
 20
175.15079807590794
 40
0.1627875663138724
  0
CIRCLE
  8
_1-1_
  6
CONTINUOUS
 62
    7
 10
58.494211145349453
 20
175.31358873521961
 40
0.1627875663138724
  0
CIRCLE
  8
_1-1_
  6
CONTINUOUS
 62
    7
 10
59.063972266944688
 20
176.04613433013091
 40
0.1627875663138724
  0
CIRCLE
  8
_1-1_
  6
CONTINUOUS
 62
    7
 10
60.122092994483751
 20
175.80194834116344
 40
0.1627875663138724
  0
CIRCLE
  8
_1-1_
  6
CONTINUOUS
 62
    7
 10
56.94772462587099
 20
175.47636702254013
 40
0.1627875663138724
  0
CIRCLE
  8
_1-1_
  6
CONTINUOUS
 62
    7
 10
57.273299758498752
 20
176.77867992504224
 40
0.1627875663138724
  0
CIRCLE
  8
_1-1_
  6
CONTINUOUS
 62
    7
 10
60.447668127111484
 20
177.3484348606419
 40
0.1627875663138724
  0
CIRCLE
  8
_1-1_
  6
CONTINUOUS
 62
    7
 10
61.50579504064612
 20
173.52291622677365
 40
0.1627875663138724
  0
CIRCLE
  8
_1-1_
  6
CONTINUOUS
 62
    7
 10
59.470942729228256
 20
174.0112758327175
 40
0.1627875663138724
  0
CIRCLE
  8
_1-1_
  6
CONTINUOUS
 62
    7
 10
63.416989300702085
 20
174.5481707598712
 40
0.1627875663138724
  0
CIRCLE
  8
_1-1_
  6
CONTINUOUS
 62
    7
 10
65.940207404059322
 20
174.30399714289487
 40
0.1627875663138724
  0
CIRCLE
  8
_1-1_
  6
CONTINUOUS
 62
    7
 10
66.265782536687084
 20
172.51332463444891
 40
0.1627875663138724
  0
CIRCLE
  8
_1-1_
  6
CONTINUOUS
 62
    7
 10
65.533236941775783
 20
172.67611529376057
 40
0.1627875663138724
  0
CIRCLE
  8
_1-1_
  6
CONTINUOUS
 62
    7
 10
66.102991877375416
 20
173.40866088867187
 40
0.1627875663138724
  0
CIRCLE
  8
_1-1_
  6
CONTINUOUS
 62
    7
 10
67.161118790910052
 20
173.1644748997044
 40
0.1627875663138724
  0
CIRCLE
  8
_1-1_
  6
CONTINUOUS
 62
    7
 10
63.986750422297291
 20
172.83889358108109
 40
0.1627875663138724
  0
CIRCLE
  8
_1-1_
  6
CONTINUOUS
 62
    7
 10
64.312325554925053
 20
174.1412064835832
 40
0.1627875663138724
  0
CIRCLE
  8
_1-1_
  6
CONTINUOUS
 62
    7
 10
67.486693923537814
 20
174.71096141918287
 40
0.1627875663138724
  0
CIRCLE
  8
_1-1_
  6
CONTINUOUS
 62
    7
 10
68.544820837072422
 20
170.88544278531461
 40
0.1627875663138724
  0
CIRCLE
  8
_1-1_
  6
CONTINUOUS
 62
    7
 10
66.509968525654585
 20
171.37380239125847
 40
0.1627875663138724
  0
CIRCLE
  8
_1-1_
  6
CONTINUOUS
 62
    7
 10
69.587290995829818
 20
171.69153986750422
 40
0.1627875663138724
  0
CIRCLE
  8
_1-1_
  6
CONTINUOUS
 62
    7
 10
72.110509099187084
 20
171.44736625052789
 40
0.1627875663138724
  0
CIRCLE
  8
_1-1_
  6
CONTINUOUS
 62
    7
 10
72.436084231814846
 20
169.65669374208193
 40
0.1627875663138724
  0
CIRCLE
  8
_1-1_
  6
CONTINUOUS
 62
    7
 10
71.703538636903488
 20
169.81948440139359
 40
0.1627875663138724
  0
CIRCLE
  8
_1-1_
  6
CONTINUOUS
 62
    7
 10
72.273299758498752
 20
170.5520299963049
 40
0.1627875663138724
  0
CIRCLE
  8
_1-1_
  6
CONTINUOUS
 62
    7
 10
73.331420486037814
 20
170.30784400733742
 40
0.1627875663138724
  0
CIRCLE
  8
_1-1_
  6
CONTINUOUS
 62
    7
 10
70.157052117425053
 20
169.98226268871412
 40
0.1627875663138724
  0
CIRCLE
  8
_1-1_
  6
CONTINUOUS
 62
    7
 10
70.482627250052786
 20
171.28457559121622
 40
0.1627875663138724
  0
CIRCLE
  8
_1-1_
  6
CONTINUOUS
 62
    7
 10
73.656995618665547
 20
171.85433052681589
 40
0.1627875663138724
  0
CIRCLE
  8
_1-1_
  6
CONTINUOUS
 62
    7
 10
74.715122532200155
 20
168.02881189294766
 40
0.1627875663138724
  0
CIRCLE
  8
_1-1_
  6
CONTINUOUS
 62
    7
 10
72.68027022078229
 20
168.51717149889149
 40
0.1627875663138724
  0
CIRCLE
  8
_1-1_
  6
CONTINUOUS
 62
    7
 10
74.843481940192135
 20
168.263595168655
 40
0.1627875663138724
  0
CIRCLE
  8
_1-1_
  6
CONTINUOUS
 62
    7
 10
77.366700043549429
 20
168.01942155167865
 40
0.1627875663138724
  0
CIRCLE
  8
_1-1_
  6
CONTINUOUS
 62
    7
 10
77.692275176177162
 20
166.22874904323268
 40
0.1627875663138724
  0
CIRCLE
  8
_1-1_
  6
CONTINUOUS
 62
    7
 10
76.95972339527026
 20
166.39153970254435
 40
0.1627875663138724
  0
CIRCLE
  8
_1-1_
  6
CONTINUOUS
 62
    7
 10
77.529484516865523
 20
167.12408529745568
 40
0.1627875663138724
  0
CIRCLE
  8
_1-1_
  6
CONTINUOUS
 62
    7
 10
78.587605244404585
 20
166.87989930848818
 40
0.1627875663138724
  0
CIRCLE
  8
_1-1_
  6
CONTINUOUS
 62
    7
 10
75.413236875791824
 20
166.55431798986487
 40
0.1627875663138724
  0
CIRCLE
  8
_1-1_
  6
CONTINUOUS
 62
    7
 10
75.738812008419558
 20
167.85663089236698
 40
0.1627875663138724
  0
CIRCLE
  8
_1-1_
  6
CONTINUOUS
 62
    7
 10
78.913186563027864
 20
168.42638582796664
 40
0.1627875663138724
  0
CIRCLE
  8
_1-1_
  6
CONTINUOUS
 62
    7
 10
79.971307290566926
 20
164.60086719409841
 40
0.1627875663138724
  0
CIRCLE
  8
_1-1_
  6
CONTINUOUS
 62
    7
 10
77.936454979149062
 20
165.08922680004224
 40
0.1627875663138724
  0
CIRCLE
  8
_1-1_
  6
CONTINUOUS
 62
    7
 10
81.585103627797707
 20
165.63551206846495
 40
0.1627875663138724
  0
CIRCLE
  8
_1-1_
  6
CONTINUOUS
 62
    7
 10
84.108321731154987
 20
165.39133845148859
 40
0.1627875663138724
  0
CIRCLE
  8
_1-1_
  6
CONTINUOUS
 62
    7
 10
84.433896863782735
 20
163.60066594304266
 40
0.1627875663138724
  0
CIRCLE
  8
_1-1_
  6
CONTINUOUS
 62
    7
 10
83.701345082875847
 20
163.76345660235432
 40
0.1627875663138724
  0
CIRCLE
  8
_1-1_
  6
CONTINUOUS
 62
    7
 10
84.271106204471081
 20
164.49600219726562
 40
0.1627875663138724
  0
CIRCLE
  8
_1-1_
  6
CONTINUOUS
 62
    7
 10
85.329226932010144
 20
164.25181620829815
 40
0.1627875663138724
  0
CIRCLE
  8
_1-1_
  6
CONTINUOUS
 62
    7
 10
82.154858563397383
 20
163.92623488967484
 40
0.1627875663138724
  0
CIRCLE
  8
_1-1_
  6
CONTINUOUS
 62
    7
 10
82.480433696025131
 20
165.22854779217695
 40
0.1627875663138724
  0
CIRCLE
  8
_1-1_
  6
CONTINUOUS
 62
    7
 10
85.654808250633451
 20
165.79830272777662
 40
0.1627875663138724
  0
CIRCLE
  8
_1-1_
  6
CONTINUOUS
 62
    7
 10
86.712928978172513
 20
161.97278409390836
 40
0.1627875663138724
  0
CIRCLE
  8
_1-1_
  6
CONTINUOUS
 62
    7
 10
84.678076666754649
 20
162.46114369985222
 40
0.1627875663138724
  0
CIRCLE
  8
_1-1_
  6
CONTINUOUS
 62
    7
 10
90.726297739389778
 20
161.63624119114232
 40
0.1627875663138724
  0
CIRCLE
  8
_1-1_
  6
CONTINUOUS
 62
    7
 10
93.249515842747044
 20
161.39206757416596
 40
0.1627875663138724
  0
CIRCLE
  8
_1-1_
  6
CONTINUOUS
 62
    7
 10
93.575090975374792
 20
159.60139506572003
 40
0.1627875663138724
  0
CIRCLE
  8
_1-1_
  6
CONTINUOUS
 62
    7
 10
92.842539194467903
 20
159.76418572503169
 40
0.1627875663138724
  0
CIRCLE
  8
_1-1_
  6
CONTINUOUS
 62
    7
 10
93.412300316063138
 20
160.496731319943
 40
0.1627875663138724
  0
CIRCLE
  8
_1-1_
  6
CONTINUOUS
 62
    7
 10
94.470421043602201
 20
160.25254533097552
 40
0.1627875663138724
  0
CIRCLE
  8
_1-1_
  6
CONTINUOUS
 62
    7
 10
91.296052674989454
 20
159.92696401235222
 40
0.1627875663138724
  0
CIRCLE
  8
_1-1_
  6
CONTINUOUS
 62
    7
 10
91.621627807617188
 20
161.22927691485432
 40
0.1627875663138724
  0
CIRCLE
  8
_1-1_
  6
CONTINUOUS
 62
    7
 10
94.796002362225508
 20
161.79903185045399
 40
0.1627875663138724
  0
CIRCLE
  8
_1-1_
  6
CONTINUOUS
 62
    7
 10
95.85412308976457
 20
157.97351321658573
 40
0.1627875663138724
  0
CIRCLE
  8
_1-1_
  6
CONTINUOUS
 62
    7
 10
93.819270778346706
 20
158.46187282252956
 40
0.1627875663138724
  0
CIRCLE
  8
_1-1_
  6
CONTINUOUS
 62
    7
 10
98.03924560546875
 20
158.20829649229307
 40
0.1627875663138724
  0
CIRCLE
  8
_1-1_
  6
CONTINUOUS
 62
    7
 10
100.56246370882602
 20
157.96412287531672
 40
0.1627875663138724
  0
CIRCLE
  8
_1-1_
  6
CONTINUOUS
 62
    7
 10
100.88803884145376
 20
156.17345036687078
 40
0.1627875663138724
  0
CIRCLE
  8
_1-1_
  6
CONTINUOUS
 62
    7
 10
100.15548706054687
 20
156.33624102618245
 40
0.1627875663138724
  0
CIRCLE
  8
_1-1_
  6
CONTINUOUS
 62
    7
 10
100.72524818214211
 20
157.06878662109375
 40
0.1627875663138724
  0
CIRCLE
  8
_1-1_
  6
CONTINUOUS
 62
    7
 10
101.78336890968117
 20
156.82460063212628
 40
0.1627875663138724
  0
CIRCLE
  8
_1-1_
  6
CONTINUOUS
 62
    7
 10
98.609000541068411
 20
156.49901931350297
 40
0.1627875663138724
  0
CIRCLE
  8
_1-1_
  6
CONTINUOUS
 62
    7
 10
98.934575673696159
 20
157.80133221600508
 40
0.1627875663138724
  0
CIRCLE
  8
_1-1_
  6
CONTINUOUS
 62
    7
 10
102.10895022830448
 20
158.37108715160474
 40
0.1627875663138724
  0
CIRCLE
  8
_1-1_
  6
CONTINUOUS
 62
    7
 10
103.16707095584354
 20
154.54556851773648
 40
0.1627875663138724
  0
CIRCLE
  8
_1-1_
  6
CONTINUOUS
 62
    7
 10
101.13221864442568
 20
155.03392812368034
 40
0.1627875663138724
  0
CIRCLE
  8
_1-1_
  6
CONTINUOUS
 62
    7
 10
102.03851648279139
 20
155.80873644029774
 40
0.1627875663138724
  0
CIRCLE
  8
_1-1_
  6
CONTINUOUS
 62
    7
 10
104.56173458614866
 20
155.56456282332138
 40
0.1627875663138724
  0
CIRCLE
  8
_1-1_
  6
CONTINUOUS
 62
    7
 10
104.88730353278083
 20
153.77389031487544
 40
0.1627875663138724
  0
CIRCLE
  8
_1-1_
  6
CONTINUOUS
 62
    7
 10
104.15475793786952
 20
153.93668097418708
 40
0.1627875663138724
  0
CIRCLE
  8
_1-1_
  6
CONTINUOUS
 62
    7
 10
104.72452524546031
 20
154.66922656909841
 40
0.1627875663138724
  0
CIRCLE
  8
_1-1_
  6
CONTINUOUS
 62
    7
 10
105.7826397870038
 20
154.42504058013091
 40
0.1627875663138724
  0
CIRCLE
  8
_1-1_
  6
CONTINUOUS
 62
    7
 10
102.60827141839106
 20
154.0994592615076
 40
0.1627875663138724
  0
CIRCLE
  8
_1-1_
  6
CONTINUOUS
 62
    7
 10
102.9338465510188
 20
155.40177216400971
 40
0.1627875663138724
  0
CIRCLE
  8
_1-1_
  6
CONTINUOUS
 62
    7
 10
106.10822110562712
 20
155.97152709960937
 40
0.1627875663138724
  0
CIRCLE
  8
_1-1_
  6
CONTINUOUS
 62
    7
 10
107.16634801916175
 20
152.14600846574115
 40
0.1627875663138724
  0
CIRCLE
  8
_1-1_
  6
CONTINUOUS
 62
    7
 10
105.13148952174832
 20
152.63436807168497
 40
0.1627875663138724
  0
CIRCLE
  8
_1-1_
  6
CONTINUOUS
 62
    7
 10
108.43733504011826
 20
152.15225632126268
 40
0.1627875663138724
  0
CIRCLE
  8
_1-1_
  6
CONTINUOUS
 62
    7
 10
110.96055314347551
 20
151.90808270428633
 40
0.1627875663138724
  0
CIRCLE
  8
_1-1_
  6
CONTINUOUS
 62
    7
 10
111.2861220901077
 20
150.11741019584039
 40
0.1627875663138724
  0
CIRCLE
  8
_1-1_
  6
CONTINUOUS
 62
    7
 10
110.55357649519638
 20
150.28020085515203
 40
0.1627875663138724
  0
CIRCLE
  8
_1-1_
  6
CONTINUOUS
 62
    7
 10
111.12334380278716
 20
151.01274645006336
 40
0.1627875663138724
  0
CIRCLE
  8
_1-1_
  6
CONTINUOUS
 62
    7
 10
112.18145834433066
 20
150.76856046109586
 40
0.1627875663138724
  0
CIRCLE
  8
_1-1_
  6
CONTINUOUS
 62
    7
 10
109.00708997571792
 20
150.44297914247255
 40
0.1627875663138724
  0
CIRCLE
  8
_1-1_
  6
CONTINUOUS
 62
    7
 10
109.33267129434122
 20
151.74529204497466
 40
0.1627875663138724
  0
CIRCLE
  8
_1-1_
  6
CONTINUOUS
 62
    7
 10
112.50703966295397
 20
152.31504698057432
 40
0.1627875663138724
  0
CIRCLE
  8
_1-1_
  6
CONTINUOUS
 62
    7
 10
113.56516657648861
 20
148.48952834670609
 40
0.1627875663138724
  0
CIRCLE
  8
_1-1_
  6
CONTINUOUS
 62
    7
 10
111.53030807907517
 20
148.97788795264992
 40
0.1627875663138724
  0
CIRCLE
  8
_1-1_
  6
CONTINUOUS
 62
    7
 10
117.12147068332982
 20
150.55255786792654
 40
0.1627875663138724
  0
CIRCLE
  8
_1-1_
  6
CONTINUOUS
 62
    7
 10
119.64468878668708
 20
150.30838425095018
 40
0.1627875663138724
  0
CIRCLE
  8
_1-1_
  6
CONTINUOUS
 62
    7
 10
119.97025773331926
 20
148.51771174250422
 40
0.1627875663138724
  0
CIRCLE
  8
_1-1_
  6
CONTINUOUS
 62
    7
 10
119.23771213840794
 20
148.68050240181589
 40
0.1627875663138724
  0
CIRCLE
  8
_1-1_
  6
CONTINUOUS
 62
    7
 10
119.8074670740076
 20
149.41304799672722
 40
0.1627875663138724
  0
CIRCLE
  8
_1-1_
  6
CONTINUOUS
 62
    7
 10
120.86559398754224
 20
149.16886200775971
 40
0.1627875663138724
  0
CIRCLE
  8
_1-1_
  6
CONTINUOUS
 62
    7
 10
117.69122561892948
 20
148.84328068913641
 40
0.1627875663138724
  0
CIRCLE
  8
_1-1_
  6
CONTINUOUS
 62
    7
 10
118.0168069375528
 20
150.14559359163852
 40
0.1627875663138724
  0
CIRCLE
  8
_1-1_
  6
CONTINUOUS
 62
    7
 10
121.19117530616555
 20
150.71534852723818
 40
0.1627875663138724
  0
CIRCLE
  8
_1-1_
  6
CONTINUOUS
 62
    7
 10
122.24930221970017
 20
146.88982989336995
 40
0.1627875663138724
  0
CIRCLE
  8
_1-1_
  6
CONTINUOUS
 62
    7
 10
120.21444372228675
 20
147.37818949931378
 40
0.1627875663138724
  0
CIRCLE
  8
_1-1_
  6
CONTINUOUS
 62
    7
 10
121.57780002903294
 20
148.38152086412586
 40
0.1627875663138724
  0
CIRCLE
  8
_1-1_
  6
CONTINUOUS
 62
    7
 10
124.10101813239021
 20
148.13734724714951
 40
0.1627875663138724
  0
CIRCLE
  8
_1-1_
  6
CONTINUOUS
 62
    7
 10
124.42658707902238
 20
146.34667473870357
 40
0.1627875663138724
  0
CIRCLE
  8
_1-1_
  6
CONTINUOUS
 62
    7
 10
123.69404148411107
 20
146.50946539801521
 40
0.1627875663138724
  0
CIRCLE
  8
_1-1_
  6
CONTINUOUS
 62
    7
 10
124.26380879170186
 20
147.24201099292654
 40
0.1627875663138724
  0
CIRCLE
  8
_1-1_
  6
CONTINUOUS
 62
    7
 10
125.32192333324537
 20
146.99782500395904
 40
0.1627875663138724
  0
CIRCLE
  8
_1-1_
  6
CONTINUOUS
 62
    7
 10
122.1475549646326
 20
146.67224368533573
 40
0.1627875663138724
  0
CIRCLE
  8
_1-1_
  6
CONTINUOUS
 62
    7
 10
122.47313628325593
 20
147.97455658783784
 40
0.1627875663138724
  0
CIRCLE
  8
_1-1_
  6
CONTINUOUS
 62
    7
 10
125.64750465186867
 20
148.5443115234375
 40
0.1627875663138724
  0
CIRCLE
  8
_1-1_
  6
CONTINUOUS
 62
    7
 10
126.70563156540329
 20
144.71879288956927
 40
0.1627875663138724
  0
CIRCLE
  8
_1-1_
  6
CONTINUOUS
 62
    7
 10
124.67077306798987
 20
145.2071524955131
 40
0.1627875663138724
  0
CIRCLE
  8
_1-1_
  6
CONTINUOUS
 62
    7
 10
127.06250164959883
 20
144.49651769689612
 40
0.1627875663138724
  0
CIRCLE
  8
_1-1_
  6
CONTINUOUS
 62
    7
 10
129.58571975295609
 20
144.25234407991977
 40
0.1627875663138724
  0
CIRCLE
  8
_1-1_
  6
CONTINUOUS
 62
    7
 10
129.91128869958825
 20
142.46167157147383
 40
0.1627875663138724
  0
CIRCLE
  8
_1-1_
  6
CONTINUOUS
 62
    7
 10
129.17874310467695
 20
142.62446223078547
 40
0.1627875663138724
  0
CIRCLE
  8
_1-1_
  6
CONTINUOUS
 62
    7
 10
129.74851041226773
 20
143.3570078256968
 40
0.1627875663138724
  0
CIRCLE
  8
_1-1_
  6
CONTINUOUS
 62
    7
 10
130.80662495381125
 20
143.11282183672932
 40
0.1627875663138724
  0
CIRCLE
  8
_1-1_
  6
CONTINUOUS
 62
    7
 10
127.63225658519849
 20
142.78724051810602
 40
0.1627875663138724
  0
CIRCLE
  8
_1-1_
  6
CONTINUOUS
 62
    7
 10
127.9578379038218
 20
144.08955342060813
 40
0.1627875663138724
  0
CIRCLE
  8
_1-1_
  6
CONTINUOUS
 62
    7
 10
131.13220627243456
 20
144.65930835620779
 40
0.1627875663138724
  0
CIRCLE
  8
_1-1_
  6
CONTINUOUS
 62
    7
 10
132.19033318596917
 20
140.83378972233953
 40
0.1627875663138724
  0
CIRCLE
  8
_1-1_
  6
CONTINUOUS
 62
    7
 10
130.15547468855576
 20
141.32214932828336
 40
0.1627875663138724
  0
CIRCLE
  8
_1-1_
  6
CONTINUOUS
 62
    7
 10
132.77575106234164
 20
142.32548069309544
 40
0.1627875663138724
  0
CIRCLE
  8
_1-1_
  6
CONTINUOUS
 62
    7
 10
135.29896916569891
 20
142.08130707611909
 40
0.1627875663138724
  0
CIRCLE
  8
_1-1_
  6
CONTINUOUS
 62
    7
 10
135.62453811233109
 20
140.29063456767315
 40
0.1627875663138724
  0
CIRCLE
  8
_1-1_
  6
CONTINUOUS
 62
    7
 10
134.89199251741977
 20
140.45342522698479
 40
0.1627875663138724
  0
CIRCLE
  8
_1-1_
  6
CONTINUOUS
 62
    7
 10
135.46174745301943
 20
141.18597082189612
 40
0.1627875663138724
  0
CIRCLE
  8
_1-1_
  6
CONTINUOUS
 62
    7
 10
136.51987436655406
 20
140.94178483292865
 40
0.1627875663138724
  0
CIRCLE
  8
_1-1_
  6
CONTINUOUS
 62
    7
 10
133.3455059979413
 20
140.61620351430534
 40
0.1627875663138724
  0
CIRCLE
  8
_1-1_
  6
CONTINUOUS
 62
    7
 10
133.67108731656461
 20
141.91851641680745
 40
0.1627875663138724
  0
CIRCLE
  8
_1-1_
  6
CONTINUOUS
 62
    7
 10
136.84545568517737
 20
142.48827135240711
 40
0.1627875663138724
  0
CIRCLE
  8
_1-1_
  6
CONTINUOUS
 62
    7
 10
137.90358259871201
 20
138.66275271853885
 40
0.1627875663138724
  0
CIRCLE
  8
_1-1_
  6
CONTINUOUS
 62
    7
 10
135.86872410129857
 20
139.15111232448268
 40
0.1627875663138724
  0
CIRCLE
  8
_1-1_
  6
CONTINUOUS
 62
    7
 10
143.45717146589951
 20
137.08182257574958
 40
0.1627875663138724
  0
CIRCLE
  8
_1-1_
  6
CONTINUOUS
 62
    7
 10
145.98038956925677
 20
136.83764895877323
 40
0.1627875663138724
  0
CIRCLE
  8
_1-1_
  6
CONTINUOUS
 62
    7
 10
146.30595851588893
 20
135.04697645032729
 40
0.1627875663138724
  0
CIRCLE
  8
_1-1_
  6
CONTINUOUS
 62
    7
 10
145.57341292097763
 20
135.20976710963893
 40
0.1627875663138724
  0
CIRCLE
  8
_1-1_
  6
CONTINUOUS
 62
    7
 10
146.14318022856841
 20
135.94231270455026
 40
0.1627875663138724
  0
CIRCLE
  8
_1-1_
  6
CONTINUOUS
 62
    7
 10
147.20129477011193
 20
135.69812671558279
 40
0.1627875663138724
  0
CIRCLE
  8
_1-1_
  6
CONTINUOUS
 62
    7
 10
144.02692640149917
 20
135.37254539695948
 40
0.1627875663138724
  0
CIRCLE
  8
_1-1_
  6
CONTINUOUS
 62
    7
 10
144.35250772012247
 20
136.67485829946159
 40
0.1627875663138724
  0
CIRCLE
  8
_1-1_
  6
CONTINUOUS
 62
    7
 10
147.52687608873524
 20
137.24461323506125
 40
0.1627875663138724
  0
CIRCLE
  8
_1-1_
  6
CONTINUOUS
 62
    7
 10
148.58500300226984
 20
133.419094601193
 40
0.1627875663138724
  0
CIRCLE
  8
_1-1_
  6
CONTINUOUS
 62
    7
 10
146.55014450485643
 20
133.90745420713682
 40
0.1627875663138724
  0
CIRCLE
  8
_1-1_
  6
CONTINUOUS
 62
    7
 10
139.98227506070523
 20
140.03548699456292
 40
0.1627875663138724
  0
CIRCLE
  8
_1-1_
  6
CONTINUOUS
 62
    7
 10
142.5054931640625
 20
139.79131337758659
 40
0.1627875663138724
  0
CIRCLE
  8
_1-1_
  6
CONTINUOUS
 62
    7
 10
142.83106211069469
 20
138.00064086914062
 40
0.1627875663138724
  0
CIRCLE
  8
_1-1_
  6
CONTINUOUS
 62
    7
 10
142.09851651578336
 20
138.16343152845229
 40
0.1627875663138724
  0
CIRCLE
  8
_1-1_
  6
CONTINUOUS
 62
    7
 10
142.66828382337417
 20
138.89597712336359
 40
0.1627875663138724
  0
CIRCLE
  8
_1-1_
  6
CONTINUOUS
 62
    7
 10
143.72639836491766
 20
138.65179113439612
 40
0.1627875663138724
  0
CIRCLE
  8
_1-1_
  6
CONTINUOUS
 62
    7
 10
140.5520299963049
 20
138.32620981577281
 40
0.1627875663138724
  0
CIRCLE
  8
_1-1_
  6
CONTINUOUS
 62
    7
 10
140.87761131492823
 20
139.62852271827492
 40
0.1627875663138724
  0
CIRCLE
  8
_1-1_
  6
CONTINUOUS
 62
    7
 10
144.05197968354096
 20
140.19827765387458
 40
0.1627875663138724
  0
CIRCLE
  8
_1-1_
  6
CONTINUOUS
 62
    7
 10
145.1101065970756
 20
136.37275902000636
 40
0.1627875663138724
  0
CIRCLE
  8
_1-1_
  6
CONTINUOUS
 62
    7
 10
143.07524809966216
 20
136.86111862595018
 40
0.1627875663138724
  0
CIRCLE
  8
_1-1_
  6
CONTINUOUS
 62
    7
 10
166.39153970254435
 20
128.04707707585516
 40
0.1627875663138724
  0
CIRCLE
  8
_1-1_
  6
CONTINUOUS
 62
    7
 10
168.91475780590162
 20
127.8029034588788
 40
0.1627875663138724
  0
CIRCLE
  8
_1-1_
  6
CONTINUOUS
 62
    7
 10
169.2403267525338
 20
126.01223095043287
 40
0.1627875663138724
  0
CIRCLE
  8
_1-1_
  6
CONTINUOUS
 62
    7
 10
168.50778115762247
 20
126.17502160974452
 40
0.1627875663138724
  0
CIRCLE
  8
_1-1_
  6
CONTINUOUS
 62
    7
 10
169.07753609322214
 20
126.90756720465583
 40
0.1627875663138724
  0
CIRCLE
  8
_1-1_
  6
CONTINUOUS
 62
    7
 10
170.13566300675677
 20
126.66338121568835
 40
0.1627875663138724
  0
CIRCLE
  8
_1-1_
  6
CONTINUOUS
 62
    7
 10
166.96129463814401
 20
126.33779989706504
 40
0.1627875663138724
  0
CIRCLE
  8
_1-1_
  6
CONTINUOUS
 62
    7
 10
167.28687595676732
 20
127.64011279956715
 40
0.1627875663138724
  0
CIRCLE
  8
_1-1_
  6
CONTINUOUS
 62
    7
 10
170.46124432538008
 20
128.20986773516682
 40
0.1627875663138724
  0
CIRCLE
  8
_1-1_
  6
CONTINUOUS
 62
    7
 10
171.51937123891472
 20
124.38434910129857
 40
0.1627875663138724
  0
CIRCLE
  8
_1-1_
  6
CONTINUOUS
 62
    7
 10
169.48451274150128
 20
124.87270870724241
 40
0.1627875663138724
  0
CIRCLE
  8
_1-1_
  6
CONTINUOUS
 62
    7
 10
155.44559375659841
 20
131.17448136613177
 40
0.1627875663138724
  0
CIRCLE
  8
_1-1_
  6
CONTINUOUS
 62
    7
 10
157.96881185995568
 20
130.93030774915542
 40
0.1627875663138724
  0
CIRCLE
  8
_1-1_
  6
CONTINUOUS
 62
    7
 10
158.29438080658784
 20
129.13963524070945
 40
0.1627875663138724
  0
CIRCLE
  8
_1-1_
  6
CONTINUOUS
 62
    7
 10
157.56183521167654
 20
129.30242590002112
 40
0.1627875663138724
  0
CIRCLE
  8
_1-1_
  6
CONTINUOUS
 62
    7
 10
158.1315901472762
 20
130.03497149493245
 40
0.1627875663138724
  0
CIRCLE
  8
_1-1_
  6
CONTINUOUS
 62
    7
 10
159.18971706081081
 20
129.79078550596495
 40
0.1627875663138724
  0
CIRCLE
  8
_1-1_
  6
CONTINUOUS
 62
    7
 10
156.01534869219807
 20
129.46520418734164
 40
0.1627875663138724
  0
CIRCLE
  8
_1-1_
  6
CONTINUOUS
 62
    7
 10
156.34093001082138
 20
130.76751708984375
 40
0.1627875663138724
  0
CIRCLE
  8
_1-1_
  6
CONTINUOUS
 62
    7
 10
159.51529837943414
 20
131.33727202544341
 40
0.1627875663138724
  0
CIRCLE
  8
_1-1_
  6
CONTINUOUS
 62
    7
 10
160.57342529296875
 20
127.51175339157517
 40
0.1627875663138724
  0
CIRCLE
  8
_1-1_
  6
CONTINUOUS
 62
    7
 10
158.53856679555534
 20
128.00011299751901
 40
0.1627875663138724
  0
CIRCLE
  8
_1-1_
  6
CONTINUOUS
 62
    7
 10
177.33747327649917
 20
123.1822122109903
 40
0.1627875663138724
  0
CIRCLE
  8
_1-1_
  6
CONTINUOUS
 62
    7
 10
179.86069137985643
 20
122.93803859401395
 40
0.1627875663138724
  0
CIRCLE
  8
_1-1_
  6
CONTINUOUS
 62
    7
 10
180.18626032648862
 20
121.147366085568
 40
0.1627875663138724
  0
CIRCLE
  8
_1-1_
  6
CONTINUOUS
 62
    7
 10
179.45371473157729
 20
121.31015674487965
 40
0.1627875663138724
  0
CIRCLE
  8
_1-1_
  6
CONTINUOUS
 62
    7
 10
180.02348203916807
 20
122.04270233979096
 40
0.1627875663138724
  0
CIRCLE
  8
_1-1_
  6
CONTINUOUS
 62
    7
 10
181.08159658071159
 20
121.79851635082349
 40
0.1627875663138724
  0
CIRCLE
  8
_1-1_
  6
CONTINUOUS
 62
    7
 10
177.90722821209883
 20
121.47293503220017
 40
0.1627875663138724
  0
CIRCLE
  8
_1-1_
  6
CONTINUOUS
 62
    7
 10
178.23280953072214
 20
122.77524793470229
 40
0.1627875663138724
  0
CIRCLE
  8
_1-1_
  6
CONTINUOUS
 62
    7
 10
181.4071778993349
 20
123.34500287030195
 40
0.1627875663138724
  0
CIRCLE
  8
_1-1_
  6
CONTINUOUS
 62
    7
 10
182.46530481286953
 20
119.51948423643371
 40
0.1627875663138724
  0
CIRCLE
  8
_1-1_
  6
CONTINUOUS
 62
    7
 10
180.43044631545609
 20
120.00784384237754
 40
0.1627875663138724
  0
CIRCLE
  8
_1-1_
  6
CONTINUOUS
 62
    7
 10
171.25640456740922
 20
124.22467618375212
 40
0.1627875663138724
  0
CIRCLE
  8
_1-1_
  6
CONTINUOUS
 62
    7
 10
173.77962267076649
 20
123.98050256677577
 40
0.1627875663138724
  0
CIRCLE
  8
_1-1_
  6
CONTINUOUS
 62
    7
 10
174.10519161739865
 20
122.18983005832982
 40
0.1627875663138724
  0
CIRCLE
  8
_1-1_
  6
CONTINUOUS
 62
    7
 10
173.37264602248734
 20
122.35262071764147
 40
0.1627875663138724
  0
CIRCLE
  8
_1-1_
  6
CONTINUOUS
 62
    7
 10
173.94240095808701
 20
123.0851663125528
 40
0.1627875663138724
  0
CIRCLE
  8
_1-1_
  6
CONTINUOUS
 62
    7
 10
175.00052787162164
 20
122.84098032358531
 40
0.1627875663138724
  0
CIRCLE
  8
_1-1_
  6
CONTINUOUS
 62
    7
 10
171.82615950300888
 20
122.51539900496201
 40
0.1627875663138724
  0
CIRCLE
  8
_1-1_
  6
CONTINUOUS
 62
    7
 10
172.15174082163219
 20
123.81771190746412
 40
0.1627875663138724
  0
CIRCLE
  8
_1-1_
  6
CONTINUOUS
 62
    7
 10
175.32610919024495
 20
124.38746684306378
 40
0.1627875663138724
  0
CIRCLE
  8
_1-1_
  6
CONTINUOUS
 62
    7
 10
176.38423610377956
 20
120.56194820919553
 40
0.1627875663138724
  0
CIRCLE
  8
_1-1_
  6
CONTINUOUS
 62
    7
 10
174.34937760636615
 20
121.05030781513936
 40
0.1627875663138724
  0
CIRCLE
  8
_1-1_
  6
CONTINUOUS
 62
    7
 10
185.32975480363177
 20
119.70730343380491
 40
0.1627875663138724
  0
CIRCLE
  8
_1-1_
  6
CONTINUOUS
 62
    7
 10
187.85297290698904
 20
119.46312981682856
 40
0.1627875663138724
  0
CIRCLE
  8
_1-1_
  6
CONTINUOUS
 62
    7
 10
188.1785418536212
 20
117.6724573083826
 40
0.1627875663138724
  0
CIRCLE
  8
_1-1_
  6
CONTINUOUS
 62
    7
 10
187.4459962587099
 20
117.83524796769426
 40
0.1627875663138724
  0
CIRCLE
  8
_1-1_
  6
CONTINUOUS
 62
    7
 10
188.01576356630068
 20
118.56779356260559
 40
0.1627875663138724
  0
CIRCLE
  8
_1-1_
  6
CONTINUOUS
 62
    7
 10
189.07387810784419
 20
118.3236075736381
 40
0.1627875663138724
  0
CIRCLE
  8
_1-1_
  6
CONTINUOUS
 62
    7
 10
185.89950973923143
 20
117.99802625501479
 40
0.1627875663138724
  0
CIRCLE
  8
_1-1_
  6
CONTINUOUS
 62
    7
 10
186.22509105785474
 20
119.3003391575169
 40
0.1627875663138724
  0
CIRCLE
  8
_1-1_
  6
CONTINUOUS
 62
    7
 10
189.3994594264675
 20
119.87009409311656
 40
0.1627875663138724
  0
CIRCLE
  8
_1-1_
  6
CONTINUOUS
 62
    7
 10
190.45758634000211
 20
116.04457545924832
 40
0.1627875663138724
  0
CIRCLE
  8
_1-1_
  6
CONTINUOUS
 62
    7
 10
188.4227278425887
 20
116.53293506519215
 40
0.1627875663138724
  0
CIRCLE
  8
_1-1_
  6
CONTINUOUS
 62
    7
 10
189.8471399255701
 20
115.884914913693
 40
0.1627875663138724
  0
CIRCLE
  8
_1-1_
  6
CONTINUOUS
 62
    7
 10
192.37035802892737
 20
115.64074129671664
 40
0.1627875663138724
  0
CIRCLE
  8
_1-1_
  6
CONTINUOUS
 62
    7
 10
192.69592697555956
 20
113.8500687882707
 40
0.1627875663138724
  0
CIRCLE
  8
_1-1_
  6
CONTINUOUS
 62
    7
 10
191.96338138064823
 20
114.01285944758236
 40
0.1627875663138724
  0
CIRCLE
  8
_1-1_
  6
CONTINUOUS
 62
    7
 10
192.53314868823904
 20
114.74540504249367
 40
0.1627875663138724
  0
CIRCLE
  8
_1-1_
  6
CONTINUOUS
 62
    7
 10
193.59126322978253
 20
114.50121905352619
 40
0.1627875663138724
  0
CIRCLE
  8
_1-1_
  6
CONTINUOUS
 62
    7
 10
190.41689486116977
 20
114.17563773490288
 40
0.1627875663138724
  0
CIRCLE
  8
_1-1_
  6
CONTINUOUS
 62
    7
 10
190.74247617979307
 20
115.47795063740499
 40
0.1627875663138724
  0
CIRCLE
  8
_1-1_
  6
CONTINUOUS
 62
    7
 10
193.91684454840583
 20
116.04770557300465
 40
0.1627875663138724
  0
CIRCLE
  8
_1-1_
  6
CONTINUOUS
 62
    7
 10
194.97497146194047
 20
112.22218693913641
 40
0.1627875663138724
  0
CIRCLE
  8
_1-1_
  6
CONTINUOUS
 62
    7
 10
192.94011296452703
 20
112.71054654508025
 40
0.1627875663138724
  0
CIRCLE
  8
_1-1_
  6
CONTINUOUS
 62
    7
 10
194.01702056059966
 20
115.36367055532095
 40
0.1627875663138724
  0
CIRCLE
  8
_1-1_
  6
CONTINUOUS
 62
    7
 10
196.54023866395693
 20
115.1194969383446
 40
0.1627875663138724
  0
CIRCLE
  8
_1-1_
  6
CONTINUOUS
 62
    7
 10
196.86580761058912
 20
113.32882442989866
 40
0.1627875663138724
  0
CIRCLE
  8
_1-1_
  6
CONTINUOUS
 62
    7
 10
196.13326201567779
 20
113.49161508921031
 40
0.1627875663138724
  0
CIRCLE
  8
_1-1_
  6
CONTINUOUS
 62
    7
 10
196.70302932326859
 20
114.22416068412163
 40
0.1627875663138724
  0
CIRCLE
  8
_1-1_
  6
CONTINUOUS
 62
    7
 10
197.76114386481208
 20
113.97997469515414
 40
0.1627875663138724
  0
CIRCLE
  8
_1-1_
  6
CONTINUOUS
 62
    7
 10
194.58677549619932
 20
113.65439337653083
 40
0.1627875663138724
  0
CIRCLE
  8
_1-1_
  6
CONTINUOUS
 62
    7
 10
194.91235681482266
 20
114.95670627903294
 40
0.1627875663138724
  0
CIRCLE
  8
_1-1_
  6
CONTINUOUS
 62
    7
 10
198.08672518343539
 20
115.5264612146326
 40
0.1627875663138724
  0
CIRCLE
  8
_1-1_
  6
CONTINUOUS
 62
    7
 10
199.14485209697003
 20
111.70094258076436
 40
0.1627875663138724
  0
CIRCLE
  8
_1-1_
  6
CONTINUOUS
 62
    7
 10
197.10999359955659
 20
112.1893021867082
 40
0.1627875663138724
  0
CIRCLE
  8
_1-1_
  6
CONTINUOUS
 62
    7
 10
187.76218723606419
 20
120.74977977855787
 40
0.1627875663138724
  0
CIRCLE
  8
_1-1_
  6
CONTINUOUS
 62
    7
 10
190.28540533942146
 20
120.50560616158151
 40
0.1627875663138724
  0
CIRCLE
  8
_1-1_
  6
CONTINUOUS
 62
    7
 10
190.61097428605365
 20
118.71493365313556
 40
0.1627875663138724
  0
CIRCLE
  8
_1-1_
  6
CONTINUOUS
 62
    7
 10
189.87842869114232
 20
118.87772431244721
 40
0.1627875663138724
  0
CIRCLE
  8
_1-1_
  6
CONTINUOUS
 62
    7
 10
190.44819599873313
 20
119.61026990735854
 40
0.1627875663138724
  0
CIRCLE
  8
_1-1_
  6
CONTINUOUS
 62
    7
 10
191.50631054027662
 20
119.36608391839106
 40
0.1627875663138724
  0
CIRCLE
  8
_1-1_
  6
CONTINUOUS
 62
    7
 10
188.33194217166385
 20
119.04050259976775
 40
0.1627875663138724
  0
CIRCLE
  8
_1-1_
  6
CONTINUOUS
 62
    7
 10
188.65752349028716
 20
120.34281550226986
 40
0.1627875663138724
  0
CIRCLE
  8
_1-1_
  6
CONTINUOUS
 62
    7
 10
191.83189185889992
 20
120.91257043786952
 40
0.1627875663138724
  0
CIRCLE
  8
_1-1_
  6
CONTINUOUS
 62
    7
 10
192.89001877243456
 20
117.08705180400128
 40
0.1627875663138724
  0
CIRCLE
  8
_1-1_
  6
CONTINUOUS
 62
    7
 10
190.85516027502112
 20
117.5754114099451
 40
0.1627875663138724
  0
CIRCLE
  8
_1-1_
  6
CONTINUOUS
 62
    7
 10
195.7544687631968
 20
118.14359510267104
 40
0.1627875663138724
  0
CIRCLE
  8
_1-1_
  6
CONTINUOUS
 62
    7
 10
198.27768686655406
 20
117.89942148569469
 40
0.1627875663138724
  0
CIRCLE
  8
_1-1_
  6
CONTINUOUS
 62
    7
 10
198.60325581318625
 20
116.10874897724874
 40
0.1627875663138724
  0
CIRCLE
  8
_1-1_
  6
CONTINUOUS
 62
    7
 10
197.87071021827492
 20
116.27153963656039
 40
0.1627875663138724
  0
CIRCLE
  8
_1-1_
  6
CONTINUOUS
 62
    7
 10
198.44047752586573
 20
117.00408523147171
 40
0.1627875663138724
  0
CIRCLE
  8
_1-1_
  6
CONTINUOUS
 62
    7
 10
199.49859206740922
 20
116.75989924250423
 40
0.1627875663138724
  0
CIRCLE
  8
_1-1_
  6
CONTINUOUS
 62
    7
 10
196.32422369879646
 20
116.43431792388093
 40
0.1627875663138724
  0
CIRCLE
  8
_1-1_
  6
CONTINUOUS
 62
    7
 10
196.64980501741977
 20
117.73663082638303
 40
0.1627875663138724
  0
CIRCLE
  8
_1-1_
  6
CONTINUOUS
 62
    7
 10
199.82417338603253
 20
118.3063857619827
 40
0.1627875663138724
  0
CIRCLE
  8
_1-1_
  6
CONTINUOUS
 62
    7
 10
200.88230029956716
 20
114.48086712811445
 40
0.1627875663138724
  0
CIRCLE
  8
_1-1_
  6
CONTINUOUS
 62
    7
 10
198.84744180215372
 20
114.96922673405828
 40
0.1627875663138724
  0
CIRCLE
  8
_1-1_
  6
CONTINUOUS
 62
    7
 10
203.79839098131336
 20
116.97278409390837
 40
0.1627875663138724
  0
CIRCLE
  8
_1-1_
  6
CONTINUOUS
 62
    7
 10
204.93478311074747
 20
117.81333717139992
 40
0.1627875663138724
  0
CIRCLE
  8
_1-1_
  6
CONTINUOUS
 62
    7
 10
205.99288528029984
 20
117.56915118243244
 40
0.1627875663138724
  0
CIRCLE
  8
_1-1_
  6
CONTINUOUS
 62
    7
 10
203.14411060230154
 20
118.54588276631124
 40
0.1627875663138724
  0
CIRCLE
  8
_1-1_
  6
CONTINUOUS
 62
    7
 10
208.43472042599242
 20
117.97612783071158
 40
0.1627875663138724
  0
CIRCLE
  8
_1-1_
  6
CONTINUOUS
 62
    7
 10
199.97600246120146
 20
114.36661179001267
 40
0.1627875663138724
  0
CIRCLE
  8
_1-1_
  6
CONTINUOUS
 62
    7
 10
201.11239459063557
 20
115.20716486750423
 40
0.1627875663138724
  0
CIRCLE
  8
_1-1_
  6
CONTINUOUS
 62
    7
 10
202.17049676018794
 20
114.96297887853675
 40
0.1627875663138724
  0
CIRCLE
  8
_1-1_
  6
CONTINUOUS
 62
    7
 10
199.32172208218961
 20
115.93971046241555
 40
0.1627875663138724
  0
CIRCLE
  8
_1-1_
  6
CONTINUOUS
 62
    7
 10
204.6123319058805
 20
115.36995552681589
 40
0.1627875663138724
  0
CIRCLE
  8
_1-1_
  6
CONTINUOUS
 62
    7
 10
205.01460719752959
 20
114.19285954655828
 40
0.1627875663138724
  0
CIRCLE
  8
_1-1_
  6
CONTINUOUS
 62
    7
 10
206.1509993269637
 20
115.03341262404983
 40
0.1627875663138724
  0
CIRCLE
  8
_1-1_
  6
CONTINUOUS
 62
    7
 10
207.20910149651607
 20
114.78922663508236
 40
0.1627875663138724
  0
CIRCLE
  8
_1-1_
  6
CONTINUOUS
 62
    7
 10
204.36032681851773
 20
115.76595821896116
 40
0.1627875663138724
  0
CIRCLE
  8
_1-1_
  6
CONTINUOUS
 62
    7
 10
209.65093664220862
 20
115.1962032833615
 40
0.1627875663138724
  0
CIRCLE
  8
_1-1_
  6
CONTINUOUS
 62
    7
 10
209.87947206239443
 20
116.45155210752746
 40
0.1627875663138724
  0
CIRCLE
  8
_1-1_
  6
CONTINUOUS
 62
    7
 10
211.01586419182857
 20
117.29210518501901
 40
0.1627875663138724
  0
CIRCLE
  8
_1-1_
  6
CONTINUOUS
 62
    7
 10
212.07396636138091
 20
117.04791919605152
 40
0.1627875663138724
  0
CIRCLE
  8
_1-1_
  6
CONTINUOUS
 62
    7
 10
209.2251916833826
 20
118.02465077993033
 40
0.1627875663138724
  0
CIRCLE
  8
_1-1_
  6
CONTINUOUS
 62
    7
 10
214.51580150707349
 20
117.45489584433066
 40
0.1627875663138724
  0
CIRCLE
  8
_1-1_
  6
CONTINUOUS
 62
    7
 10
211.96442475190034
 20
117.84150819520693
 40
0.1627875663138724
  0
CIRCLE
  8
_1-1_
  6
CONTINUOUS
 62
    7
 10
213.10081688133448
 20
118.68206127269849
 40
0.1627875663138724
  0
CIRCLE
  8
_1-1_
  6
CONTINUOUS
 62
    7
 10
214.15891905088682
 20
118.437875283731
 40
0.1627875663138724
  0
CIRCLE
  8
_1-1_
  6
CONTINUOUS
 62
    7
 10
211.31014437288852
 20
119.41460686760981
 40
0.1627875663138724
  0
CIRCLE
  8
_1-1_
  6
CONTINUOUS
 62
    7
 10
216.6007541965794
 20
118.84485193201014
 40
0.1627875663138724
  0
CIRCLE
  8
_1-1_
  6
CONTINUOUS
 62
    7
 10
211.09568827861065
 20
120.10020075617611
 40
0.1627875663138724
  0
CIRCLE
  8
_1-1_
  6
CONTINUOUS
 62
    7
 10
212.23208040804477
 20
120.94075383366766
 40
0.1627875663138724
  0
CIRCLE
  8
_1-1_
  6
CONTINUOUS
 62
    7
 10
213.29018257759714
 20
120.69656784470017
 40
0.1627875663138724
  0
CIRCLE
  8
_1-1_
  6
CONTINUOUS
 62
    7
 10
210.44140789959883
 20
121.67329942857897
 40
0.1627875663138724
  0
CIRCLE
  8
_1-1_
  6
CONTINUOUS
 62
    7
 10
215.73201772328972
 20
121.10354449297931
 40
0.1627875663138724
  0
CIRCLE
  8
_1-1_
  6
CONTINUOUS
 62
    7
 10
215.61307340054901
 20
120.79517261402027
 40
0.1627875663138724
  0
CIRCLE
  8
_1-1_
  6
CONTINUOUS
 62
    7
 10
216.74946552998313
 20
121.63572569151184
 40
0.1627875663138724
  0
CIRCLE
  8
_1-1_
  6
CONTINUOUS
 62
    7
 10
217.8075676995355
 20
121.39153970254435
 40
0.1627875663138724
  0
CIRCLE
  8
_1-1_
  6
CONTINUOUS
 62
    7
 10
214.95879302153716
 20
122.36827128642315
 40
0.1627875663138724
  0
CIRCLE
  8
_1-1_
  6
CONTINUOUS
 62
    7
 10
220.24940284522805
 20
121.79851635082349
 40
0.1627875663138724
  0
CIRCLE
  8
_1-1_
  6
CONTINUOUS
 62
    7
 10
219.60920179212417
 20
121.49015684385559
 40
0.1627875663138724
  0
CIRCLE
  8
_1-1_
  6
CONTINUOUS
 62
    7
 10
220.74559392155828
 20
122.33070992134714
 40
0.1627875663138724
  0
CIRCLE
  8
_1-1_
  6
CONTINUOUS
 62
    7
 10
221.80369609111065
 20
122.08652393237965
 40
0.1627875663138724
  0
CIRCLE
  8
_1-1_
  6
CONTINUOUS
 62
    7
 10
218.95492141311234
 20
123.06325551625845
 40
0.1627875663138724
  0
CIRCLE
  8
_1-1_
  6
CONTINUOUS
 62
    7
 10
224.24553123680323
 20
122.49350058065879
 40
0.1627875663138724
  0
CIRCLE
  8
_1-1_
  6
CONTINUOUS
 62
    7
 10
220.47793826541385
 20
121.83764895877323
 40
0.1627875663138724
  0
CIRCLE
  8
_1-1_
  6
CONTINUOUS
 62
    7
 10
221.614330394848
 20
122.67820203626479
 40
0.1627875663138724
  0
CIRCLE
  8
_1-1_
  6
CONTINUOUS
 62
    7
 10
222.67243256440034
 20
122.43401604729731
 40
0.1627875663138724
  0
CIRCLE
  8
_1-1_
  6
CONTINUOUS
 62
    7
 10
219.82365788640203
 20
123.41074763117611
 40
0.1627875663138724
  0
CIRCLE
  8
_1-1_
  6
CONTINUOUS
 62
    7
 10
225.11426771009292
 20
122.84099269557645
 40
0.1627875663138724
  0
CIRCLE
  8
_1-1_
  6
CONTINUOUS
 62
    7
 10
224.1265869140625
 20
124.27008139120566
 40
0.1627875663138724
  0
CIRCLE
  8
_1-1_
  6
CONTINUOUS
 62
    7
 10
225.26297904349664
 20
125.11063446869721
 40
0.1627875663138724
  0
CIRCLE
  8
_1-1_
  6
CONTINUOUS
 62
    7
 10
226.32108121304901
 20
124.86644847972974
 40
0.1627875663138724
  0
CIRCLE
  8
_1-1_
  6
CONTINUOUS
 62
    7
 10
223.47230653505068
 20
125.84318006360854
 40
0.1627875663138724
  0
CIRCLE
  8
_1-1_
  6
CONTINUOUS
 62
    7
 10
228.76291635874156
 20
125.27342512800888
 40
0.1627875663138724
  0
CIRCLE
  8
_1-1_
  6
CONTINUOUS
 62
    7
 10
224.99529864336995
 20
126.0075295938028
 40
0.1627875663138724
  0
CIRCLE
  8
_1-1_
  6
CONTINUOUS
 62
    7
 10
226.13169077280406
 20
126.84808267129435
 40
0.1627875663138724
  0
CIRCLE
  8
_1-1_
  6
CONTINUOUS
 62
    7
 10
227.18979294235643
 20
126.60389668232686
 40
0.1627875663138724
  0
CIRCLE
  8
_1-1_
  6
CONTINUOUS
 62
    7
 10
224.34101826435813
 20
127.58062826620566
 40
0.1627875663138724
  0
CIRCLE
  8
_1-1_
  6
CONTINUOUS
 62
    7
 10
229.63162808804901
 20
127.010873330606
 40
0.1627875663138724
  0
CIRCLE
  8
_1-1_
  6
CONTINUOUS
 62
    7
 10
231.25013196790542
 20
126.7025138236381
 40
0.1627875663138724
  0
CIRCLE
  8
_1-1_
  6
CONTINUOUS
 62
    7
 10
232.38652409733953
 20
127.54306690112965
 40
0.1627875663138724
  0
CIRCLE
  8
_1-1_
  6
CONTINUOUS
 62
    7
 10
233.4446262668919
 20
127.29888091216218
 40
0.1627875663138724
  0
CIRCLE
  8
_1-1_
  6
CONTINUOUS
 62
    7
 10
230.59585158889359
 20
128.27561249604096
 40
0.1627875663138724
  0
CIRCLE
  8
_1-1_
  6
CONTINUOUS
 62
    7
 10
235.88646141258448
 20
127.7058575604413
 40
0.1627875663138724
  0
CIRCLE
  8
_1-1_
  6
CONTINUOUS
 62
    7
 10
238.1999495222762
 20
128.96120638460727
 40
0.1627875663138724
  0
CIRCLE
  8
_1-1_
  6
CONTINUOUS
 62
    7
 10
239.33634165171031
 20
129.80175946209883
 40
0.1627875663138724
  0
CIRCLE
  8
_1-1_
  6
CONTINUOUS
 62
    7
 10
240.39444382126268
 20
129.55757347313133
 40
0.1627875663138724
  0
CIRCLE
  8
_1-1_
  6
CONTINUOUS
 62
    7
 10
237.54566914326438
 20
130.53430505701013
 40
0.1627875663138724
  0
CIRCLE
  8
_1-1_
  6
CONTINUOUS
 62
    7
 10
242.83627896695526
 20
129.96455012141047
 40
0.1627875663138724
  0
CIRCLE
  8
_1-1_
  6
CONTINUOUS
 62
    7
 10
241.84859817092484
 20
131.21988657358531
 40
0.1627875663138724
  0
CIRCLE
  8
_1-1_
  6
CONTINUOUS
 62
    7
 10
242.98499030035896
 20
132.06043965107688
 40
0.1627875663138724
  0
CIRCLE
  8
_1-1_
  6
CONTINUOUS
 62
    7
 10
244.04309246991133
 20
131.81625366210937
 40
0.1627875663138724
  0
CIRCLE
  8
_1-1_
  6
CONTINUOUS
 62
    7
 10
241.19431779191302
 20
132.79298524598818
 40
0.1627875663138724
  0
CIRCLE
  8
_1-1_
  6
CONTINUOUS
 62
    7
 10
246.48492761560391
 20
132.22323031038852
 40
0.1627875663138724
  0
CIRCLE
  8
_1-1_
  6
CONTINUOUS
 62
    7
 10
244.28103060335727
 20
133.82607124947214
 40
0.1627875663138724
  0
CIRCLE
  8
_1-1_
  6
CONTINUOUS
 62
    7
 10
245.41742273279141
 20
134.6666243269637
 40
0.1627875663138724
  0
CIRCLE
  8
_1-1_
  6
CONTINUOUS
 62
    7
 10
246.47552490234375
 20
134.4224383379962
 40
0.1627875663138724
  0
CIRCLE
  8
_1-1_
  6
CONTINUOUS
 62
    7
 10
243.62675022434544
 20
135.399169921875
 40
0.1627875663138724
  0
CIRCLE
  8
_1-1_
  6
CONTINUOUS
 62
    7
 10
248.91736004803633
 20
134.82941498627534
 40
0.1627875663138724
  0
CIRCLE
  8
_1-1_
  6
CONTINUOUS
 62
    7
 10
246.71346303578972
 20
135.21602733715162
 40
0.1627875663138724
  0
CIRCLE
  8
_1-1_
  6
CONTINUOUS
 62
    7
 10
247.84985516522383
 20
136.05658041464318
 40
0.1627875663138724
  0
CIRCLE
  8
_1-1_
  6
CONTINUOUS
 62
    7
 10
248.9079573347762
 20
135.81239442567568
 40
0.1627875663138724
  0
CIRCLE
  8
_1-1_
  6
CONTINUOUS
 62
    7
 10
246.05918265677789
 20
136.78912600955448
 40
0.1627875663138724
  0
CIRCLE
  8
_1-1_
  6
CONTINUOUS
 62
    7
 10
251.34979248046875
 20
136.21937107395482
 40
0.1627875663138724
  0
CIRCLE
  8
_1-1_
  6
CONTINUOUS
 62
    7
 10
248.79839098131336
 20
136.43224355336784
 40
0.1627875663138724
  0
CIRCLE
  8
_1-1_
  6
CONTINUOUS
 62
    7
 10
249.93478311074747
 20
137.27279663085937
 40
0.1627875663138724
  0
CIRCLE
  8
_1-1_
  6
CONTINUOUS
 62
    7
 10
250.99288528029984
 20
137.0286106418919
 40
0.1627875663138724
  0
CIRCLE
  8
_1-1_
  6
CONTINUOUS
 62
    7
 10
248.14411060230154
 20
138.0053422257707
 40
0.1627875663138724
  0
CIRCLE
  8
_1-1_
  6
CONTINUOUS
 62
    7
 10
253.43472042599242
 20
137.43558729017104
 40
0.1627875663138724
  0
CIRCLE
  8
_1-1_
  6
CONTINUOUS
 62
    7
 10
253.48952834670609
 20
137.47471989812078
 40
0.1627875663138724
  0
CIRCLE
  8
_1-1_
  6
CONTINUOUS
 62
    7
 10
254.62592047614021
 20
138.31527297561234
 40
0.1627875663138724
  0
CIRCLE
  8
_1-1_
  6
CONTINUOUS
 62
    7
 10
255.68402264569258
 20
138.07108698664484
 40
0.1627875663138724
  0
CIRCLE
  8
_1-1_
  6
CONTINUOUS
 62
    7
 10
252.83524796769427
 20
139.04781857052365
 40
0.1627875663138724
  0
CIRCLE
  8
_1-1_
  6
CONTINUOUS
 62
    7
 10
258.12585779138516
 20
138.47806363492398
 40
0.1627875663138724
  0
CIRCLE
  8
_1-1_
  6
CONTINUOUS
 62
    7
 10
260.78682564400339
 20
138.86467598580026
 40
0.1627875663138724
  0
CIRCLE
  8
_1-1_
  6
CONTINUOUS
 62
    7
 10
261.9232177734375
 20
139.70522906329182
 40
0.1627875663138724
  0
CIRCLE
  8
_1-1_
  6
CONTINUOUS
 62
    7
 10
262.9813199429899
 20
139.46104307432432
 40
0.1627875663138724
  0
CIRCLE
  8
_1-1_
  6
CONTINUOUS
 62
    7
 10
260.13254526499156
 20
140.43777465820313
 40
0.1627875663138724
  0
CIRCLE
  8
_1-1_
  6
CONTINUOUS
 62
    7
 10
265.42315508868245
 20
139.86801972260346
 40
0.1627875663138724
  0
CIRCLE
  8
_1-1_
  6
CONTINUOUS
 62
    7
 10
260.78682564400339
 20
139.38592034417229
 40
0.1627875663138724
  0
CIRCLE
  8
_1-1_
  6
CONTINUOUS
 62
    7
 10
261.9232177734375
 20
140.22647342166385
 40
0.1627875663138724
  0
CIRCLE
  8
_1-1_
  6
CONTINUOUS
 62
    7
 10
262.9813199429899
 20
139.98228743269638
 40
0.1627875663138724
  0
CIRCLE
  8
_1-1_
  6
CONTINUOUS
 62
    7
 10
260.13254526499156
 20
140.95901901657518
 40
0.1627875663138724
  0
CIRCLE
  8
_1-1_
  6
CONTINUOUS
 62
    7
 10
265.42315508868245
 20
140.38926408097552
 40
0.1627875663138724
  0
CIRCLE
  8
_1-1_
  6
CONTINUOUS
 62
    7
 10
266.3466499947213
 20
143.55578860721073
 40
0.1627875663138724
  0
CIRCLE
  8
_1-1_
  6
CONTINUOUS
 62
    7
 10
267.48304212415542
 20
144.39634168470229
 40
0.1627875663138724
  0
CIRCLE
  8
_1-1_
  6
CONTINUOUS
 62
    7
 10
268.54114429370776
 20
144.15215569573479
 40
0.1627875663138724
  0
CIRCLE
  8
_1-1_
  6
CONTINUOUS
 62
    7
 10
265.69236961570948
 20
145.12888727961359
 40
0.1627875663138724
  0
CIRCLE
  8
_1-1_
  6
CONTINUOUS
 62
    7
 10
270.98297943940037
 20
144.55913234401393
 40
0.1627875663138724
  0
CIRCLE
  8
_1-1_
  6
CONTINUOUS
 62
    7
 10
263.56673781936234
 20
143.03455662082982
 40
0.1627875663138724
  0
CIRCLE
  8
_1-1_
  6
CONTINUOUS
 62
    7
 10
264.70312994879646
 20
143.87510969832138
 40
0.1627875663138724
  0
CIRCLE
  8
_1-1_
  6
CONTINUOUS
 62
    7
 10
265.76123211834886
 20
143.63092370935388
 40
0.1627875663138724
  0
CIRCLE
  8
_1-1_
  6
CONTINUOUS
 62
    7
 10
262.91245744035052
 20
144.60765529323268
 40
0.1627875663138724
  0
CIRCLE
  8
_1-1_
  6
CONTINUOUS
 62
    7
 10
268.20306726404141
 20
144.03790035763302
 40
0.1627875663138724
  0
CIRCLE
  8
_1-1_
  6
CONTINUOUS
 62
    7
 10
261.1343053869299
 20
141.64460053315034
 40
0.1627875663138724
  0
CIRCLE
  8
_1-1_
  6
CONTINUOUS
 62
    7
 10
262.27069751636401
 20
142.4851536106419
 40
0.1627875663138724
  0
CIRCLE
  8
_1-1_
  6
CONTINUOUS
 62
    7
 10
263.32879968591641
 20
142.24096762167443
 40
0.1627875663138724
  0
CIRCLE
  8
_1-1_
  6
CONTINUOUS
 62
    7
 10
260.48002500791807
 20
143.21769920555323
 40
0.1627875663138724
  0
CIRCLE
  8
_1-1_
  6
CONTINUOUS
 62
    7
 10
265.77063483160896
 20
142.64794426995354
 40
0.1627875663138724
  0
CIRCLE
  8
_1-1_
  6
CONTINUOUS
 62
    7
 10
271.03776261613177
 20
145.11949693834461
 40
0.1627875663138724
  0
CIRCLE
  8
_1-1_
  6
CONTINUOUS
 62
    7
 10
272.17415474556589
 20
145.96005001583615
 40
0.1627875663138724
  0
CIRCLE
  8
_1-1_
  6
CONTINUOUS
 62
    7
 10
273.23225691511828
 20
145.71586402686867
 40
0.1627875663138724
  0
CIRCLE
  8
_1-1_
  6
CONTINUOUS
 62
    7
 10
270.38348223711995
 20
146.69259561074747
 40
0.1627875663138724
  0
CIRCLE
  8
_1-1_
  6
CONTINUOUS
 62
    7
 10
275.67409206081084
 20
146.12284067514781
 40
0.1627875663138724
  0
CIRCLE
  8
_1-1_
  6
CONTINUOUS
 62
    7
 10
272.08025133287583
 20
146.16197328309755
 40
0.1627875663138724
  0
CIRCLE
  8
_1-1_
  6
CONTINUOUS
 62
    7
 10
273.21664346231
 20
147.00252636058912
 40
0.1627875663138724
  0
CIRCLE
  8
_1-1_
  6
CONTINUOUS
 62
    7
 10
274.27474563186234
 20
146.75834037162164
 40
0.1627875663138724
  0
CIRCLE
  8
_1-1_
  6
CONTINUOUS
 62
    7
 10
271.42597095386401
 20
147.73507195550044
 40
0.1627875663138724
  0
CIRCLE
  8
_1-1_
  6
CONTINUOUS
 62
    7
 10
276.7165807775549
 20
147.16531701990075
 40
0.1627875663138724
  0
CIRCLE
  8
_1-1_
  6
CONTINUOUS
 62
    7
 10
273.29646754909209
 20
147.37818949931378
 40
0.1627875663138724
  0
CIRCLE
  8
_1-1_
  6
CONTINUOUS
 62
    7
 10
274.4328596785262
 20
148.21874257680534
 40
0.1627875663138724
  0
CIRCLE
  8
_1-1_
  6
CONTINUOUS
 62
    7
 10
275.49096184807854
 20
147.97455658783784
 40
0.1627875663138724
  0
CIRCLE
  8
_1-1_
  6
CONTINUOUS
 62
    7
 10
272.64218717008026
 20
148.95128817171664
 40
0.1627875663138724
  0
CIRCLE
  8
_1-1_
  6
CONTINUOUS
 62
    7
 10
277.93279699377115
 20
148.38153323611698
 40
0.1627875663138724
  0
CIRCLE
  8
_1-1_
  6
CONTINUOUS
 62
    7
 10
278.33505991342906
 20
149.28937757337417
 40
0.1627875663138724
  0
CIRCLE
  8
_1-1_
  6
CONTINUOUS
 62
    7
 10
279.47145204286318
 20
150.12993065086573
 40
0.1627875663138724
  0
CIRCLE
  8
_1-1_
  6
CONTINUOUS
 62
    7
 10
280.52955421241558
 20
149.88574466189823
 40
0.1627875663138724
  0
CIRCLE
  8
_1-1_
  6
CONTINUOUS
 62
    7
 10
277.68077953441724
 20
150.86247624577703
 40
0.1627875663138724
  0
CIRCLE
  8
_1-1_
  6
CONTINUOUS
 62
    7
 10
282.97138935810813
 20
150.29272131017737
 40
0.1627875663138724
  0
CIRCLE
  8
_1-1_
  6
CONTINUOUS
 62
    7
 10
281.28874907622469
 20
150.50559378959039
 40
0.1627875663138724
  0
CIRCLE
  8
_1-1_
  6
CONTINUOUS
 62
    7
 10
282.4251412056588
 20
151.34614686708193
 40
0.1627875663138724
  0
CIRCLE
  8
_1-1_
  6
CONTINUOUS
 62
    7
 10
283.48324337521115
 20
151.10196087811445
 40
0.1627875663138724
  0
CIRCLE
  8
_1-1_
  6
CONTINUOUS
 62
    7
 10
280.63446869721287
 20
152.07869246199326
 40
0.1627875663138724
  0
CIRCLE
  8
_1-1_
  6
CONTINUOUS
 62
    7
 10
285.92507852090375
 20
151.50893752639359
 40
0.1627875663138724
  0
CIRCLE
  8
_1-1_
  6
CONTINUOUS
 62
    7
 10
284.76364548141896
 20
152.24305436417865
 40
0.1627875663138724
  0
CIRCLE
  8
_1-1_
  6
CONTINUOUS
 62
    7
 10
285.90003761085308
 20
153.08360744167018
 40
0.1627875663138724
  0
CIRCLE
  8
_1-1_
  6
CONTINUOUS
 62
    7
 10
286.95813978040542
 20
152.83942145270271
 40
0.1627875663138724
  0
CIRCLE
  8
_1-1_
  6
CONTINUOUS
 62
    7
 10
284.10936510240708
 20
153.81615303658151
 40
0.1627875663138724
  0
CIRCLE
  8
_1-1_
  6
CONTINUOUS
 62
    7
 10
289.39997492609797
 20
153.24639810098185
 40
0.1627875663138724
  0
CIRCLE
  8
_1-1_
  6
CONTINUOUS
 62
    7
 10
287.89106214368667
 20
153.8067626953125
 40
0.1627875663138724
  0
CIRCLE
  8
_1-1_
  6
CONTINUOUS
 62
    7
 10
289.02745427312078
 20
154.64731577280406
 40
0.1627875663138724
  0
CIRCLE
  8
_1-1_
  6
CONTINUOUS
 62
    7
 10
290.08555644267318
 20
154.40312978383659
 40
0.1627875663138724
  0
CIRCLE
  8
_1-1_
  6
CONTINUOUS
 62
    7
 10
287.23678176467484
 20
155.37986136771539
 40
0.1627875663138724
  0
CIRCLE
  8
_1-1_
  6
CONTINUOUS
 62
    7
 10
292.52739158836573
 20
154.81010643211573
 40
0.1627875663138724
  0
CIRCLE
  8
_1-1_
  6
CONTINUOUS
 62
    7
 10
291.1922310494088
 20
154.84922666807432
 40
0.1627875663138724
  0
CIRCLE
  8
_1-1_
  6
CONTINUOUS
 62
    7
 10
292.32862317884292
 20
155.68977974556589
 40
0.1627875663138724
  0
CIRCLE
  8
_1-1_
  6
CONTINUOUS
 62
    7
 10
293.38672534839526
 20
155.44559375659841
 40
0.1627875663138724
  0
CIRCLE
  8
_1-1_
  6
CONTINUOUS
 62
    7
 10
290.53795067039698
 20
156.42232534047722
 40
0.1627875663138724
  0
CIRCLE
  8
_1-1_
  6
CONTINUOUS
 62
    7
 10
295.82856049408787
 20
155.85257040487755
 40
0.1627875663138724
  0
CIRCLE
  8
_1-1_
  6
CONTINUOUS
 62
    7
 10
293.27715899493245
 20
155.54421089790964
 40
0.1627875663138724
  0
CIRCLE
  8
_1-1_
  6
CONTINUOUS
 62
    7
 10
294.41355112436656
 20
156.3847639754012
 40
0.1627875663138724
  0
CIRCLE
  8
_1-1_
  6
CONTINUOUS
 62
    7
 10
295.47165329391896
 20
156.1405779864337
 40
0.1627875663138724
  0
CIRCLE
  8
_1-1_
  6
CONTINUOUS
 62
    7
 10
292.62287861592063
 20
157.1173095703125
 40
0.1627875663138724
  0
CIRCLE
  8
_1-1_
  6
CONTINUOUS
 62
    7
 10
297.91348843961151
 20
156.54755463471284
 40
0.1627875663138724
  0
CIRCLE
  8
_1-1_
  6
CONTINUOUS
 62
    7
 10
299.18448783255911
 20
156.93417935758023
 40
0.1627875663138724
  0
CIRCLE
  8
_1-1_
  6
CONTINUOUS
 62
    7
 10
300.32087996199328
 20
157.7747324350718
 40
0.1627875663138724
  0
CIRCLE
  8
_1-1_
  6
CONTINUOUS
 62
    7
 10
301.37898213154563
 20
157.53054644610432
 40
0.1627875663138724
  0
CIRCLE
  8
_1-1_
  6
CONTINUOUS
 62
    7
 10
298.53020745354729
 20
158.50727802998313
 40
0.1627875663138724
  0
CIRCLE
  8
_1-1_
  6
CONTINUOUS
 62
    7
 10
303.82081727723818
 20
157.93752309438347
 40
0.1627875663138724
  0
CIRCLE
  8
_1-1_
  6
CONTINUOUS
 62
    7
 10
289.97599008921031
 20
153.45927058039484
 40
0.1627875663138724
  0
CIRCLE
  8
_1-1_
  6
CONTINUOUS
 62
    7
 10
291.11238221864443
 20
154.29982365788641
 40
0.1627875663138724
  0
CIRCLE
  8
_1-1_
  6
CONTINUOUS
 62
    7
 10
292.17048438819683
 20
154.05563766891893
 40
0.1627875663138724
  0
CIRCLE
  8
_1-1_
  6
CONTINUOUS
 62
    7
 10
289.32170971019849
 20
155.03236925279774
 40
0.1627875663138724
  0
CIRCLE
  8
_1-1_
  6
CONTINUOUS
 62
    7
 10
294.61231953388938
 20
154.46261431719807
 40
0.1627875663138724
  0
CIRCLE
  8
_1-1_
  6
CONTINUOUS
 62
    7
 10
307.35052160314615
 20
162.66775595175255
 40
0.1627875663138724
  0
CIRCLE
  8
_1-1_
  6
CONTINUOUS
 62
    7
 10
308.48691373258026
 20
163.50830902924409
 40
0.1627875663138724
  0
CIRCLE
  8
_1-1_
  6
CONTINUOUS
 62
    7
 10
309.5450159021326
 20
163.26412304027662
 40
0.1627875663138724
  0
CIRCLE
  8
_1-1_
  6
CONTINUOUS
 62
    7
 10
306.69624122413433
 20
164.24085462415542
 40
0.1627875663138724
  0
CIRCLE
  8
_1-1_
  6
CONTINUOUS
 62
    7
 10
311.98685104782521
 20
163.67109968855576
 40
0.1627875663138724
  0
CIRCLE
  8
_1-1_
  6
CONTINUOUS
 62
    7
 10
304.22310494087839
 20
160.58282800622891
 40
0.1627875663138724
  0
CIRCLE
  8
_1-1_
  6
CONTINUOUS
 62
    7
 10
305.3594970703125
 20
161.42338108372044
 40
0.1627875663138724
  0
CIRCLE
  8
_1-1_
  6
CONTINUOUS
 62
    7
 10
306.4175992398649
 20
161.17919509475297
 40
0.1627875663138724
  0
CIRCLE
  8
_1-1_
  6
CONTINUOUS
 62
    7
 10
303.56882456186656
 20
162.15592667863177
 40
0.1627875663138724
  0
CIRCLE
  8
_1-1_
  6
CONTINUOUS
 62
    7
 10
308.85943438555745
 20
161.58617174303211
 40
0.1627875663138724
  0
CIRCLE
  8
_1-1_
  6
CONTINUOUS
 62
    7
 10
311.52040223817568
 20
163.36274018158784
 40
0.1627875663138724
  0
CIRCLE
  8
_1-1_
  6
CONTINUOUS
 62
    7
 10
312.65679436760979
 20
164.2032932590794
 40
0.1627875663138724
  0
CIRCLE
  8
_1-1_
  6
CONTINUOUS
 62
    7
 10
313.71489653716219
 20
163.95910727011193
 40
0.1627875663138724
  0
CIRCLE
  8
_1-1_
  6
CONTINUOUS
 62
    7
 10
310.86612185916385
 20
164.93583885399073
 40
0.1627875663138724
  0
CIRCLE
  8
_1-1_
  6
CONTINUOUS
 62
    7
 10
316.15673168285474
 20
164.36608391839107
 40
0.1627875663138724
  0
CIRCLE
  8
_1-1_
  6
CONTINUOUS
 62
    7
 10
316.03776261613177
 20
165.44769287109375
 40
0.1627875663138724
  0
CIRCLE
  8
_1-1_
  6
CONTINUOUS
 62
    7
 10
317.17415474556589
 20
166.28824594858531
 40
0.1627875663138724
  0
CIRCLE
  8
_1-1_
  6
CONTINUOUS
 62
    7
 10
318.23225691511828
 20
166.04405995961784
 40
0.1627875663138724
  0
CIRCLE
  8
_1-1_
  6
CONTINUOUS
 62
    7
 10
315.38348223711995
 20
167.02079154349664
 40
0.1627875663138724
  0
CIRCLE
  8
_1-1_
  6
CONTINUOUS
 62
    7
 10
320.67409206081084
 20
166.45103660789698
 40
0.1627875663138724
  0
CIRCLE
  8
_1-1_
  6
CONTINUOUS
 62
    7
 10
324.03004414326438
 20
168.92258927628802
 40
0.1627875663138724
  0
CIRCLE
  8
_1-1_
  6
CONTINUOUS
 62
    7
 10
325.16643627269849
 20
169.76314235377956
 40
0.1627875663138724
  0
CIRCLE
  8
_1-1_
  6
CONTINUOUS
 62
    7
 10
326.22453844225089
 20
169.51895636481208
 40
0.1627875663138724
  0
CIRCLE
  8
_1-1_
  6
CONTINUOUS
 62
    7
 10
323.37576376425255
 20
170.49568794869089
 40
0.1627875663138724
  0
CIRCLE
  8
_1-1_
  6
CONTINUOUS
 62
    7
 10
328.66637358794344
 20
169.92593301309122
 40
0.1627875663138724
  0
CIRCLE
  8
_1-1_
  6
CONTINUOUS
 62
    7
 10
319.51265902132604
 20
169.0963415197424
 40
0.1627875663138724
  0
CIRCLE
  8
_1-1_
  6
CONTINUOUS
 62
    7
 10
320.64905115076016
 20
169.93689459723396
 40
0.1627875663138724
  0
CIRCLE
  8
_1-1_
  6
CONTINUOUS
 62
    7
 10
321.7071533203125
 20
169.69270860826649
 40
0.1627875663138724
  0
CIRCLE
  8
_1-1_
  6
CONTINUOUS
 62
    7
 10
318.85837864231422
 20
170.66944019214529
 40
0.1627875663138724
  0
CIRCLE
  8
_1-1_
  6
CONTINUOUS
 62
    7
 10
324.14898846600511
 20
170.09968525654563
 40
0.1627875663138724
  0
CIRCLE
  8
_1-1_
  6
CONTINUOUS
 62
    7
 10
326.46247657569683
 20
171.00752959380279
 40
0.1627875663138724
  0
CIRCLE
  8
_1-1_
  6
CONTINUOUS
 62
    7
 10
327.59886870513094
 20
171.84808267129435
 40
0.1627875663138724
  0
CIRCLE
  8
_1-1_
  6
CONTINUOUS
 62
    7
 10
328.65697087468328
 20
171.60389668232688
 40
0.1627875663138724
  0
CIRCLE
  8
_1-1_
  6
CONTINUOUS
 62
    7
 10
325.808196196685
 20
172.58062826620568
 40
0.1627875663138724
  0
CIRCLE
  8
_1-1_
  6
CONTINUOUS
 62
    7
 10
331.09880602037589
 20
172.01087333060602
 40
0.1627875663138724
  0
CIRCLE
  8
_1-1_
  6
CONTINUOUS
 62
    7
 10
329.41614099451016
 20
171.87625369510135
 40
0.1627875663138724
  0
CIRCLE
  8
_1-1_
  6
CONTINUOUS
 62
    7
 10
330.55253312394427
 20
172.71680677259292
 40
0.1627875663138724
  0
CIRCLE
  8
_1-1_
  6
CONTINUOUS
 62
    7
 10
331.61063529349661
 20
172.47262078362544
 40
0.1627875663138724
  0
CIRCLE
  8
_1-1_
  6
CONTINUOUS
 62
    7
 10
328.76186061549834
 20
173.44935236750425
 40
0.1627875663138724
  0
CIRCLE
  8
_1-1_
  6
CONTINUOUS
 62
    7
 10
334.05247043918922
 20
172.87959743190456
 40
0.1627875663138724
  0
CIRCLE
  8
_1-1_
  6
CONTINUOUS
 62
    7
 10
333.23854188661318
 20
173.96120638460727
 40
0.1627875663138724
  0
CIRCLE
  8
_1-1_
  6
CONTINUOUS
 62
    7
 10
334.37493401604729
 20
174.80175946209883
 40
0.1627875663138724
  0
CIRCLE
  8
_1-1_
  6
CONTINUOUS
 62
    7
 10
335.43303618559969
 20
174.55757347313136
 40
0.1627875663138724
  0
CIRCLE
  8
_1-1_
  6
CONTINUOUS
 62
    7
 10
332.58426150760135
 20
175.53430505701016
 40
0.1627875663138724
  0
CIRCLE
  8
_1-1_
  6
CONTINUOUS
 62
    7
 10
337.87487133129224
 20
174.9645501214105
 40
0.1627875663138724
  0
CIRCLE
  8
_1-1_
  6
CONTINUOUS
 62
    7
 10
331.15358919710729
 20
174.48243837098818
 40
0.1627875663138724
  0
CIRCLE
  8
_1-1_
  6
CONTINUOUS
 62
    7
 10
332.28998132654141
 20
175.32299144847974
 40
0.1627875663138724
  0
CIRCLE
  8
_1-1_
  6
CONTINUOUS
 62
    7
 10
333.34808349609375
 20
175.07880545951227
 40
0.1627875663138724
  0
CIRCLE
  8
_1-1_
  6
CONTINUOUS
 62
    7
 10
330.49930881809547
 20
176.05553704339107
 40
0.1627875663138724
  0
CIRCLE
  8
_1-1_
  6
CONTINUOUS
 62
    7
 10
335.78991864178636
 20
175.48578210779141
 40
0.1627875663138724
  0
CIRCLE
  8
_1-1_
  6
CONTINUOUS
 62
    7
 10
353.91421756228885
 20
183.69092374234586
 40
0.1627875663138724
  0
CIRCLE
  8
_1-1_
  6
CONTINUOUS
 62
    7
 10
355.05060969172297
 20
184.53147681983742
 40
0.1627875663138724
  0
CIRCLE
  8
_1-1_
  6
CONTINUOUS
 62
    7
 10
356.10871186127537
 20
184.28729083086995
 40
0.1627875663138724
  0
CIRCLE
  8
_1-1_
  6
CONTINUOUS
 62
    7
 10
353.25993718327703
 20
185.26402241474875
 40
0.1627875663138724
  0
CIRCLE
  8
_1-1_
  6
CONTINUOUS
 62
    7
 10
358.55054700696792
 20
184.69426747914909
 40
0.1627875663138724
  0
CIRCLE
  8
_1-1_
  6
CONTINUOUS
 62
    7
 10
348.52809596706084
 20
180.56350708007812
 40
0.1627875663138724
  0
CIRCLE
  8
_1-1_
  6
CONTINUOUS
 62
    7
 10
349.66448809649495
 20
181.40406015756969
 40
0.1627875663138724
  0
CIRCLE
  8
_1-1_
  6
CONTINUOUS
 62
    7
 10
350.72259026604729
 20
181.15987416860222
 40
0.1627875663138724
  0
CIRCLE
  8
_1-1_
  6
CONTINUOUS
 62
    7
 10
347.87381558804901
 20
182.13660575248102
 40
0.1627875663138724
  0
CIRCLE
  8
_1-1_
  6
CONTINUOUS
 62
    7
 10
353.1644254117399
 20
181.56685081688136
 40
0.1627875663138724
  0
CIRCLE
  8
_1-1_
  6
CONTINUOUS
 62
    7
 10
341.75205540012672
 20
177.78358253272805
 40
0.1627875663138724
  0
CIRCLE
  8
_1-1_
  6
CONTINUOUS
 62
    7
 10
342.88844752956084
 20
178.62413561021961
 40
0.1627875663138724
  0
CIRCLE
  8
_1-1_
  6
CONTINUOUS
 62
    7
 10
343.94654969911318
 20
178.37994962125211
 40
0.1627875663138724
  0
CIRCLE
  8
_1-1_
  6
CONTINUOUS
 62
    7
 10
341.0977750211149
 20
179.35668120513091
 40
0.1627875663138724
  0
CIRCLE
  8
_1-1_
  6
CONTINUOUS
 62
    7
 10
346.38838484480578
 20
178.78692626953125
 40
0.1627875663138724
  0
CIRCLE
  8
_1-1_
  6
CONTINUOUS
 62
    7
 10
339.66710271062078
 20
176.74111855996622
 40
0.1627875663138724
  0
CIRCLE
  8
_1-1_
  6
CONTINUOUS
 62
    7
 10
340.8034948400549
 20
177.58167163745779
 40
0.1627875663138724
  0
CIRCLE
  8
_1-1_
  6
CONTINUOUS
 62
    7
 10
341.86159700960729
 20
177.33748564849029
 40
0.1627875663138724
  0
CIRCLE
  8
_1-1_
  6
CONTINUOUS
 62
    7
 10
339.01282233160896
 20
178.31421723236909
 40
0.1627875663138724
  0
CIRCLE
  8
_1-1_
  6
CONTINUOUS
 62
    7
 10
344.30343215529984
 20
177.74446229676943
 40
0.1627875663138724
  0
CIRCLE
  8
_1-1_
  6
CONTINUOUS
 62
    7
 10
358.25782569679058
 20
182.82219964104732
 40
0.1627875663138724
  0
CIRCLE
  8
_1-1_
  6
CONTINUOUS
 62
    7
 10
359.39421782622469
 20
183.66275271853885
 40
0.1627875663138724
  0
CIRCLE
  8
_1-1_
  6
CONTINUOUS
 62
    7
 10
360.45231999577703
 20
183.41856672957138
 40
0.1627875663138724
  0
CIRCLE
  8
_1-1_
  6
CONTINUOUS
 62
    7
 10
357.60354531777875
 20
184.39529831345018
 40
0.1627875663138724
  0
CIRCLE
  8
_1-1_
  6
CONTINUOUS
 62
    7
 10
362.89415514146964
 20
183.82554337785052
 40
0.1627875663138724
  0
CIRCLE
  8
_1-1_
  6
CONTINUOUS
 62
    7
 10
359.64779415646115
 20
185.08087983002534
 40
0.1627875663138724
  0
CIRCLE
  8
_1-1_
  6
CONTINUOUS
 62
    7
 10
360.78418628589532
 20
185.9214329075169
 40
0.1627875663138724
  0
CIRCLE
  8
_1-1_
  6
CONTINUOUS
 62
    7
 10
361.84228845544766
 20
185.67724691854943
 40
0.1627875663138724
  0
CIRCLE
  8
_1-1_
  6
CONTINUOUS
 62
    7
 10
358.99351377744932
 20
186.65397850242823
 40
0.1627875663138724
  0
CIRCLE
  8
_1-1_
  6
CONTINUOUS
 62
    7
 10
364.28412360114021
 20
186.08422356682857
 40
0.1627875663138724
  0
CIRCLE
  8
_1-1_
  6
CONTINUOUS
 62
    7
 10
364.16517927839953
 20
186.64460053315034
 40
0.1627875663138724
  0
CIRCLE
  8
_1-1_
  6
CONTINUOUS
 62
    7
 10
365.30157140783365
 20
187.4851536106419
 40
0.1627875663138724
  0
CIRCLE
  8
_1-1_
  6
CONTINUOUS
 62
    7
 10
366.35967357738599
 20
187.24096762167443
 40
0.1627875663138724
  0
CIRCLE
  8
_1-1_
  6
CONTINUOUS
 62
    7
 10
363.51089889938771
 20
188.21769920555323
 40
0.1627875663138724
  0
CIRCLE
  8
_1-1_
  6
CONTINUOUS
 62
    7
 10
368.80150872307854
 20
187.64794426995357
 40
0.1627875663138724
  0
CIRCLE
  8
_1-1_
  6
CONTINUOUS
 62
    7
 10
367.81382792704818
 20
188.0345442488387
 40
0.1627875663138724
  0
CIRCLE
  8
_1-1_
  6
CONTINUOUS
 62
    7
 10
368.95022005648229
 20
188.87509732633023
 40
0.1627875663138724
  0
CIRCLE
  8
_1-1_
  6
CONTINUOUS
 62
    7
 10
370.00832222603464
 20
188.63091133736276
 40
0.1627875663138724
  0
CIRCLE
  8
_1-1_
  6
CONTINUOUS
 62
    7
 10
367.15954754803636
 20
189.60764292124156
 40
0.1627875663138724
  0
CIRCLE
  8
_1-1_
  6
CONTINUOUS
 62
    7
 10
372.45015737172724
 20
189.0378879856419
 40
0.1627875663138724
  0
CIRCLE
  8
_1-1_
  6
CONTINUOUS
 62
    7
 10
370.76749234586151
 20
189.77200482342695
 40
0.1627875663138724
  0
CIRCLE
  8
_1-1_
  6
CONTINUOUS
 62
    7
 10
371.90388447529563
 20
190.61255790091852
 40
0.1627875663138724
  0
CIRCLE
  8
_1-1_
  6
CONTINUOUS
 62
    7
 10
372.96198664484797
 20
190.36837191195102
 40
0.1627875663138724
  0
CIRCLE
  8
_1-1_
  6
CONTINUOUS
 62
    7
 10
370.11321196684969
 20
191.34510349582982
 40
0.1627875663138724
  0
CIRCLE
  8
_1-1_
  6
CONTINUOUS
 62
    7
 10
375.40382179054058
 20
190.77534856023016
 40
0.1627875663138724
  0
TEXT
  8
_0-0_
 62
    7
 10
141.89189395389042
 20
14.594594594594582
 40
2.5
 41
1
 50
0
  1
縮尺
  0
TEXT
  8
_0-0_
 62
    7
 10
377.10214563318203
 20
22.865493362014362
 40
2.5
 41
1
 50
0
  1
ＮＯ
  0
TEXT
  8
_1-0_
 62
    7
 10
169.90681828679266
 20
13.3181144095756
 40
2.5
 41
1
 50
0
  1
1/5
  0
TEXT
  8
_0-0_
 62
    7
 10
383.97877873601146
 20
17.689098667454061
 40
2.5
 41
1
 50
0
  1
Ｓ
  0
TEXT
  8
_1-3_
 62
    7
 10
305.03806861671239
 20
117.06003137536952
 40
2.5
 41
1
 50
0
  1
瓦桟
  0
TEXT
  8
_1-3_
 62
    7
 10
39.721903929839272
 20
15.395235628695104
 40
2.5
 41
1
 50
0
  1
谷
  0
TEXT
  8
_1-3_
 62
    7
 10
395.13722600163646
 20
15.294272448565522
 40
2.5
 41
1
 50
0
  1
19
  0
TEXT
  8
_1-3_
 62
    7
 10
25.556194717819636
 20
20.211577544341225
 40
2.5
 41
1
 50
0
  1
ＲＣ
  0
TEXT
  8
_1-1_
 62
    7
 10
151.04301040237016
 20
34.534730653505079
 40
2.5
 41
1
 50
0
  1
谷巾については専門業者と相談
  0
TEXT
  8
_1-1_
 62
    7
 10
151.3276053763725
 20
38.686755412333724
 40
2.5
 41
1
 50
0
  1
谷底部分には捨て貼りをする
  0
TEXT
  8
_1-0_
 62
    7
 10
150.47254750821307
 20
80.130157782581719
 40
2.5
 41
1
 50
-24.227719460851628
  1
250
  0
TEXT
  8
_1-0_
 62
    7
 10
239.01098748014843
 20
86.436849999107167
 40
2.5
 41
1
 50
24.227641889855295
  1
250
  0
POINT
  8
_1-0_
 62
    7
 10
129.17918849635768
 20
89.16387609533362
  0
POINT
  8
_1-0_
 62
    7
 10
174.77525865709461
 20
68.645646378800677
  0
POINT
  8
_1-0_
 62
    7
 10
218.12797752586573
 20
76.491202277106211
  0
POINT
  8
_1-0_
 62
    7
 10
263.72406005859375
 20
97.009438179634714
  0
TEXT
  8
_1-0_
 62
    7
 10
155.04719102632643
 20
77.809086661067724
 40
2.5
 41
1
 50
-24.227746934022353
  1
谷底部分捨て貼り
  0
TEXT
  8
_1-0_
 62
    7
 10
244.24781836220487
 20
88.878769227444991
 40
2.5
 41
1
 50
24.227777639332174
  1
谷底部分捨て貼り
  0
LINE
  8
_1-3_
  6
CONTINUOUS
 62
    7
 10
274.28570721600511
 20
158.09793833139781
 11
295.46858504011828
 21
93.773438786128636
  0
LINE
  8
_1-3_
  6
CONTINUOUS
 62
    7
 10
301.62162162162161
 20
93.773438786128636
 11
295.46858504011828
 21
93.773438786128636
  0
TEXT
  8
_1-1_
 62
    7
 10
305.03807274070948
 20
92.935056993080707
 40
2.5
 41
1
 50
0
  1
パーライト系モルタル　　ｔ＝50
  0
TEXT
  8
_1-1_
 62
    7
 10
316.97572938290648
 20
113.19829051390607
 40
2.5
 41
1
 50
0
  1
※　地域により瓦桟木の大きさは、異なります
  0
TEXT
  8
_1-1_
 62
    7
 10
316.66775097844356
 20
116.78794152864089
 40
2.5
 41
1
 50
0
  1
15×21以上　（防腐処理）
  0
LINE
  8
_1-3_
  6
CONTINUOUS
 62
    7
 10
301.62162162162161
 20
105.88662023540017
 11
291.47955994835439
 21
105.88662023540017
  0
LINE
  8
_1-3_
  6
CONTINUOUS
 62
    7
 10
301.62162162162161
 20
99.944303406852882
 11
293.43644064328623
 21
99.944303406852882
  0
LINE
  8
_1-3_
  6
CONTINUOUS
 62
    7
 10
301.62162162162161
 20
118.41102806297509
 11
287.35511276716528
 21
118.41102806297509
  0
LINE
  8
_1-1_
  6
CONTINUOUS
 62
    3
 10
51.570688415025046
 20
85.883371514661178
 11
78.704345509619628
 21
73.673218398898939
  0
LINE
  8
_1-1_
  6
CONTINUOUS
 62
    3
 10
78.704345509619628
 20
73.673218398898939
 11
105.94868243687895
 21
85.933168778966518
  0
LINE
  8
_1-1_
  6
CONTINUOUS
 62
    3
 10
103.759780277884
 20
90.797340812328002
 11
103.70497235717031
 21
90.919130693029018
  0
LINE
  8
_1-1_
  6
CONTINUOUS
 62
    3
 10
49.749778760253122
 20
92.552208778438626
 11
54.163857756241299
 21
92.552208778438626
  0
LINE
  8
_1-1_
  6
CONTINUOUS
 62
    3
 10
108.19860325613573
 20
92.725849673972846
 11
103.41361196601744
 21
92.725849673972846
  0
LINE
  8
_1-1_
  6
CONTINUOUS
 62
    3
 10
53.832931737449059
 20
90.910532159192428
 11
49.749778760253122
 21
92.552208778438626
  0
LINE
  8
_1-1_
  6
CONTINUOUS
 62
    3
 10
51.570688415025046
 20
85.883371514661178
 11
53.832931737449059
 21
90.910532159192428
  0
LINE
  8
_1-1_
  6
CONTINUOUS
 62
    3
 10
105.94868243687895
 20
85.933168778966518
 11
103.70497235717031
 21
90.919130693029018
  0
LINE
  8
_1-1_
  6
CONTINUOUS
 62
    3
 10
103.70497235717031
 20
90.919130693029018
 11
108.19860325613573
 21
92.725849673972846
  0
LINE
  8
_1-1_
  6
CONTINUOUS
 62
    7
 10
59.458822520810514
 20
112.28638211498318
 11
63.302429005713378
 21
112.28638211498318
  0
LINE
  8
_1-1_
  6
CONTINUOUS
 62
    7
 10
55.172645169142442
 20
97.590881560717975
 11
59.458822520810514
 21
112.28638211498318
  0
LINE
  8
_1-1_
  6
CONTINUOUS
 62
    7
 10
55.172645169142442
 20
97.590881560717975
 11
55.172645169142442
 21
101.36722771583305
  0
CIRCLE
  8
_1-1_
  6
CONTINUOUS
 62
    7
 10
53.884423964539423
 20
92.134115896127611
 40
5.6067640716965137
  0
TEXT
  8
_1-1_
 62
    7
 10
63.821611365563484
 20
111.16254755654779
 40
2.5
 41
1
 50
0
  1
ハぜを必ず付けること
  0
TEXT
  8
_1-1_
 62
    7
 10
74.833197322858666
 20
67.560928970188002
 40
3
 41
1
 50
0
  1
谷樋
  0
LINE
  8
_1-1_
  6
CONTINUOUS
 62
    7
 10
213.49417637271216
 20
130.67970049916806
 11
180.64891846921796
 21
222.5765391014975
  0
LINE
  8
_1-1_
  6
CONTINUOUS
 62
    7
 10
180.64891846921796
 20
222.5765391014975
 11
166.61883308598317
 21
222.5765391014975
  0
TEXT
  8
_1-1_
 62
    7
 10
105.78031107703575
 20
221.14777207763771
 40
2.5
 41
1
 50
0
  1
ステンレス　（ＳＵＳ３０４）又は、
  0
TEXT
  8
_1-1_
 62
    7
 10
96.869288581456658
 20
221.03352911152706
 40
2.5
 41
1
 50
0
  1
谷樋
  0
TEXT
  8
_1-1_
 62
    7
 10
105.78030695303869
 20
217.7204583503362
 40
2.5
 41
1
 50
0
  1
銅板ｔ=0.4以上もしくは、耐久性の有する材料を使用すること
  0
TEXT
  8
_0-0_
 62
    7
 10
14.594594336844779
 20
24.324324324324323
 40
2.5
 41
1
 50
0
  1
Ｓ形
  0
TEXT
  8
_1-3_
 62
    7
 10
270.41636286555115
 20
212.88010055954393
 40
2.5
 41
1
 50
0
  1
Ｓ形　桟瓦
  0
TEXT
  8
_1-3_
 62
    7
 10
305.03807274070948
 20
104.93505328148336
 40
2.5
 41
1
 50
0
  1
縦桟
  0
TEXT
  8
_1-1_
 62
    7
 10
305.03807686470651
 20
98.935058230279822
 40
2.5
 41
1
 50
0
  1
ルーフィング
  0
TEXT
  8
_1-1_
 62
    7
 10
151.04764989904456
 20
43.127103238492396
 40
2.5
 41
1
 50
0
  1
谷部分のルーフィングは、両方向へそれぞれ250ｍｍ以上重ね合わせること。
  0
ENDSEC
  0
EOF
