0
SECTION
2
HEADER
  9
$EXTMIN
10
0
20
0
30
0
  9
$EXTMAX
10
1584.662
20
1291.720
30
0
  9
$LTSCALE
40
5.000
  9
$DIMSCALE
40
5.000
  9
$PDMODE
70
0
  9
$PDSIZE
40
40
0
ENDSEC
0
SECTION
2
TABLES
0
TABLE
2
LTYPE
70
9
0
LTYPE
5
1f4
2
CONTINUOUS
70
0
3
実線
72
65
73
0
40
0.0
0
LTYPE
5
1f5
2
DOT
70
0
3
--  --  --  --  --  --  --  --     
72
65
73
2
40
5.000
49
1.000
49
-4.000
0
LTYPE
5
1f6
2
DASHED
70
0
3
----    ----    ----    ----    
72
65
73
2
40
5.000
49
2.000
49
-3.000
0
LTYPE
5
1f7
2
DASHED2
70
0
3
------  ------  ------  ------ 
72
65
73
2
40
10.000
49
4.000
49
-6.000
0
LTYPE
5
1f8
2
CENTER
70
0
3
----- - ----- - ----- - ----- - 
72
65
73
4
40
9.000
49
6.000
49
-1.000
49
1.000
49
-1.000
0
LTYPE
5
1f9
2
CENTER2
70
0
3
----------  --  ----------  -- 
72
65
73
4
40
18.000
49
12.000
49
-2.000
49
2.000
49
-2.000
0
LTYPE
5
1fa
2
PHANTOM
70
0
3
--- - - --- - - --- - - --- - -
72
65
73
6
40
10.000
49
5.000
49
-1.000
49
1.000
49
-1.000
49
1.000
49
-1.000
0
LTYPE
5
1fb
2
PHANTOM2
70
0
3
--------  -  -  --------  -  -
72
65
73
6
40
16.000
49
6.000
49
-2.000
49
2.000
49
-2.000
49
2.000
49
-2.000
0
LTYPE
5
1fc
2
HIDDEN
70
0
3
-   -   -   -   -   -   -   -   
72
65
73
2
40
2.500
49
0.500
49
-2.000
0
ENDTAB
0
TABLE
2
STYLE
70
1
0
STYLE
5
1fd
100
AcDbSymbolTableRecord
100
AcDbTextStyleTableRecord
2
STANDARD
70
0
40
0.0
41
1.0
50
0.0
71
0
42
0.0
3
txt.shx
4
extfont.shx
0
STYLE
5
1fe
100
AcDbSymbolTableRecord
100
AcDbTextStyleTableRecord
2
TATEGAKI
70
4
40
0.0
41
1.0
50
0.0
71
0
42
0.0
3
txt.shx
4
extfont.shx
0
STYLE
5
1ff
100
AcDbSymbolTableRecord
100
AcDbTextStyleTableRecord
2
MT
70
0
40
0.0
41
1.0
50
0.0
71
0
42
0.0
3
MS Mincho
4

0
STYLE
5
200
100
AcDbSymbolTableRecord
100
AcDbTextStyleTableRecord
2
TMT
70
4
40
0.0
41
1.0
50
0.0
71
0
42
0.0
3
@MS Mincho
4

0
ENDTAB
0
TABLE
2
LAYER
5
66f
100
AcDbSymbolTable
70
10
0
LAYER
5
670
100
AcDbSymbolTableRecord
100
AcDbLayerTableRecord
2
0
70
64
62
  7
  6
CONTINUOUS
0
LAYER
5
671
100
AcDbSymbolTableRecord
100
AcDbLayerTableRecord
2
0-0
70
64
62
  7
  6
CONTINUOUS
0
LAYER
5
672
100
AcDbSymbolTableRecord
100
AcDbLayerTableRecord
2
0-1
70
64
62
  7
  6
CONTINUOUS
0
LAYER
5
673
100
AcDbSymbolTableRecord
100
AcDbLayerTableRecord
2
ADD_LINE
70
64
62
  -7
  6
CONTINUOUS
0
ENDTAB
0
ENDSEC
0
SECTION
2
ENTITIES
0
LINE
5
674
8
0-0
6
CONTINUOUS
62
  7
10
920.270
20
897.973
30
0.0
11
1197.270
21
895.473
31
0.0
0
LINE
5
675
8
0-0
6
CONTINUOUS
62
  7
10
1197.270
20
895.473
30
0.0
11
1197.270
21
750.473
31
0.0
0
LINE
5
676
8
0-0
6
CONTINUOUS
62
  7
10
920.270
20
747.973
30
0.0
11
1197.270
21
750.473
31
0.0
0
LINE
5
677
8
0-0
6
CONTINUOUS
62
  7
10
920.270
20
897.973
30
0.0
11
920.270
21
747.973
31
0.0
0
LINE
5
678
8
0-0
6
CONTINUOUS
62
  7
10
1197.270
20
877.473
30
0.0
11
1227.270
21
857.973
31
0.0
0
LINE
5
679
8
0-0
6
CONTINUOUS
62
  7
10
1227.270
20
857.973
30
0.0
11
1227.270
21
787.973
31
0.0
0
LINE
5
67a
8
0-0
6
CONTINUOUS
62
  7
10
1227.270
20
787.973
30
0.0
11
1197.270
21
768.473
31
0.0
0
LINE
5
67b
8
0-0
6
CONTINUOUS
62
  7
10
1503.662
20
894.973
30
0.0
11
1498.662
21
875.775
31
0.0
0
LINE
5
67c
8
0-0
6
CONTINUOUS
62
  7
10
1498.662
20
770.172
30
0.0
11
1503.662
21
750.973
31
0.0
0
LINE
5
67d
8
0-0
6
CONTINUOUS
62
  7
10
920.270
20
454.081
30
0.0
11
904.591
21
304.903
31
0.0
0
LINE
5
67e
8
0-0
6
CONTINUOUS
62
  7
10
904.591
20
304.903
30
0.0
11
924.482
21
302.812
31
0.0
0
LINE
5
67f
8
0-0
6
CONTINUOUS
62
  7
10
932.708
20
381.081
30
0.0
11
924.482
21
302.812
31
0.0
0
LINE
5
680
8
0-0
6
CONTINUOUS
62
  7
10
950.270
20
445.081
30
0.0
11
1197.270
21
445.081
31
0.0
0
LINE
5
681
8
0-0
6
CONTINUOUS
62
  7
10
932.708
20
381.081
30
0.0
11
1197.270
21
381.081
31
0.0
0
LINE
5
682
8
0-0
6
CONTINUOUS
62
  7
10
1197.270
20
445.081
30
0.0
11
1197.270
21
381.081
31
0.0
0
LINE
5
683
8
0-0
6
CONTINUOUS
62
  7
10
1197.270
20
391.081
30
0.0
11
1227.270
21
396.081
31
0.0
0
LINE
5
684
8
0-0
6
CONTINUOUS
62
  7
10
1227.270
20
416.081
30
0.0
11
1227.270
21
396.081
31
0.0
0
LINE
5
685
8
0-0
6
CONTINUOUS
62
  7
10
1197.270
20
430.081
30
0.0
11
1227.270
21
416.081
31
0.0
0
LINE
5
686
8
0-0
6
CONTINUOUS
62
  7
10
920.270
20
1175.703
30
0.0
11
904.591
21
1026.524
31
0.0
0
LINE
5
687
8
0-0
6
CONTINUOUS
62
  7
10
904.591
20
1026.524
30
0.0
11
924.482
21
1024.434
31
0.0
0
LINE
5
688
8
0-0
6
CONTINUOUS
62
  7
10
950.270
20
1166.703
30
0.0
11
1197.270
21
1166.703
31
0.0
0
LINE
5
689
8
0-0
6
CONTINUOUS
62
  7
10
1197.270
20
1151.703
30
0.0
11
1227.270
21
1137.703
31
0.0
0
LINE
5
68a
8
0-0
6
CONTINUOUS
62
  7
10
1172.958
20
1148.703
30
0.0
11
1227.270
21
1123.357
31
0.0
0
LINE
5
68b
8
0-0
6
CONTINUOUS
62
  7
10
1227.270
20
1137.703
30
0.0
11
1227.270
21
1123.357
31
0.0
0
LINE
5
68c
8
0-0
6
CONTINUOUS
62
  7
10
1197.270
20
1166.703
30
0.0
11
1197.270
21
1151.703
31
0.0
0
LINE
5
68d
8
0-0
6
CONTINUOUS
62
  7
10
937.543
20
1148.703
30
0.0
11
924.482
21
1024.434
31
0.0
0
LINE
5
68e
8
0-0
6
CONTINUOUS
62
  7
10
937.543
20
1148.703
30
0.0
11
1172.958
21
1148.703
31
0.0
0
LINE
5
68f
8
0-0
6
CONTINUOUS
62
  7
10
789.828
20
897.973
30
0.0
11
789.828
21
747.973
31
0.0
0
LINE
5
690
8
0-0
6
CONTINUOUS
62
  7
10
871.183
20
897.973
30
0.0
11
789.828
21
897.973
31
0.0
0
LINE
5
691
8
0-0
6
CONTINUOUS
62
  7
10
871.183
20
747.973
30
0.0
11
789.828
21
747.973
31
0.0
0
LINE
5
692
8
0-0
6
CONTINUOUS
62
  7
10
553.378
20
635.747
30
0.0
11
703.378
21
635.747
31
0.0
0
LINE
5
693
8
0-0
6
CONTINUOUS
62
  7
10
553.378
20
704.775
30
0.0
11
553.378
21
635.747
31
0.0
0
LINE
5
694
8
0-0
6
CONTINUOUS
62
  7
10
703.378
20
704.775
30
0.0
11
703.378
21
635.747
31
0.0
0
LINE
5
695
8
0-0
6
CONTINUOUS
62
  7
10
920.270
20
635.747
30
0.0
11
1197.270
21
635.747
31
0.0
0
LINE
5
696
8
0-0
6
CONTINUOUS
62
  7
10
920.270
20
704.775
30
0.0
11
920.270
21
635.747
31
0.0
0
LINE
5
697
8
0-0
6
CONTINUOUS
62
  7
10
1197.270
20
704.775
30
0.0
11
1197.270
21
635.747
31
0.0
0
LINE
5
698
8
0-0
6
CONTINUOUS
62
  7
10
1197.270
20
635.747
30
0.0
11
1227.270
21
635.747
31
0.0
0
LINE
5
699
8
0-0
6
CONTINUOUS
62
  7
10
1227.270
20
704.775
30
0.0
11
1227.270
21
635.747
31
0.0
0
LINE
5
69a
8
0-0
6
CONTINUOUS
62
  7
10
1439.662
20
635.747
30
0.0
11
1503.662
21
635.747
31
0.0
0
LINE
5
69b
8
0-0
6
CONTINUOUS
62
  7
10
1439.662
20
704.775
30
0.0
11
1439.662
21
635.747
31
0.0
0
LINE
5
69c
8
0-0
6
CONTINUOUS
62
  7
10
1503.662
20
704.775
30
0.0
11
1503.662
21
635.747
31
0.0
0
LINE
5
69d
8
0-0
6
CONTINUOUS
62
  7
10
899.991
20
261.140
30
0.0
11
919.882
21
259.049
31
0.0
0
LINE
5
69e
8
0-0
6
CONTINUOUS
62
  7
10
902.672
20
286.645
30
0.0
11
899.991
21
261.140
31
0.0
0
LINE
5
69f
8
0-0
6
CONTINUOUS
62
  7
10
922.563
20
284.555
30
0.0
11
919.882
21
259.049
31
0.0
0
LINE
5
6a0
8
0-0
6
CONTINUOUS
62
  7
10
1321.622
20
381.081
30
0.0
11
1321.622
21
445.081
31
0.0
0
LINE
5
6a1
8
0-0
6
CONTINUOUS
62
  7
10
1264.865
20
381.081
30
0.0
11
1321.622
21
381.081
31
0.0
0
LINE
5
6a2
8
0-0
6
CONTINUOUS
62
  7
10
1264.865
20
445.081
30
0.0
11
1321.622
21
445.081
31
0.0
0
LINE
5
6a3
8
0-0
6
CONTINUOUS
62
  7
10
1321.622
20
750.473
30
0.0
11
1321.622
21
895.473
31
0.0
0
LINE
5
6a4
8
0-0
6
CONTINUOUS
62
  7
10
1264.865
20
750.473
30
0.0
11
1321.622
21
750.473
31
0.0
0
LINE
5
6a5
8
0-0
6
CONTINUOUS
62
  7
10
1264.865
20
895.473
30
0.0
11
1321.622
21
895.473
31
0.0
0
LINE
5
6a6
8
0-0
6
CONTINUOUS
62
  7
10
920.270
20
1249.830
30
0.0
11
1197.270
21
1249.830
31
0.0
0
LINE
5
6a7
8
0-0
6
CONTINUOUS
62
  7
10
920.270
20
1197.629
30
0.0
11
920.270
21
1249.830
31
0.0
0
LINE
5
6a8
8
0-0
6
CONTINUOUS
62
  7
10
1197.270
20
1197.629
30
0.0
11
1197.270
21
1249.830
31
0.0
0
LINE
5
6a9
8
0-0
6
CONTINUOUS
62
  7
10
1197.270
20
1249.830
30
0.0
11
1227.270
21
1249.830
31
0.0
0
LINE
5
6aa
8
0-0
6
CONTINUOUS
62
  7
10
1227.270
20
1197.629
30
0.0
11
1227.270
21
1249.830
31
0.0
0
LINE
5
6ab
8
0-0
6
CONTINUOUS
62
  7
10
904.591
20
198.230
30
0.0
11
1197.270
21
198.230
31
0.0
0
LINE
5
6ac
8
0-0
6
CONTINUOUS
62
  7
10
904.591
20
241.604
30
0.0
11
904.591
21
198.230
31
0.0
0
LINE
5
6ad
8
0-0
6
CONTINUOUS
62
  7
10
1197.270
20
241.604
30
0.0
11
1197.270
21
198.230
31
0.0
0
LINE
5
6ae
8
ADD_LINE
6
HIDDEN
62
  3
10
628.378
20
956.757
30
0.0
11
628.378
21
719.037
31
0.0
0
LINE
5
6af
8
ADD_LINE
6
HIDDEN
62
  3
10
521.306
20
822.973
30
0.0
11
1281.793
21
822.973
31
0.0
0
CIRCLE
5
6b0
8
0-0
6
CONTINUOUS
62
  7
10
1047.270
20
822.973
30
0.0
40
3.000
0
CIRCLE
5
6b1
8
0-0
6
CONTINUOUS
62
  7
10
1072.270
20
822.973
30
0.0
40
3.000
0
CIRCLE
5
6b2
8
0-0
6
CONTINUOUS
62
  7
10
628.378
20
822.973
30
0.0
40
75.000
0
ARC
5
6b3
8
0-0
6
CONTINUOUS
62
  7
10
1512.162
20
822.973
30
0.0
40
54.500
50
104.341904
51
255.658096
0
ARC
5
6b4
8
0-0
6
CONTINUOUS
62
  7
10
1512.162
20
822.973
30
0.0
40
72.500
50
96.732971
51
263.267029
0
ARC
5
6b5
8
0-0
6
CONTINUOUS
62
  7
10
952.666
20
507.567
30
0.0
40
62.532
50
238.797165
51
267.804352
0
ARC
5
6b6
8
0-0
6
CONTINUOUS
62
  7
10
952.666
20
1229.188
30
0.0
40
62.532
50
238.797165
51
267.804352
0
CIRCLE
5
6b7
8
ADD_LINE
6
HIDDEN
62
  3
10
920.270
20
822.973
30
0.0
40
3.000
0
TEXT
5
6b8
100
AcDbEntity
8
0-0
62
7
100
AcDbText
10
787.328
20
813.598
30
0.0
40
9.750
41
0.800
50
90.000
1
150
100
AcDbText
0
TEXT
5
6b9
100
AcDbEntity
8
0-0
62
7
100
AcDbText
10
619.003
20
638.247
30
0.0
40
9.750
41
0.800
50
0.000
1
150
100
AcDbText
0
TEXT
5
6ba
100
AcDbEntity
8
0-0
62
7
100
AcDbText
10
1049.395
20
638.247
30
0.0
40
9.750
41
0.800
50
0.000
1
277
100
AcDbText
0
TEXT
5
6bb
100
AcDbEntity
8
0-0
62
7
100
AcDbText
10
1206.020
20
638.247
30
0.0
40
9.750
41
0.800
50
0.000
1
30
100
AcDbText
0
TEXT
5
6bc
100
AcDbEntity
8
0-0
62
7
100
AcDbText
10
1465.412
20
638.247
30
0.0
40
9.750
41
0.800
50
0.000
1
64
100
AcDbText
0
TEXT
5
6bd
100
AcDbEntity
8
0-0
62
7
100
AcDbText
10
903.982
20
263.234
30
0.0
40
9.750
41
0.800
50
354.000
1
20
100
AcDbText
0
TEXT
5
6be
100
AcDbEntity
8
0-0
62
7
100
AcDbText
10
1319.122
20
406.831
30
0.0
40
9.750
41
0.800
50
90.000
1
64
100
AcDbText
0
TEXT
5
6bf
100
AcDbEntity
8
0-0
62
7
100
AcDbText
10
1319.122
20
813.598
30
0.0
40
9.750
41
0.800
50
90.000
1
145
100
AcDbText
0
TEXT
5
6c0
100
AcDbEntity
8
0-0
62
7
100
AcDbText
10
1049.395
20
1252.330
30
0.0
40
9.750
41
0.800
50
0.000
1
277
100
AcDbText
0
TEXT
5
6c1
100
AcDbEntity
8
0-0
62
7
100
AcDbText
10
1206.020
20
1252.330
30
0.0
40
9.750
41
0.800
50
0.000
1
30
100
AcDbText
0
TEXT
5
6c2
100
AcDbEntity
8
0-0
62
7
100
AcDbText
10
1041.556
20
200.730
30
0.0
40
9.750
41
0.800
50
0.000
1
293
100
AcDbText
0
POINT
5
6c3
8
0-0
62
  7
10
789.828
20
897.973
30
0.0
0
POINT
5
6c4
8
0-0
62
  7
10
789.828
20
747.973
30
0.0
0
POINT
5
6c5
8
0-0
62
  7
10
553.378
20
635.747
30
0.0
0
POINT
5
6c6
8
0-0
62
  7
10
703.378
20
635.747
30
0.0
0
POINT
5
6c7
8
0-0
62
  7
10
920.270
20
635.747
30
0.0
0
POINT
5
6c8
8
0-0
62
  7
10
1197.270
20
635.747
30
0.0
0
POINT
5
6c9
8
0-0
62
  7
10
1227.270
20
635.747
30
0.0
0
POINT
5
6ca
8
0-0
62
  7
10
1439.662
20
635.747
30
0.0
0
POINT
5
6cb
8
0-0
62
  7
10
1503.662
20
635.747
30
0.0
0
POINT
5
6cc
8
0-0
62
  7
10
899.991
20
261.140
30
0.0
0
POINT
5
6cd
8
0-0
62
  7
10
919.882
20
259.049
30
0.0
0
POINT
5
6ce
8
0-0
62
  7
10
1321.622
20
381.081
30
0.0
0
POINT
5
6cf
8
0-0
62
  7
10
1321.622
20
445.081
30
0.0
0
POINT
5
6d0
8
0-0
62
  7
10
1321.622
20
750.473
30
0.0
0
POINT
5
6d1
8
0-0
62
  7
10
1321.622
20
895.473
30
0.0
0
POINT
5
6d2
8
0-0
62
  7
10
920.270
20
1249.830
30
0.0
0
POINT
5
6d3
8
0-0
62
  7
10
1197.270
20
1249.830
30
0.0
0
POINT
5
6d4
8
0-0
62
  7
10
1227.270
20
1249.830
30
0.0
0
POINT
5
6d5
8
0-0
62
  7
10
904.591
20
198.230
30
0.0
0
POINT
5
6d6
8
0-0
62
  7
10
1197.270
20
198.230
30
0.0
0
ENDSEC
0
EOF
