0
SECTION
2
HEADER
  9
$EXTMIN
10
0
20
0
30
0
  9
$EXTMAX
10
1297.297
20
1207.312
30
0
  9
$LTSCALE
40
5.000
  9
$DIMSCALE
40
5.000
  9
$PDMODE
70
0
  9
$PDSIZE
40
40
0
ENDSEC
0
SECTION
2
TABLES
0
TABLE
2
LTYPE
70
9
0
LTYPE
5
1f4
2
CONTINUOUS
70
0
3
実線
72
65
73
0
40
0.0
0
LTYPE
5
1f5
2
DOT
70
0
3
--  --  --  --  --  --  --  --     
72
65
73
2
40
5.000
49
1.000
49
-4.000
0
LTYPE
5
1f6
2
DASHED
70
0
3
----    ----    ----    ----    
72
65
73
2
40
5.000
49
2.000
49
-3.000
0
LTYPE
5
1f7
2
DASHED2
70
0
3
------  ------  ------  ------ 
72
65
73
2
40
10.000
49
4.000
49
-6.000
0
LTYPE
5
1f8
2
CENTER
70
0
3
----- - ----- - ----- - ----- - 
72
65
73
4
40
9.000
49
6.000
49
-1.000
49
1.000
49
-1.000
0
LTYPE
5
1f9
2
CENTER2
70
0
3
----------  --  ----------  -- 
72
65
73
4
40
18.000
49
12.000
49
-2.000
49
2.000
49
-2.000
0
LTYPE
5
1fa
2
PHANTOM
70
0
3
--- - - --- - - --- - - --- - -
72
65
73
6
40
10.000
49
5.000
49
-1.000
49
1.000
49
-1.000
49
1.000
49
-1.000
0
LTYPE
5
1fb
2
PHANTOM2
70
0
3
--------  -  -  --------  -  -
72
65
73
6
40
16.000
49
6.000
49
-2.000
49
2.000
49
-2.000
49
2.000
49
-2.000
0
LTYPE
5
1fc
2
HIDDEN
70
0
3
-   -   -   -   -   -   -   -   
72
65
73
2
40
2.500
49
0.500
49
-2.000
0
ENDTAB
0
TABLE
2
STYLE
70
1
0
STYLE
5
1fd
100
AcDbSymbolTableRecord
100
AcDbTextStyleTableRecord
2
STANDARD
70
0
40
0.0
41
1.0
50
0.0
71
0
42
0.0
3
txt.shx
4
extfont.shx
0
STYLE
5
1fe
100
AcDbSymbolTableRecord
100
AcDbTextStyleTableRecord
2
TATEGAKI
70
4
40
0.0
41
1.0
50
0.0
71
0
42
0.0
3
txt.shx
4
extfont.shx
0
STYLE
5
1ff
100
AcDbSymbolTableRecord
100
AcDbTextStyleTableRecord
2
MT
70
0
40
0.0
41
1.0
50
0.0
71
0
42
0.0
3
MS Mincho
4

0
STYLE
5
200
100
AcDbSymbolTableRecord
100
AcDbTextStyleTableRecord
2
TMT
70
4
40
0.0
41
1.0
50
0.0
71
0
42
0.0
3
@MS Mincho
4

0
ENDTAB
0
TABLE
2
LAYER
5
2e7e
100
AcDbSymbolTable
70
10
0
LAYER
5
2e7f
100
AcDbSymbolTableRecord
100
AcDbLayerTableRecord
2
0
70
64
62
  7
  6
CONTINUOUS
0
LAYER
5
2e80
100
AcDbSymbolTableRecord
100
AcDbLayerTableRecord
2
0-0
70
64
62
  7
  6
CONTINUOUS
0
LAYER
5
2e81
100
AcDbSymbolTableRecord
100
AcDbLayerTableRecord
2
ADD_LINE
70
64
62
  -7
  6
CONTINUOUS
0
ENDTAB
0
ENDSEC
0
SECTION
2
ENTITIES
0
LINE
5
2e82
8
0-0
6
CONTINUOUS
62
  7
10
1047.336
20
415.698
30
0.0
11
1054.283
21
415.698
31
0.0
0
LINE
5
2e83
8
0-0
6
CONTINUOUS
62
  7
10
1054.283
20
415.698
30
0.0
11
1054.283
21
399.792
31
0.0
0
LINE
5
2e84
8
0-0
6
CONTINUOUS
62
  7
10
749.283
20
540.753
30
0.0
11
1054.283
21
540.753
31
0.0
0
LINE
5
2e85
8
0-0
6
CONTINUOUS
62
  7
10
749.283
20
468.750
30
0.0
11
749.283
21
540.753
31
0.0
0
LINE
5
2e86
8
0-0
6
CONTINUOUS
62
  7
10
1054.283
20
468.750
30
0.0
11
1054.283
21
540.753
31
0.0
0
LINE
5
2e87
8
0-0
6
CONTINUOUS
62
  7
10
749.283
20
504.752
30
0.0
11
1014.283
21
504.752
31
0.0
0
LINE
5
2e88
8
0-0
6
CONTINUOUS
62
  7
10
749.283
20
468.750
30
0.0
11
749.283
21
504.752
31
0.0
0
LINE
5
2e89
8
0-0
6
CONTINUOUS
62
  7
10
1014.283
20
468.750
30
0.0
11
1014.283
21
504.752
31
0.0
0
LINE
5
2e8a
8
0-0
6
CONTINUOUS
62
  7
10
749.283
20
1204.812
30
0.0
11
1054.283
21
1204.812
31
0.0
0
LINE
5
2e8b
8
0-0
6
CONTINUOUS
62
  7
10
749.283
20
1079.527
30
0.0
11
749.283
21
1204.812
31
0.0
0
LINE
5
2e8c
8
0-0
6
CONTINUOUS
62
  7
10
1054.283
20
1079.527
30
0.0
11
1054.283
21
1204.812
31
0.0
0
LINE
5
2e8d
8
0-0
6
CONTINUOUS
62
  7
10
1054.283
20
750.146
30
0.0
11
1054.283
21
1045.146
31
0.0
0
LINE
5
2e8e
8
0-0
6
CONTINUOUS
62
  7
10
1054.283
20
415.698
30
0.0
11
1054.283
21
379.774
31
0.0
0
LINE
5
2e8f
8
0-0
6
CONTINUOUS
62
  7
10
647.545
20
442.984
30
0.0
11
647.545
21
352.984
31
0.0
0
LINE
5
2e90
8
0-0
6
CONTINUOUS
62
  7
10
700.021
20
442.984
30
0.0
11
647.545
21
442.984
31
0.0
0
LINE
5
2e91
8
0-0
6
CONTINUOUS
62
  7
10
700.021
20
352.984
30
0.0
11
647.545
21
352.984
31
0.0
0
LINE
5
2e92
8
0-0
6
CONTINUOUS
62
  7
10
1047.336
20
415.698
30
0.0
11
1054.283
21
415.698
31
0.0
0
LINE
5
2e93
8
0-0
6
CONTINUOUS
62
  7
10
1054.283
20
415.698
30
0.0
11
1054.283
21
399.792
31
0.0
0
LINE
5
2e94
8
0-0
6
CONTINUOUS
62
  7
10
1054.283
20
415.698
30
0.0
11
1054.283
21
399.792
31
0.0
0
LINE
5
2e95
8
ADD_LINE
6
HIDDEN
62
  3
10
936.485
20
376.658
30
0.0
11
936.485
21
374.634
31
0.0
0
LINE
5
2e96
8
ADD_LINE
6
HIDDEN
62
  3
10
936.487
20
372.973
30
0.0
11
915.836
21
372.973
31
0.0
0
LINE
5
2e97
8
ADD_LINE
6
HIDDEN
62
  3
10
936.487
20
372.973
30
0.0
11
954.847
21
372.973
31
0.0
0
LINE
5
2e98
8
ADD_LINE
6
HIDDEN
62
  3
10
936.487
20
363.910
30
0.0
11
936.487
21
431.163
31
0.0
0
LINE
5
2e99
8
ADD_LINE
6
HIDDEN
62
  7
10
1014.283
20
468.750
30
0.0
11
1014.283
21
540.753
31
0.0
0
LINE
5
2e9a
8
ADD_LINE
6
HIDDEN
62
  3
10
1014.283
20
468.750
30
0.0
11
1014.283
21
358.568
31
0.0
0
LINE
5
2e9b
8
0-0
6
CONTINUOUS
62
  7
10
834.283
20
750.146
30
0.0
11
834.283
21
740.146
31
0.0
0
LINE
5
2e9c
8
0-0
6
CONTINUOUS
62
  7
10
834.283
20
750.146
30
0.0
11
1054.283
21
750.146
31
0.0
0
LINE
5
2e9d
8
0-0
6
CONTINUOUS
62
  7
10
744.283
20
740.146
30
0.0
11
744.283
21
750.146
31
0.0
0
LINE
5
2e9e
8
0-0
6
CONTINUOUS
62
  7
10
749.283
20
765.146
30
0.0
11
749.283
21
1045.146
31
0.0
0
LINE
5
2e9f
8
0-0
6
CONTINUOUS
62
  7
10
744.283
20
740.146
30
0.0
11
834.283
21
740.146
31
0.0
0
LINE
5
2ea0
8
0-0
6
CONTINUOUS
62
  7
10
1054.283
20
780.146
30
0.0
11
1029.283
21
750.146
31
0.0
0
LINE
5
2ea1
8
0-0
6
CONTINUOUS
62
  7
10
834.283
20
1037.146
30
0.0
11
1046.283
21
1037.146
31
0.0
0
LINE
5
2ea2
8
0-0
6
CONTINUOUS
62
  7
10
834.283
20
1045.146
30
0.0
11
834.283
21
1037.146
31
0.0
0
LINE
5
2ea3
8
0-0
6
CONTINUOUS
62
  7
10
1046.283
20
805.146
30
0.0
11
1046.283
21
1037.146
31
0.0
0
LINE
5
2ea4
8
0-0
6
CONTINUOUS
62
  7
10
1046.283
20
805.146
30
0.0
11
1054.283
21
805.146
31
0.0
0
LINE
5
2ea5
8
0-0
6
CONTINUOUS
62
  7
10
749.283
20
1045.146
30
0.0
11
1054.283
21
1045.146
31
0.0
0
LINE
5
2ea6
8
ADD_LINE
6
HIDDEN
62
  3
10
954.847
20
372.973
30
0.0
11
1127.411
21
372.973
31
0.0
0
LINE
5
2ea7
8
ADD_LINE
6
HIDDEN
62
  3
10
915.836
20
372.973
30
0.0
11
722.115
21
372.973
31
0.0
0
LINE
5
2ea8
8
ADD_LINE
6
HIDDEN
62
  3
10
936.487
20
363.910
30
0.0
11
936.487
21
346.101
31
0.0
0
LINE
5
2ea9
8
0-0
6
CONTINUOUS
62
  7
10
485.958
20
747.854
30
0.0
11
453.894
21
742.200
31
0.0
0
LINE
5
2eaa
8
0-0
6
CONTINUOUS
62
  7
10
542.418
20
747.655
30
0.0
11
455.631
21
732.352
31
0.0
0
LINE
5
2eab
8
0-0
6
CONTINUOUS
62
  7
10
453.894
20
742.200
30
0.0
11
455.631
21
732.352
31
0.0
0
LINE
5
2eac
8
0-0
6
CONTINUOUS
62
  7
10
509.958
20
1045.146
30
0.0
11
509.958
21
1043.199
31
0.0
0
LINE
5
2ead
8
0-0
6
CONTINUOUS
62
  7
10
485.958
20
747.854
30
0.0
11
509.954
21
752.085
31
0.0
0
LINE
5
2eae
8
0-0
6
CONTINUOUS
62
  7
10
534.958
20
772.741
30
0.0
11
534.958
21
1045.146
31
0.0
0
LINE
5
2eaf
8
0-0
6
CONTINUOUS
62
  7
10
509.958
20
1043.199
30
0.0
11
509.958
21
752.058
31
0.0
0
LINE
5
2eb0
8
0-0
6
CONTINUOUS
62
  7
10
470.986
20
760.445
30
0.0
11
473.591
21
745.673
31
0.0
0
LINE
5
2eb1
8
0-0
6
CONTINUOUS
62
  7
10
470.986
20
760.445
30
0.0
11
490.958
21
763.967
31
0.0
0
LINE
5
2eb2
8
0-0
6
CONTINUOUS
62
  7
10
534.958
20
1045.146
30
0.0
11
490.958
21
1045.146
31
0.0
0
LINE
5
2eb3
8
0-0
6
CONTINUOUS
62
  7
10
506.538
20
1045.146
30
0.0
11
490.958
21
1045.146
31
0.0
0
LINE
5
2eb4
8
0-0
6
CONTINUOUS
62
  7
10
490.958
20
1045.146
30
0.0
11
490.958
21
748.735
31
0.0
0
LINE
5
2eb5
8
0-0
6
CONTINUOUS
62
  7
10
770.143
20
1045.146
30
0.0
11
771.101
21
1040.165
31
0.0
0
LINE
5
2eb6
8
0-0
6
CONTINUOUS
62
  7
10
771.101
20
1040.165
30
0.0
11
772.919
21
1031.612
31
0.0
0
LINE
5
2eb7
8
0-0
6
CONTINUOUS
62
  7
10
772.919
20
1031.612
30
0.0
11
774.737
21
1023.958
31
0.0
0
LINE
5
2eb8
8
0-0
6
CONTINUOUS
62
  7
10
774.737
20
1023.958
30
0.0
11
776.556
21
1017.206
31
0.0
0
LINE
5
2eb9
8
0-0
6
CONTINUOUS
62
  7
10
776.556
20
1017.206
30
0.0
11
778.374
21
1011.353
31
0.0
0
LINE
5
2eba
8
0-0
6
CONTINUOUS
62
  7
10
778.374
20
1011.353
30
0.0
11
780.192
21
1006.401
31
0.0
0
LINE
5
2ebb
8
0-0
6
CONTINUOUS
62
  7
10
780.192
20
1006.401
30
0.0
11
782.010
21
1002.349
31
0.0
0
LINE
5
2ebc
8
0-0
6
CONTINUOUS
62
  7
10
782.010
20
1002.349
30
0.0
11
783.828
21
999.198
31
0.0
0
LINE
5
2ebd
8
0-0
6
CONTINUOUS
62
  7
10
783.828
20
999.198
30
0.0
11
785.646
21
996.947
31
0.0
0
LINE
5
2ebe
8
0-0
6
CONTINUOUS
62
  7
10
785.646
20
996.947
30
0.0
11
787.465
21
995.596
31
0.0
0
LINE
5
2ebf
8
0-0
6
CONTINUOUS
62
  7
10
787.465
20
995.596
30
0.0
11
789.283
21
995.146
31
0.0
0
LINE
5
2ec0
8
0-0
6
CONTINUOUS
62
  7
10
789.283
20
995.146
30
0.0
11
791.101
21
995.596
31
0.0
0
LINE
5
2ec1
8
0-0
6
CONTINUOUS
62
  7
10
791.101
20
995.596
30
0.0
11
792.919
21
996.947
31
0.0
0
LINE
5
2ec2
8
0-0
6
CONTINUOUS
62
  7
10
792.919
20
996.947
30
0.0
11
794.737
21
999.198
31
0.0
0
LINE
5
2ec3
8
0-0
6
CONTINUOUS
62
  7
10
794.737
20
999.198
30
0.0
11
796.556
21
1002.349
31
0.0
0
LINE
5
2ec4
8
0-0
6
CONTINUOUS
62
  7
10
796.556
20
1002.349
30
0.0
11
798.374
21
1006.401
31
0.0
0
LINE
5
2ec5
8
0-0
6
CONTINUOUS
62
  7
10
798.374
20
1006.401
30
0.0
11
800.192
21
1011.353
31
0.0
0
LINE
5
2ec6
8
0-0
6
CONTINUOUS
62
  7
10
800.192
20
1011.353
30
0.0
11
802.010
21
1017.206
31
0.0
0
LINE
5
2ec7
8
0-0
6
CONTINUOUS
62
  7
10
802.010
20
1017.206
30
0.0
11
803.828
21
1023.958
31
0.0
0
LINE
5
2ec8
8
0-0
6
CONTINUOUS
62
  7
10
803.828
20
1023.958
30
0.0
11
805.646
21
1031.612
31
0.0
0
LINE
5
2ec9
8
0-0
6
CONTINUOUS
62
  7
10
805.646
20
1031.612
30
0.0
11
807.465
21
1040.165
31
0.0
0
LINE
5
2eca
8
0-0
6
CONTINUOUS
62
  7
10
807.465
20
1040.165
30
0.0
11
808.422
21
1045.146
31
0.0
0
LINE
5
2ecb
8
0-0
6
CONTINUOUS
62
  7
10
1297.297
20
1045.146
30
0.0
11
1297.297
21
750.146
31
0.0
0
LINE
5
2ecc
8
0-0
6
CONTINUOUS
62
  7
10
1159.459
20
1045.146
30
0.0
11
1297.297
21
1045.146
31
0.0
0
LINE
5
2ecd
8
0-0
6
CONTINUOUS
62
  7
10
1159.459
20
750.146
30
0.0
11
1297.297
21
750.146
31
0.0
0
LINE
5
2ece
8
0-0
6
CONTINUOUS
62
  7
10
1029.283
20
404.364
30
0.0
11
1054.283
21
400.698
31
0.0
0
LINE
5
2ecf
8
0-0
6
CONTINUOUS
62
  7
10
490.958
20
1204.812
30
0.0
11
509.958
21
1204.812
31
0.0
0
LINE
5
2ed0
8
0-0
6
CONTINUOUS
62
  7
10
490.958
20
1079.527
30
0.0
11
490.958
21
1204.812
31
0.0
0
LINE
5
2ed1
8
0-0
6
CONTINUOUS
62
  7
10
509.958
20
1079.527
30
0.0
11
509.958
21
1204.812
31
0.0
0
LINE
5
2ed2
8
0-0
6
CONTINUOUS
62
  7
10
744.283
20
655.426
30
0.0
11
834.283
21
655.426
31
0.0
0
LINE
5
2ed3
8
0-0
6
CONTINUOUS
62
  7
10
744.283
20
703.981
30
0.0
11
744.283
21
655.426
31
0.0
0
LINE
5
2ed4
8
0-0
6
CONTINUOUS
62
  7
10
834.283
20
703.981
30
0.0
11
834.283
21
655.426
31
0.0
0
CIRCLE
5
2ed5
8
0-0
6
CONTINUOUS
62
  7
10
799.283
20
830.146
30
0.0
40
3.000
0
CIRCLE
5
2ed6
8
0-0
6
CONTINUOUS
62
  7
10
799.283
20
850.146
30
0.0
40
3.000
0
ARC
5
2ed7
8
0-0
6
CONTINUOUS
62
  7
10
789.283
20
836.396
30
0.0
40
106.250
50
244.942429
51
295.057556
0
CIRCLE
5
2ed8
8
0-0
6
CONTINUOUS
62
  7
10
789.283
20
395.663
30
0.0
40
45.000
0
CIRCLE
5
2ed9
8
ADD_LINE
6
HIDDEN
62
  3
10
936.485
20
372.973
30
0.0
40
3.000
0
ARC
5
2eda
8
0-0
6
CONTINUOUS
62
  7
10
1040.531
20
415.919
30
0.0
40
6.808
50
318.432068
51
358.142212
0
ARC
5
2edb
8
0-0
6
CONTINUOUS
62
  7
10
916.278
20
630.393
30
0.0
40
286.103
50
250.029709
51
298.839783
0
ARC
5
2edc
8
0-0
6
CONTINUOUS
62
  7
10
936.936
20
641.302
30
0.0
40
254.299
50
245.643051
51
297.481079
0
ARC
5
2edd
8
0-0
6
CONTINUOUS
62
  7
10
722.285
20
765.812
30
0.0
40
27.006
50
324.542938
51
358.587036
0
CIRCLE
5
2ede
8
0-0
6
CONTINUOUS
62
  7
10
864.283
20
1025.146
30
0.0
40
3.000
0
CIRCLE
5
2edf
8
0-0
6
CONTINUOUS
62
  7
10
979.283
20
1025.146
30
0.0
40
3.000
0
CIRCLE
5
2ee0
8
0-0
6
CONTINUOUS
62
  7
10
1039.283
20
900.146
30
0.0
40
3.000
0
CIRCLE
5
2ee1
8
0-0
6
CONTINUOUS
62
  7
10
1039.283
20
870.146
30
0.0
40
3.000
0
ARC
5
2ee2
8
0-0
6
CONTINUOUS
62
  7
10
482.509
20
833.667
30
0.0
40
104.820
50
255.142105
51
304.857971
0
ARC
5
2ee3
8
0-0
6
CONTINUOUS
62
  7
10
582.749
20
773.301
30
0.0
40
47.794
50
180.671661
51
212.451782
0
TEXT
5
2ee4
100
AcDbEntity
8
0-0
62
7
100
AcDbText
10
892.408
20
543.253
30
0.0
40
9.750
41
0.800
50
0.000
1
305
100
AcDbText
0
TEXT
5
2ee5
100
AcDbEntity
8
0-0
62
7
100
AcDbText
10
872.408
20
507.252
30
0.0
40
9.750
41
0.800
50
0.000
1
265
100
AcDbText
0
TEXT
5
2ee6
100
AcDbEntity
8
0-0
62
7
100
AcDbText
10
892.408
20
1207.312
30
0.0
40
9.750
41
0.800
50
0.000
1
305
100
AcDbText
0
TEXT
5
2ee7
100
AcDbEntity
8
0-0
62
7
100
AcDbText
10
645.045
20
391.734
30
0.0
40
9.750
41
0.800
50
90.000
1
90
100
AcDbText
0
TEXT
5
2ee8
100
AcDbEntity
8
0-0
62
7
100
AcDbText
10
1294.797
20
888.271
30
0.0
40
9.750
41
0.800
50
90.000
1
295
100
AcDbText
0
TEXT
5
2ee9
100
AcDbEntity
8
0-0
62
7
100
AcDbText
10
494.208
20
1207.312
30
0.0
40
9.750
41
0.800
50
0.000
1
19
100
AcDbText
0
TEXT
5
2eea
100
AcDbEntity
8
0-0
62
7
100
AcDbText
10
783.033
20
657.926
30
0.0
40
9.750
41
0.800
50
0.000
1
90
100
AcDbText
0
POINT
5
2eeb
8
0-0
62
  7
10
749.283
20
540.753
30
0.0
0
POINT
5
2eec
8
0-0
62
  7
10
1054.283
20
540.753
30
0.0
0
POINT
5
2eed
8
0-0
62
  7
10
749.283
20
504.752
30
0.0
0
POINT
5
2eee
8
0-0
62
  7
10
1014.283
20
504.752
30
0.0
0
POINT
5
2eef
8
0-0
62
  7
10
749.283
20
1204.812
30
0.0
0
POINT
5
2ef0
8
0-0
62
  7
10
1054.283
20
1204.812
30
0.0
0
POINT
5
2ef1
8
0-0
62
  7
10
647.545
20
442.984
30
0.0
0
POINT
5
2ef2
8
0-0
62
  7
10
647.545
20
352.984
30
0.0
0
POINT
5
2ef3
8
0-0
62
  7
10
1297.297
20
1045.146
30
0.0
0
POINT
5
2ef4
8
0-0
62
  7
10
1297.297
20
750.146
30
0.0
0
POINT
5
2ef5
8
0-0
62
  7
10
490.958
20
1204.812
30
0.0
0
POINT
5
2ef6
8
0-0
62
  7
10
509.958
20
1204.812
30
0.0
0
POINT
5
2ef7
8
0-0
62
  7
10
744.283
20
655.426
30
0.0
0
POINT
5
2ef8
8
0-0
62
  7
10
834.283
20
655.426
30
0.0
0
ENDSEC
0
EOF
