0
SECTION
2
HEADER
  9
$EXTMIN
10
0
20
0
30
0
  9
$EXTMAX
10
1588.527
20
1349.204
30
0
  9
$LTSCALE
40
5.000
  9
$DIMSCALE
40
5.000
  9
$PDMODE
70
0
  9
$PDSIZE
40
40
0
ENDSEC
0
SECTION
2
TABLES
0
TABLE
2
LTYPE
70
9
0
LTYPE
5
1f4
2
CONTINUOUS
70
0
3
実線
72
65
73
0
40
0.0
0
LTYPE
5
1f5
2
DOT
70
0
3
--  --  --  --  --  --  --  --     
72
65
73
2
40
5.000
49
1.000
49
-4.000
0
LTYPE
5
1f6
2
DASHED
70
0
3
----    ----    ----    ----    
72
65
73
2
40
5.000
49
2.000
49
-3.000
0
LTYPE
5
1f7
2
DASHED2
70
0
3
------  ------  ------  ------ 
72
65
73
2
40
10.000
49
4.000
49
-6.000
0
LTYPE
5
1f8
2
CENTER
70
0
3
----- - ----- - ----- - ----- - 
72
65
73
4
40
9.000
49
6.000
49
-1.000
49
1.000
49
-1.000
0
LTYPE
5
1f9
2
CENTER2
70
0
3
----------  --  ----------  -- 
72
65
73
4
40
18.000
49
12.000
49
-2.000
49
2.000
49
-2.000
0
LTYPE
5
1fa
2
PHANTOM
70
0
3
--- - - --- - - --- - - --- - -
72
65
73
6
40
10.000
49
5.000
49
-1.000
49
1.000
49
-1.000
49
1.000
49
-1.000
0
LTYPE
5
1fb
2
PHANTOM2
70
0
3
--------  -  -  --------  -  -
72
65
73
6
40
16.000
49
6.000
49
-2.000
49
2.000
49
-2.000
49
2.000
49
-2.000
0
LTYPE
5
1fc
2
HIDDEN
70
0
3
-   -   -   -   -   -   -   -   
72
65
73
2
40
2.500
49
0.500
49
-2.000
0
ENDTAB
0
TABLE
2
STYLE
70
1
0
STYLE
5
1fd
100
AcDbSymbolTableRecord
100
AcDbTextStyleTableRecord
2
STANDARD
70
0
40
0.0
41
1.0
50
0.0
71
0
42
0.0
3
txt.shx
4
extfont.shx
0
STYLE
5
1fe
100
AcDbSymbolTableRecord
100
AcDbTextStyleTableRecord
2
TATEGAKI
70
4
40
0.0
41
1.0
50
0.0
71
0
42
0.0
3
txt.shx
4
extfont.shx
0
STYLE
5
1ff
100
AcDbSymbolTableRecord
100
AcDbTextStyleTableRecord
2
MT
70
0
40
0.0
41
1.0
50
0.0
71
0
42
0.0
3
MS Mincho
4

0
STYLE
5
200
100
AcDbSymbolTableRecord
100
AcDbTextStyleTableRecord
2
TMT
70
4
40
0.0
41
1.0
50
0.0
71
0
42
0.0
3
@MS Mincho
4

0
ENDTAB
0
TABLE
2
LAYER
5
2e04
100
AcDbSymbolTable
70
10
0
LAYER
5
2e05
100
AcDbSymbolTableRecord
100
AcDbLayerTableRecord
2
0
70
64
62
  7
  6
CONTINUOUS
0
LAYER
5
2e06
100
AcDbSymbolTableRecord
100
AcDbLayerTableRecord
2
0-0
70
64
62
  7
  6
CONTINUOUS
0
LAYER
5
2e07
100
AcDbSymbolTableRecord
100
AcDbLayerTableRecord
2
ADD_LINE
70
64
62
  -7
  6
CONTINUOUS
0
ENDTAB
0
ENDSEC
0
SECTION
2
ENTITIES
0
LINE
5
2e08
8
0-0
6
CONTINUOUS
62
  7
10
918.881
20
557.590
30
0.0
11
911.933
21
557.590
31
0.0
0
LINE
5
2e09
8
0-0
6
CONTINUOUS
62
  7
10
911.933
20
557.590
30
0.0
11
911.933
21
541.684
31
0.0
0
LINE
5
2e0a
8
0-0
6
CONTINUOUS
62
  7
10
1216.933
20
682.645
30
0.0
11
911.933
21
682.645
31
0.0
0
LINE
5
2e0b
8
0-0
6
CONTINUOUS
62
  7
10
1216.933
20
610.642
30
0.0
11
1216.933
21
682.645
31
0.0
0
LINE
5
2e0c
8
0-0
6
CONTINUOUS
62
  7
10
911.933
20
610.642
30
0.0
11
911.933
21
682.645
31
0.0
0
LINE
5
2e0d
8
0-0
6
CONTINUOUS
62
  7
10
1216.933
20
646.643
30
0.0
11
951.933
21
646.643
31
0.0
0
LINE
5
2e0e
8
0-0
6
CONTINUOUS
62
  7
10
1216.933
20
610.642
30
0.0
11
1216.933
21
646.643
31
0.0
0
LINE
5
2e0f
8
0-0
6
CONTINUOUS
62
  7
10
951.933
20
610.642
30
0.0
11
951.933
21
646.643
31
0.0
0
LINE
5
2e10
8
0-0
6
CONTINUOUS
62
  7
10
1216.933
20
1346.703
30
0.0
11
911.934
21
1346.703
31
0.0
0
LINE
5
2e11
8
0-0
6
CONTINUOUS
62
  7
10
1216.933
20
1221.419
30
0.0
11
1216.933
21
1346.703
31
0.0
0
LINE
5
2e12
8
0-0
6
CONTINUOUS
62
  7
10
911.934
20
1221.419
30
0.0
11
911.934
21
1346.703
31
0.0
0
LINE
5
2e13
8
0-0
6
CONTINUOUS
62
  7
10
911.934
20
892.038
30
0.0
11
911.934
21
1187.038
31
0.0
0
LINE
5
2e14
8
0-0
6
CONTINUOUS
62
  7
10
911.933
20
557.590
30
0.0
11
911.933
21
521.666
31
0.0
0
LINE
5
2e15
8
0-0
6
CONTINUOUS
62
  7
10
1318.671
20
584.876
30
0.0
11
1318.671
21
494.876
31
0.0
0
LINE
5
2e16
8
0-0
6
CONTINUOUS
62
  7
10
1266.195
20
584.876
30
0.0
11
1318.671
21
584.876
31
0.0
0
LINE
5
2e17
8
0-0
6
CONTINUOUS
62
  7
10
1266.195
20
494.876
30
0.0
11
1318.671
21
494.876
31
0.0
0
LINE
5
2e18
8
0-0
6
CONTINUOUS
62
  7
10
918.881
20
557.590
30
0.0
11
911.933
21
557.590
31
0.0
0
LINE
5
2e19
8
0-0
6
CONTINUOUS
62
  7
10
911.933
20
557.590
30
0.0
11
911.933
21
541.684
31
0.0
0
LINE
5
2e1a
8
0-0
6
CONTINUOUS
62
  7
10
911.933
20
557.590
30
0.0
11
911.933
21
541.684
31
0.0
0
LINE
5
2e1b
8
ADD_LINE
6
HIDDEN
62
  3
10
1029.732
20
518.550
30
0.0
11
1029.732
21
516.526
31
0.0
0
LINE
5
2e1c
8
ADD_LINE
6
HIDDEN
62
  3
10
1029.730
20
514.865
30
0.0
11
1050.380
21
514.865
31
0.0
0
LINE
5
2e1d
8
ADD_LINE
6
HIDDEN
62
  3
10
1029.730
20
514.865
30
0.0
11
1011.370
21
514.865
31
0.0
0
LINE
5
2e1e
8
ADD_LINE
6
HIDDEN
62
  3
10
1029.730
20
505.801
30
0.0
11
1029.730
21
573.055
31
0.0
0
LINE
5
2e1f
8
ADD_LINE
6
HIDDEN
62
  3
10
951.933
20
610.642
30
0.0
11
951.933
21
500.460
31
0.0
0
LINE
5
2e20
8
0-0
6
CONTINUOUS
62
  7
10
1131.934
20
892.038
30
0.0
11
1131.934
21
882.038
31
0.0
0
LINE
5
2e21
8
0-0
6
CONTINUOUS
62
  7
10
1131.934
20
892.038
30
0.0
11
911.934
21
892.038
31
0.0
0
LINE
5
2e22
8
0-0
6
CONTINUOUS
62
  7
10
1221.933
20
882.038
30
0.0
11
1221.933
21
892.038
31
0.0
0
LINE
5
2e23
8
0-0
6
CONTINUOUS
62
  7
10
1216.933
20
907.038
30
0.0
11
1216.933
21
1187.038
31
0.0
0
LINE
5
2e24
8
0-0
6
CONTINUOUS
62
  7
10
1221.933
20
882.038
30
0.0
11
1131.934
21
882.038
31
0.0
0
LINE
5
2e25
8
0-0
6
CONTINUOUS
62
  7
10
911.934
20
922.038
30
0.0
11
936.933
21
892.038
31
0.0
0
LINE
5
2e26
8
0-0
6
CONTINUOUS
62
  7
10
1131.934
20
1179.038
30
0.0
11
919.933
21
1179.038
31
0.0
0
LINE
5
2e27
8
0-0
6
CONTINUOUS
62
  7
10
1131.934
20
1187.038
30
0.0
11
1131.934
21
1179.038
31
0.0
0
LINE
5
2e28
8
0-0
6
CONTINUOUS
62
  7
10
919.933
20
947.038
30
0.0
11
919.933
21
1179.038
31
0.0
0
LINE
5
2e29
8
0-0
6
CONTINUOUS
62
  7
10
919.933
20
947.038
30
0.0
11
911.934
21
947.038
31
0.0
0
LINE
5
2e2a
8
0-0
6
CONTINUOUS
62
  7
10
1216.933
20
1187.038
30
0.0
11
911.934
21
1187.038
31
0.0
0
LINE
5
2e2b
8
ADD_LINE
6
HIDDEN
62
  3
10
1011.370
20
514.865
30
0.0
11
838.806
21
514.865
31
0.0
0
LINE
5
2e2c
8
ADD_LINE
6
HIDDEN
62
  3
10
1050.380
20
514.865
30
0.0
11
1244.102
21
514.865
31
0.0
0
LINE
5
2e2d
8
ADD_LINE
6
HIDDEN
62
  3
10
1029.730
20
505.801
30
0.0
11
1029.730
21
487.993
31
0.0
0
LINE
5
2e2e
8
0-0
6
CONTINUOUS
62
  7
10
1480.258
20
889.746
30
0.0
11
1512.322
21
884.092
31
0.0
0
LINE
5
2e2f
8
0-0
6
CONTINUOUS
62
  7
10
1423.798
20
889.547
30
0.0
11
1510.585
21
874.244
31
0.0
0
LINE
5
2e30
8
0-0
6
CONTINUOUS
62
  7
10
1512.322
20
884.092
30
0.0
11
1510.585
21
874.244
31
0.0
0
LINE
5
2e31
8
0-0
6
CONTINUOUS
62
  7
10
1456.258
20
1187.038
30
0.0
11
1456.258
21
1185.091
31
0.0
0
LINE
5
2e32
8
0-0
6
CONTINUOUS
62
  7
10
1480.258
20
889.746
30
0.0
11
1456.263
21
893.977
31
0.0
0
LINE
5
2e33
8
0-0
6
CONTINUOUS
62
  7
10
1431.258
20
914.633
30
0.0
11
1431.258
21
1187.038
31
0.0
0
LINE
5
2e34
8
0-0
6
CONTINUOUS
62
  7
10
1456.258
20
1185.091
30
0.0
11
1456.258
21
893.950
31
0.0
0
LINE
5
2e35
8
0-0
6
CONTINUOUS
62
  7
10
1495.230
20
902.337
30
0.0
11
1492.626
21
887.565
31
0.0
0
LINE
5
2e36
8
0-0
6
CONTINUOUS
62
  7
10
1495.230
20
902.337
30
0.0
11
1475.258
21
905.859
31
0.0
0
LINE
5
2e37
8
0-0
6
CONTINUOUS
62
  7
10
1431.258
20
1187.038
30
0.0
11
1475.258
21
1187.038
31
0.0
0
LINE
5
2e38
8
0-0
6
CONTINUOUS
62
  7
10
1459.679
20
1187.038
30
0.0
11
1475.258
21
1187.038
31
0.0
0
LINE
5
2e39
8
0-0
6
CONTINUOUS
62
  7
10
1475.258
20
1187.038
30
0.0
11
1475.258
21
890.627
31
0.0
0
LINE
5
2e3a
8
0-0
6
CONTINUOUS
62
  7
10
1196.073
20
1187.038
30
0.0
11
1195.115
21
1182.057
31
0.0
0
LINE
5
2e3b
8
0-0
6
CONTINUOUS
62
  7
10
1195.115
20
1182.057
30
0.0
11
1193.297
21
1173.504
31
0.0
0
LINE
5
2e3c
8
0-0
6
CONTINUOUS
62
  7
10
1193.297
20
1173.504
30
0.0
11
1191.479
21
1165.850
31
0.0
0
LINE
5
2e3d
8
0-0
6
CONTINUOUS
62
  7
10
1191.479
20
1165.850
30
0.0
11
1189.661
21
1159.097
31
0.0
0
LINE
5
2e3e
8
0-0
6
CONTINUOUS
62
  7
10
1189.661
20
1159.097
30
0.0
11
1187.843
21
1153.245
31
0.0
0
LINE
5
2e3f
8
0-0
6
CONTINUOUS
62
  7
10
1187.843
20
1153.245
30
0.0
11
1186.024
21
1148.293
31
0.0
0
LINE
5
2e40
8
0-0
6
CONTINUOUS
62
  7
10
1186.024
20
1148.293
30
0.0
11
1184.206
21
1144.241
31
0.0
0
LINE
5
2e41
8
0-0
6
CONTINUOUS
62
  7
10
1184.206
20
1144.241
30
0.0
11
1182.388
21
1141.090
31
0.0
0
LINE
5
2e42
8
0-0
6
CONTINUOUS
62
  7
10
1182.388
20
1141.090
30
0.0
11
1180.570
21
1138.839
31
0.0
0
LINE
5
2e43
8
0-0
6
CONTINUOUS
62
  7
10
1180.570
20
1138.839
30
0.0
11
1178.752
21
1137.488
31
0.0
0
LINE
5
2e44
8
0-0
6
CONTINUOUS
62
  7
10
1178.752
20
1137.488
30
0.0
11
1176.933
21
1137.038
31
0.0
0
LINE
5
2e45
8
0-0
6
CONTINUOUS
62
  7
10
1176.933
20
1137.038
30
0.0
11
1175.115
21
1137.488
31
0.0
0
LINE
5
2e46
8
0-0
6
CONTINUOUS
62
  7
10
1175.115
20
1137.488
30
0.0
11
1173.297
21
1138.839
31
0.0
0
LINE
5
2e47
8
0-0
6
CONTINUOUS
62
  7
10
1173.297
20
1138.839
30
0.0
11
1171.479
21
1141.090
31
0.0
0
LINE
5
2e48
8
0-0
6
CONTINUOUS
62
  7
10
1171.479
20
1141.090
30
0.0
11
1169.661
21
1144.241
31
0.0
0
LINE
5
2e49
8
0-0
6
CONTINUOUS
62
  7
10
1169.661
20
1144.241
30
0.0
11
1167.843
21
1148.293
31
0.0
0
LINE
5
2e4a
8
0-0
6
CONTINUOUS
62
  7
10
1167.843
20
1148.293
30
0.0
11
1166.024
21
1153.245
31
0.0
0
LINE
5
2e4b
8
0-0
6
CONTINUOUS
62
  7
10
1166.024
20
1153.245
30
0.0
11
1164.206
21
1159.097
31
0.0
0
LINE
5
2e4c
8
0-0
6
CONTINUOUS
62
  7
10
1164.206
20
1159.097
30
0.0
11
1162.388
21
1165.850
31
0.0
0
LINE
5
2e4d
8
0-0
6
CONTINUOUS
62
  7
10
1162.388
20
1165.850
30
0.0
11
1160.570
21
1173.504
31
0.0
0
LINE
5
2e4e
8
0-0
6
CONTINUOUS
62
  7
10
1160.570
20
1173.504
30
0.0
11
1158.752
21
1182.057
31
0.0
0
LINE
5
2e4f
8
0-0
6
CONTINUOUS
62
  7
10
1158.752
20
1182.057
30
0.0
11
1157.794
21
1187.038
31
0.0
0
LINE
5
2e50
8
0-0
6
CONTINUOUS
62
  7
10
668.919
20
1187.038
30
0.0
11
668.919
21
892.038
31
0.0
0
LINE
5
2e51
8
0-0
6
CONTINUOUS
62
  7
10
806.757
20
1187.038
30
0.0
11
668.919
21
1187.038
31
0.0
0
LINE
5
2e52
8
0-0
6
CONTINUOUS
62
  7
10
806.757
20
892.038
30
0.0
11
668.919
21
892.038
31
0.0
0
LINE
5
2e53
8
0-0
6
CONTINUOUS
62
  7
10
936.933
20
546.256
30
0.0
11
911.933
21
542.590
31
0.0
0
LINE
5
2e54
8
0-0
6
CONTINUOUS
62
  7
10
1475.258
20
1346.703
30
0.0
11
1456.258
21
1346.703
31
0.0
0
LINE
5
2e55
8
0-0
6
CONTINUOUS
62
  7
10
1475.258
20
1221.419
30
0.0
11
1475.258
21
1346.703
31
0.0
0
LINE
5
2e56
8
0-0
6
CONTINUOUS
62
  7
10
1456.258
20
1221.419
30
0.0
11
1456.258
21
1346.703
31
0.0
0
LINE
5
2e57
8
0-0
6
CONTINUOUS
62
  7
10
1221.933
20
797.318
30
0.0
11
1131.934
21
797.318
31
0.0
0
LINE
5
2e58
8
0-0
6
CONTINUOUS
62
  7
10
1221.933
20
845.873
30
0.0
11
1221.933
21
797.318
31
0.0
0
LINE
5
2e59
8
0-0
6
CONTINUOUS
62
  7
10
1131.934
20
845.873
30
0.0
11
1131.934
21
797.318
31
0.0
0
CIRCLE
5
2e5a
8
0-0
6
CONTINUOUS
62
  7
10
1166.933
20
972.038
30
0.0
40
3.000
0
CIRCLE
5
2e5b
8
0-0
6
CONTINUOUS
62
  7
10
1166.933
20
992.038
30
0.0
40
3.000
0
ARC
5
2e5c
8
0-0
6
CONTINUOUS
62
  7
10
1176.933
20
978.288
30
0.0
40
106.250
50
244.942459
51
295.057556
0
CIRCLE
5
2e5d
8
0-0
6
CONTINUOUS
62
  7
10
1176.933
20
537.555
30
0.0
40
45.000
0
CIRCLE
5
2e5e
8
ADD_LINE
6
HIDDEN
62
  3
10
1029.732
20
514.865
30
0.0
40
3.000
0
ARC
5
2e5f
8
0-0
6
CONTINUOUS
62
  7
10
925.685
20
557.811
30
0.0
40
6.808
50
181.857788
51
221.567917
0
ARC
5
2e60
8
0-0
6
CONTINUOUS
62
  7
10
1049.938
20
772.285
30
0.0
40
286.103
50
241.160233
51
289.970276
0
ARC
5
2e61
8
0-0
6
CONTINUOUS
62
  7
10
1029.281
20
783.194
30
0.0
40
254.299
50
242.518906
51
294.356934
0
ARC
5
2e62
8
0-0
6
CONTINUOUS
62
  7
10
1243.931
20
907.704
30
0.0
40
27.006
50
181.412964
51
215.457062
0
CIRCLE
5
2e63
8
0-0
6
CONTINUOUS
62
  7
10
1101.933
20
1167.038
30
0.0
40
3.000
0
CIRCLE
5
2e64
8
0-0
6
CONTINUOUS
62
  7
10
986.933
20
1167.038
30
0.0
40
3.000
0
CIRCLE
5
2e65
8
0-0
6
CONTINUOUS
62
  7
10
926.934
20
1042.038
30
0.0
40
3.000
0
CIRCLE
5
2e66
8
0-0
6
CONTINUOUS
62
  7
10
926.934
20
1012.038
30
0.0
40
3.000
0
ARC
5
2e67
8
0-0
6
CONTINUOUS
62
  7
10
1483.707
20
975.559
30
0.0
40
104.820
50
235.142029
51
284.857910
0
ARC
5
2e68
8
0-0
6
CONTINUOUS
62
  7
10
1383.467
20
915.193
30
0.0
40
47.794
50
327.548218
51
359.328339
0
TEXT
5
2e69
100
AcDbEntity
8
0-0
62
7
100
AcDbText
10
1055.058
20
685.145
30
0.0
40
9.750
41
0.800
50
0.000
1
305
100
AcDbText
0
TEXT
5
2e6a
100
AcDbEntity
8
0-0
62
7
100
AcDbText
10
1075.059
20
649.143
30
0.0
40
9.750
41
0.800
50
0.000
1
265
100
AcDbText
0
TEXT
5
2e6b
100
AcDbEntity
8
0-0
62
7
100
AcDbText
10
1055.058
20
1349.204
30
0.0
40
9.750
41
0.800
50
0.000
1
305
100
AcDbText
0
TEXT
5
2e6c
100
AcDbEntity
8
0-0
62
7
100
AcDbText
10
1315.676
20
533.626
30
0.0
40
9.750
41
0.800
50
90.000
1
90
100
AcDbText
0
TEXT
5
2e6d
100
AcDbEntity
8
0-0
62
7
100
AcDbText
10
663.758
20
1030.163
30
0.0
40
9.750
41
0.800
50
90.000
1
295
100
AcDbText
0
TEXT
5
2e6e
100
AcDbEntity
8
0-0
62
7
100
AcDbText
10
1459.508
20
1349.204
30
0.0
40
9.750
41
0.800
50
0.000
1
19
100
AcDbText
0
TEXT
5
2e6f
100
AcDbEntity
8
0-0
62
7
100
AcDbText
10
1170.683
20
799.818
30
0.0
40
9.750
41
0.800
50
0.000
1
90
100
AcDbText
0
POINT
5
2e70
8
0-0
62
  7
10
1216.933
20
682.645
30
0.0
0
POINT
5
2e71
8
0-0
62
  7
10
911.933
20
682.645
30
0.0
0
POINT
5
2e72
8
0-0
62
  7
10
1216.933
20
646.643
30
0.0
0
POINT
5
2e73
8
0-0
62
  7
10
951.933
20
646.643
30
0.0
0
POINT
5
2e74
8
0-0
62
  7
10
1216.933
20
1346.703
30
0.0
0
POINT
5
2e75
8
0-0
62
  7
10
911.934
20
1346.703
30
0.0
0
POINT
5
2e76
8
0-0
62
  7
10
1318.671
20
584.876
30
0.0
0
POINT
5
2e77
8
0-0
62
  7
10
1318.671
20
494.876
30
0.0
0
POINT
5
2e78
8
0-0
62
  7
10
668.919
20
1187.038
30
0.0
0
POINT
5
2e79
8
0-0
62
  7
10
668.919
20
892.038
30
0.0
0
POINT
5
2e7a
8
0-0
62
  7
10
1475.258
20
1346.703
30
0.0
0
POINT
5
2e7b
8
0-0
62
  7
10
1456.258
20
1346.703
30
0.0
0
POINT
5
2e7c
8
0-0
62
  7
10
1221.933
20
797.318
30
0.0
0
POINT
5
2e7d
8
0-0
62
  7
10
1131.934
20
797.318
30
0.0
0
ENDSEC
0
EOF
