0
SECTION
2
HEADER
  9
$EXTMIN
10
0
20
0
30
0
  9
$EXTMAX
10
2220.454
20
1275.201
30
0
  9
$LTSCALE
40
5.000
  9
$DIMSCALE
40
5.000
  9
$PDMODE
70
0
  9
$PDSIZE
40
40
0
ENDSEC
0
SECTION
2
TABLES
0
TABLE
2
LTYPE
70
9
0
LTYPE
5
1f4
2
CONTINUOUS
70
0
3
実線
72
65
73
0
40
0.0
0
LTYPE
5
1f5
2
DOT
70
0
3
--  --  --  --  --  --  --  --     
72
65
73
2
40
5.000
49
1.000
49
-4.000
0
LTYPE
5
1f6
2
DASHED
70
0
3
----    ----    ----    ----    
72
65
73
2
40
5.000
49
2.000
49
-3.000
0
LTYPE
5
1f7
2
DASHED2
70
0
3
------  ------  ------  ------ 
72
65
73
2
40
10.000
49
4.000
49
-6.000
0
LTYPE
5
1f8
2
CENTER
70
0
3
----- - ----- - ----- - ----- - 
72
65
73
4
40
9.000
49
6.000
49
-1.000
49
1.000
49
-1.000
0
LTYPE
5
1f9
2
CENTER2
70
0
3
----------  --  ----------  -- 
72
65
73
4
40
18.000
49
12.000
49
-2.000
49
2.000
49
-2.000
0
LTYPE
5
1fa
2
PHANTOM
70
0
3
--- - - --- - - --- - - --- - -
72
65
73
6
40
10.000
49
5.000
49
-1.000
49
1.000
49
-1.000
49
1.000
49
-1.000
0
LTYPE
5
1fb
2
PHANTOM2
70
0
3
--------  -  -  --------  -  -
72
65
73
6
40
16.000
49
6.000
49
-2.000
49
2.000
49
-2.000
49
2.000
49
-2.000
0
LTYPE
5
1fc
2
HIDDEN
70
0
3
-   -   -   -   -   -   -   -   
72
65
73
2
40
2.500
49
0.500
49
-2.000
0
ENDTAB
0
TABLE
2
STYLE
70
1
0
STYLE
5
1fd
100
AcDbSymbolTableRecord
100
AcDbTextStyleTableRecord
2
STANDARD
70
0
40
0.0
41
1.0
50
0.0
71
0
42
0.0
3
txt.shx
4
extfont.shx
0
STYLE
5
1fe
100
AcDbSymbolTableRecord
100
AcDbTextStyleTableRecord
2
TATEGAKI
70
4
40
0.0
41
1.0
50
0.0
71
0
42
0.0
3
txt.shx
4
extfont.shx
0
STYLE
5
1ff
100
AcDbSymbolTableRecord
100
AcDbTextStyleTableRecord
2
MT
70
0
40
0.0
41
1.0
50
0.0
71
0
42
0.0
3
MS Mincho
4

0
STYLE
5
200
100
AcDbSymbolTableRecord
100
AcDbTextStyleTableRecord
2
TMT
70
4
40
0.0
41
1.0
50
0.0
71
0
42
0.0
3
@MS Mincho
4

0
ENDTAB
0
TABLE
2
LAYER
5
2d01
100
AcDbSymbolTable
70
10
0
LAYER
5
2d02
100
AcDbSymbolTableRecord
100
AcDbLayerTableRecord
2
0
70
64
62
  7
  6
CONTINUOUS
0
LAYER
5
2d03
100
AcDbSymbolTableRecord
100
AcDbLayerTableRecord
2
0-0
70
64
62
  7
  6
CONTINUOUS
0
LAYER
5
2d04
100
AcDbSymbolTableRecord
100
AcDbLayerTableRecord
2
0-1
70
64
62
  7
  6
CONTINUOUS
0
LAYER
5
2d05
100
AcDbSymbolTableRecord
100
AcDbLayerTableRecord
2
ADD_LINE
70
64
62
  -7
  6
CONTINUOUS
0
ENDTAB
0
ENDSEC
0
SECTION
2
ENTITIES
0
LINE
5
2d06
8
0-0
6
CONTINUOUS
62
  7
10
939.418
20
1039.228
30
0.0
11
1114.418
21
1039.228
31
0.0
0
LINE
5
2d07
8
0-0
6
CONTINUOUS
62
  7
10
939.418
20
1047.228
30
0.0
11
939.418
21
1039.228
31
0.0
0
LINE
5
2d08
8
0-0
6
CONTINUOUS
62
  7
10
1114.418
20
1047.228
30
0.0
11
1114.418
21
1039.228
31
0.0
0
LINE
5
2d09
8
0-0
6
CONTINUOUS
62
  7
10
1395.662
20
1047.228
30
0.0
11
1447.662
21
1047.228
31
0.0
0
LINE
5
2d0a
8
0-0
6
CONTINUOUS
62
  7
10
583.248
20
1047.228
30
0.0
11
583.248
21
1039.228
31
0.0
0
LINE
5
2d0b
8
0-0
6
CONTINUOUS
62
  7
10
605.580
20
1047.228
30
0.0
11
564.581
21
1047.228
31
0.0
0
LINE
5
2d0c
8
0-0
6
CONTINUOUS
62
  7
10
1447.662
20
1270.201
30
0.0
11
1395.662
21
1270.201
31
0.0
0
LINE
5
2d0d
8
0-0
6
CONTINUOUS
62
  7
10
1447.662
20
1095.876
30
0.0
11
1447.662
21
1270.201
31
0.0
0
LINE
5
2d0e
8
0-0
6
CONTINUOUS
62
  7
10
1395.662
20
1095.876
30
0.0
11
1395.662
21
1270.201
31
0.0
0
LINE
5
2d0f
8
0-0
6
CONTINUOUS
62
  7
10
580.581
20
1270.201
30
0.0
11
564.581
21
1270.201
31
0.0
0
LINE
5
2d10
8
0-0
6
CONTINUOUS
62
  7
10
580.581
20
1095.876
30
0.0
11
580.581
21
1270.201
31
0.0
0
LINE
5
2d11
8
0-0
6
CONTINUOUS
62
  7
10
564.581
20
1095.876
30
0.0
11
564.581
21
1270.201
31
0.0
0
LINE
5
2d12
8
0-0
6
CONTINUOUS
62
  7
10
902.418
20
1047.228
30
0.0
11
1142.418
21
1047.228
31
0.0
0
LINE
5
2d13
8
0-0
6
CONTINUOUS
62
  7
10
852.418
20
1012.228
30
0.0
11
902.418
21
1012.228
31
0.0
0
LINE
5
2d14
8
0-0
6
CONTINUOUS
62
  7
10
902.418
20
1047.228
30
0.0
11
902.418
21
1012.228
31
0.0
0
LINE
5
2d15
8
0-0
6
CONTINUOUS
62
  7
10
852.418
20
1012.228
30
0.0
11
852.418
21
747.227
31
0.0
0
LINE
5
2d16
8
0-0
6
CONTINUOUS
62
  7
10
852.418
20
747.227
30
0.0
11
1182.042
21
747.227
31
0.0
0
LINE
5
2d17
8
0-0
6
CONTINUOUS
62
  7
10
1142.418
20
1047.228
30
0.0
11
1182.042
21
747.227
31
0.0
0
LINE
5
2d18
8
0-0
6
CONTINUOUS
62
  7
10
605.580
20
1039.228
30
0.0
11
580.581
21
1039.228
31
0.0
0
LINE
5
2d19
8
0-0
6
CONTINUOUS
62
  7
10
580.581
20
1039.228
30
0.0
11
580.581
21
747.227
31
0.0
0
LINE
5
2d1a
8
0-0
6
CONTINUOUS
62
  7
10
580.581
20
747.227
30
0.0
11
556.581
21
744.705
31
0.0
0
LINE
5
2d1b
8
0-0
6
CONTINUOUS
62
  7
10
556.581
20
759.788
30
0.0
11
556.581
21
744.705
31
0.0
0
LINE
5
2d1c
8
0-0
6
CONTINUOUS
62
  7
10
564.581
20
765.656
30
0.0
11
556.581
21
759.788
31
0.0
0
LINE
5
2d1d
8
0-0
6
CONTINUOUS
62
  7
10
564.581
20
1047.228
30
0.0
11
564.581
21
765.656
31
0.0
0
LINE
5
2d1e
8
0-0
6
CONTINUOUS
62
  7
10
580.581
20
747.227
30
0.0
11
605.580
21
749.855
31
0.0
0
LINE
5
2d1f
8
0-0
6
CONTINUOUS
62
  7
10
605.580
20
1047.228
30
0.0
11
605.580
21
749.855
31
0.0
0
LINE
5
2d20
8
0-0
6
CONTINUOUS
62
  7
10
1395.662
20
1047.228
30
0.0
11
1395.662
21
747.228
31
0.0
0
LINE
5
2d21
8
0-0
6
CONTINUOUS
62
  7
10
1395.662
20
747.228
30
0.0
11
1485.662
21
740.228
31
0.0
0
LINE
5
2d22
8
0-0
6
CONTINUOUS
62
  7
10
1447.662
20
1047.228
30
0.0
11
1485.662
21
740.228
31
0.0
0
LINE
5
2d23
8
ADD_LINE
6
HIDDEN
62
  3
10
852.419
20
426.282
30
0.0
11
863.268
21
426.282
31
0.0
0
LINE
5
2d24
8
ADD_LINE
6
HIDDEN
62
  3
10
852.419
20
426.282
30
0.0
11
843.766
21
426.282
31
0.0
0
LINE
5
2d25
8
0-0
6
CONTINUOUS
62
  7
10
852.418
20
446.306
30
0.0
11
852.418
21
432.306
31
0.0
0
LINE
5
2d26
8
0-0
6
CONTINUOUS
62
  7
10
1115.848
20
439.645
30
0.0
11
1116.657
21
440.086
31
0.0
0
LINE
5
2d27
8
0-0
6
CONTINUOUS
62
  7
10
1116.657
20
440.086
30
0.0
11
1118.094
21
440.765
31
0.0
0
LINE
5
2d28
8
0-0
6
CONTINUOUS
62
  7
10
1118.094
20
440.765
30
0.0
11
1119.572
21
441.361
31
0.0
0
LINE
5
2d29
8
0-0
6
CONTINUOUS
62
  7
10
1119.572
20
441.361
30
0.0
11
1121.075
21
441.897
31
0.0
0
LINE
5
2d2a
8
0-0
6
CONTINUOUS
62
  7
10
1121.075
20
441.897
30
0.0
11
1121.954
21
442.189
31
0.0
0
LINE
5
2d2b
8
0-0
6
CONTINUOUS
62
  7
10
1121.954
20
442.189
30
0.0
11
1123.370
21
442.640
31
0.0
0
LINE
5
2d2c
8
0-0
6
CONTINUOUS
62
  7
10
1123.370
20
442.640
30
0.0
11
1125.819
21
443.371
31
0.0
0
LINE
5
2d2d
8
0-0
6
CONTINUOUS
62
  7
10
1125.819
20
443.371
30
0.0
11
1128.280
21
444.050
31
0.0
0
LINE
5
2d2e
8
0-0
6
CONTINUOUS
62
  7
10
1128.280
20
444.050
30
0.0
11
1130.753
21
444.687
31
0.0
0
LINE
5
2d2f
8
0-0
6
CONTINUOUS
62
  7
10
1130.753
20
444.687
30
0.0
11
1132.193
21
445.040
31
0.0
0
LINE
5
2d30
8
0-0
6
CONTINUOUS
62
  7
10
1132.193
20
445.040
30
0.0
11
1133.249
21
445.291
31
0.0
0
LINE
5
2d31
8
0-0
6
CONTINUOUS
62
  7
10
1133.249
20
445.291
30
0.0
11
1135.075
21
445.699
31
0.0
0
LINE
5
2d32
8
0-0
6
CONTINUOUS
62
  7
10
1135.075
20
445.699
30
0.0
11
1136.909
21
446.060
31
0.0
0
LINE
5
2d33
8
0-0
6
CONTINUOUS
62
  7
10
1136.909
20
446.060
30
0.0
11
1138.753
21
446.353
31
0.0
0
LINE
5
2d34
8
0-0
6
CONTINUOUS
62
  7
10
1138.753
20
446.353
30
0.0
11
1139.827
21
446.484
31
0.0
0
LINE
5
2d35
8
0-0
6
CONTINUOUS
62
  7
10
1139.827
20
446.484
30
0.0
11
1140.720
21
446.568
31
0.0
0
LINE
5
2d36
8
0-0
6
CONTINUOUS
62
  7
10
1140.720
20
446.568
30
0.0
11
1142.264
21
446.668
31
0.0
0
LINE
5
2d37
8
0-0
6
CONTINUOUS
62
  7
10
1142.264
20
446.668
30
0.0
11
1143.813
21
446.726
31
0.0
0
LINE
5
2d38
8
0-0
6
CONTINUOUS
62
  7
10
1143.813
20
446.726
30
0.0
11
1145.364
21
446.757
31
0.0
0
LINE
5
2d39
8
0-0
6
CONTINUOUS
62
  7
10
1145.364
20
446.757
30
0.0
11
1146.265
21
446.770
31
0.0
0
LINE
5
2d3a
8
0-0
6
CONTINUOUS
62
  7
10
1146.265
20
446.770
30
0.0
11
1150.280
21
446.560
31
0.0
0
LINE
5
2d3b
8
0-0
6
CONTINUOUS
62
  7
10
1150.280
20
446.560
30
0.0
11
1153.040
21
446.115
31
0.0
0
LINE
5
2d3c
8
0-0
6
CONTINUOUS
62
  7
10
1153.040
20
446.115
30
0.0
11
1154.701
21
445.726
31
0.0
0
LINE
5
2d3d
8
0-0
6
CONTINUOUS
62
  7
10
1154.701
20
445.726
30
0.0
11
1157.522
21
444.869
31
0.0
0
LINE
5
2d3e
8
0-0
6
CONTINUOUS
62
  7
10
1157.522
20
444.869
30
0.0
11
1160.305
21
443.818
31
0.0
0
LINE
5
2d3f
8
0-0
6
CONTINUOUS
62
  7
10
1160.305
20
443.818
30
0.0
11
1163.066
21
442.625
31
0.0
0
LINE
5
2d40
8
0-0
6
CONTINUOUS
62
  7
10
1163.066
20
442.625
30
0.0
11
1164.665
21
441.889
31
0.0
0
LINE
5
2d41
8
0-0
6
CONTINUOUS
62
  7
10
1164.665
20
441.889
30
0.0
11
1165.531
21
441.478
31
0.0
0
LINE
5
2d42
8
0-0
6
CONTINUOUS
62
  7
10
1165.531
20
441.478
30
0.0
11
1166.998
21
440.730
31
0.0
0
LINE
5
2d43
8
0-0
6
CONTINUOUS
62
  7
10
1166.998
20
440.730
30
0.0
11
1168.391
21
439.894
31
0.0
0
LINE
5
2d44
8
0-0
6
CONTINUOUS
62
  7
10
1168.391
20
439.894
30
0.0
11
1169.661
21
438.924
31
0.0
0
LINE
5
2d45
8
0-0
6
CONTINUOUS
62
  7
10
1169.661
20
438.924
30
0.0
11
1170.322
21
438.283
31
0.0
0
LINE
5
2d46
8
0-0
6
CONTINUOUS
62
  7
10
1170.322
20
438.283
30
0.0
11
1170.685
21
437.870
31
0.0
0
LINE
5
2d47
8
0-0
6
CONTINUOUS
62
  7
10
1170.685
20
437.870
30
0.0
11
1171.268
21
437.113
31
0.0
0
LINE
5
2d48
8
0-0
6
CONTINUOUS
62
  7
10
1171.268
20
437.113
30
0.0
11
1171.810
21
436.316
31
0.0
0
LINE
5
2d49
8
0-0
6
CONTINUOUS
62
  7
10
1171.810
20
436.316
30
0.0
11
1172.334
21
435.500
31
0.0
0
LINE
5
2d4a
8
0-0
6
CONTINUOUS
62
  7
10
1172.334
20
435.500
30
0.0
11
1172.637
21
435.026
31
0.0
0
LINE
5
2d4b
8
0-0
6
CONTINUOUS
62
  7
10
1172.637
20
435.026
30
0.0
11
1172.929
21
434.577
31
0.0
0
LINE
5
2d4c
8
0-0
6
CONTINUOUS
62
  7
10
1172.929
20
434.577
30
0.0
11
1173.434
21
433.807
31
0.0
0
LINE
5
2d4d
8
0-0
6
CONTINUOUS
62
  7
10
1173.434
20
433.807
30
0.0
11
1173.932
21
433.037
31
0.0
0
LINE
5
2d4e
8
0-0
6
CONTINUOUS
62
  7
10
1173.932
20
433.037
30
0.0
11
1174.410
21
432.257
31
0.0
0
LINE
5
2d4f
8
0-0
6
CONTINUOUS
62
  7
10
1174.410
20
432.257
30
0.0
11
1174.673
21
431.798
31
0.0
0
LINE
5
2d50
8
0-0
6
CONTINUOUS
62
  7
10
1174.673
20
431.798
30
0.0
11
1174.906
21
431.367
31
0.0
0
LINE
5
2d51
8
0-0
6
CONTINUOUS
62
  7
10
1174.906
20
431.367
30
0.0
11
1175.288
21
430.611
31
0.0
0
LINE
5
2d52
8
0-0
6
CONTINUOUS
62
  7
10
1175.288
20
430.611
30
0.0
11
1175.651
21
429.845
31
0.0
0
LINE
5
2d53
8
0-0
6
CONTINUOUS
62
  7
10
1175.651
20
429.845
30
0.0
11
1176.004
21
429.071
31
0.0
0
LINE
5
2d54
8
0-0
6
CONTINUOUS
62
  7
10
1176.004
20
429.071
30
0.0
11
1176.208
21
428.622
31
0.0
0
LINE
5
2d55
8
0-0
6
CONTINUOUS
62
  7
10
1176.208
20
428.622
30
0.0
11
1176.601
21
427.758
31
0.0
0
LINE
5
2d56
8
0-0
6
CONTINUOUS
62
  7
10
1176.601
20
427.758
30
0.0
11
1177.271
21
426.266
31
0.0
0
LINE
5
2d57
8
0-0
6
CONTINUOUS
62
  7
10
1177.271
20
426.266
30
0.0
11
1177.899
21
424.761
31
0.0
0
LINE
5
2d58
8
0-0
6
CONTINUOUS
62
  7
10
1177.899
20
424.761
30
0.0
11
1178.447
21
423.231
31
0.0
0
LINE
5
2d59
8
0-0
6
CONTINUOUS
62
  7
10
1178.447
20
423.231
30
0.0
11
1178.714
21
422.328
31
0.0
0
LINE
5
2d5a
8
0-0
6
CONTINUOUS
62
  7
10
1178.714
20
422.328
30
0.0
11
1178.824
21
421.902
31
0.0
0
LINE
5
2d5b
8
0-0
6
CONTINUOUS
62
  7
10
1178.824
20
421.902
30
0.0
11
1178.995
21
421.162
31
0.0
0
LINE
5
2d5c
8
0-0
6
CONTINUOUS
62
  7
10
1178.995
20
421.162
30
0.0
11
1179.153
21
420.418
31
0.0
0
LINE
5
2d5d
8
0-0
6
CONTINUOUS
62
  7
10
1179.153
20
420.418
30
0.0
11
1179.307
21
419.672
31
0.0
0
LINE
5
2d5e
8
0-0
6
CONTINUOUS
62
  7
10
1179.307
20
419.672
30
0.0
11
1179.398
21
419.241
31
0.0
0
LINE
5
2d5f
8
0-0
6
CONTINUOUS
62
  7
10
1179.398
20
419.241
30
0.0
11
1179.493
21
418.810
31
0.0
0
LINE
5
2d60
8
0-0
6
CONTINUOUS
62
  7
10
1179.493
20
418.810
30
0.0
11
1179.662
21
418.068
31
0.0
0
LINE
5
2d61
8
0-0
6
CONTINUOUS
62
  7
10
1179.662
20
418.068
30
0.0
11
1179.832
21
417.327
31
0.0
0
LINE
5
2d62
8
0-0
6
CONTINUOUS
62
  7
10
1179.832
20
417.327
30
0.0
11
1179.994
21
416.585
31
0.0
0
LINE
5
2d63
8
0-0
6
CONTINUOUS
62
  7
10
1179.994
20
416.585
30
0.0
11
1180.082
21
416.153
31
0.0
0
LINE
5
2d64
8
0-0
6
CONTINUOUS
62
  7
10
1180.082
20
416.153
30
0.0
11
1180.162
21
415.728
31
0.0
0
LINE
5
2d65
8
0-0
6
CONTINUOUS
62
  7
10
1180.162
20
415.728
30
0.0
11
1180.288
21
414.993
31
0.0
0
LINE
5
2d66
8
0-0
6
CONTINUOUS
62
  7
10
1180.288
20
414.993
30
0.0
11
1180.402
21
414.255
31
0.0
0
LINE
5
2d67
8
0-0
6
CONTINUOUS
62
  7
10
1180.402
20
414.255
30
0.0
11
1180.507
21
413.516
31
0.0
0
LINE
5
2d68
8
0-0
6
CONTINUOUS
62
  7
10
1180.507
20
413.516
30
0.0
11
1180.567
21
413.086
31
0.0
0
LINE
5
2d69
8
0-0
6
CONTINUOUS
62
  7
10
1180.567
20
413.086
30
0.0
11
1180.625
21
412.661
31
0.0
0
LINE
5
2d6a
8
0-0
6
CONTINUOUS
62
  7
10
1180.625
20
412.661
30
0.0
11
1180.723
21
411.926
31
0.0
0
LINE
5
2d6b
8
0-0
6
CONTINUOUS
62
  7
10
1180.723
20
411.926
30
0.0
11
1180.817
21
411.192
31
0.0
0
LINE
5
2d6c
8
0-0
6
CONTINUOUS
62
  7
10
1180.817
20
411.192
30
0.0
11
1180.905
21
410.457
31
0.0
0
LINE
5
2d6d
8
0-0
6
CONTINUOUS
62
  7
10
1180.905
20
410.457
30
0.0
11
1180.953
21
410.030
31
0.0
0
LINE
5
2d6e
8
0-0
6
CONTINUOUS
62
  7
10
1180.953
20
410.030
30
0.0
11
1181.078
21
408.762
31
0.0
0
LINE
5
2d6f
8
0-0
6
CONTINUOUS
62
  7
10
1181.078
20
408.762
30
0.0
11
1181.250
21
406.572
31
0.0
0
LINE
5
2d70
8
0-0
6
CONTINUOUS
62
  7
10
1181.250
20
406.572
30
0.0
11
1181.389
21
404.379
31
0.0
0
LINE
5
2d71
8
0-0
6
CONTINUOUS
62
  7
10
1181.389
20
404.379
30
0.0
11
1181.524
21
402.185
31
0.0
0
LINE
5
2d72
8
0-0
6
CONTINUOUS
62
  7
10
1181.524
20
402.185
30
0.0
11
1181.612
21
400.913
31
0.0
0
LINE
5
2d73
8
0-0
6
CONTINUOUS
62
  7
10
1181.612
20
400.913
30
0.0
11
1181.672
21
400.111
31
0.0
0
LINE
5
2d74
8
0-0
6
CONTINUOUS
62
  7
10
1181.672
20
400.111
30
0.0
11
1181.783
21
398.728
31
0.0
0
LINE
5
2d75
8
0-0
6
CONTINUOUS
62
  7
10
1181.783
20
398.728
30
0.0
11
1181.889
21
397.346
31
0.0
0
LINE
5
2d76
8
0-0
6
CONTINUOUS
62
  7
10
1181.889
20
397.346
30
0.0
11
1181.978
21
395.963
31
0.0
0
LINE
5
2d77
8
0-0
6
CONTINUOUS
62
  7
10
1181.978
20
395.963
30
0.0
11
1182.018
21
395.160
31
0.0
0
LINE
5
2d78
8
0-0
6
CONTINUOUS
62
  7
10
1182.018
20
395.160
30
0.0
11
1182.036
21
394.694
31
0.0
0
LINE
5
2d79
8
0-0
6
CONTINUOUS
62
  7
10
1182.036
20
394.694
30
0.0
11
1182.057
21
393.891
31
0.0
0
LINE
5
2d7a
8
0-0
6
CONTINUOUS
62
  7
10
1182.057
20
393.891
30
0.0
11
1182.070
21
393.087
31
0.0
0
LINE
5
2d7b
8
0-0
6
CONTINUOUS
62
  7
10
1182.070
20
393.087
30
0.0
11
1182.073
21
392.283
31
0.0
0
LINE
5
2d7c
8
0-0
6
CONTINUOUS
62
  7
10
1182.073
20
392.283
30
0.0
11
1182.072
21
391.816
31
0.0
0
LINE
5
2d7d
8
0-0
6
CONTINUOUS
62
  7
10
1182.072
20
391.816
30
0.0
11
1182.069
21
391.396
31
0.0
0
LINE
5
2d7e
8
0-0
6
CONTINUOUS
62
  7
10
1182.069
20
391.396
30
0.0
11
1182.062
21
390.672
31
0.0
0
LINE
5
2d7f
8
0-0
6
CONTINUOUS
62
  7
10
1182.062
20
390.672
30
0.0
11
1182.053
21
389.947
31
0.0
0
LINE
5
2d80
8
0-0
6
CONTINUOUS
62
  7
10
1182.053
20
389.947
30
0.0
11
1182.046
21
378.203
31
0.0
0
LINE
5
2d81
8
0-0
6
CONTINUOUS
62
  7
10
1182.046
20
378.203
30
0.0
11
1182.043
21
377.783
31
0.0
0
LINE
5
2d82
8
0-0
6
CONTINUOUS
62
  7
10
1182.043
20
377.783
30
0.0
11
1182.042
21
377.362
31
0.0
0
LINE
5
2d83
8
0-0
6
CONTINUOUS
62
  7
10
1182.042
20
377.362
30
0.0
11
1182.043
21
376.637
31
0.0
0
LINE
5
2d84
8
0-0
6
CONTINUOUS
62
  7
10
1182.043
20
376.637
30
0.0
11
1182.046
21
375.912
31
0.0
0
LINE
5
2d85
8
0-0
6
CONTINUOUS
62
  7
10
1182.046
20
375.912
30
0.0
11
1182.048
21
375.187
31
0.0
0
LINE
5
2d86
8
0-0
6
CONTINUOUS
62
  7
10
1182.048
20
375.187
30
0.0
11
1182.047
21
374.766
31
0.0
0
LINE
5
2d87
8
0-0
6
CONTINUOUS
62
  7
10
1182.047
20
374.766
30
0.0
11
1182.015
21
372.254
31
0.0
0
LINE
5
2d88
8
0-0
6
CONTINUOUS
62
  7
10
1182.015
20
372.254
30
0.0
11
1181.856
21
367.927
31
0.0
0
LINE
5
2d89
8
0-0
6
CONTINUOUS
62
  7
10
1181.856
20
367.927
30
0.0
11
1181.597
21
363.601
31
0.0
0
LINE
5
2d8a
8
0-0
6
CONTINUOUS
62
  7
10
1181.597
20
363.601
30
0.0
11
1181.276
21
359.277
31
0.0
0
LINE
5
2d8b
8
0-0
6
CONTINUOUS
62
  7
10
1181.276
20
359.277
30
0.0
11
1181.078
21
356.770
31
0.0
0
LINE
5
2d8c
8
0-0
6
CONTINUOUS
62
  7
10
1156.854
20
431.535
30
0.0
11
1157.105
21
431.410
31
0.0
0
LINE
5
2d8d
8
0-0
6
CONTINUOUS
62
  7
10
1157.105
20
431.410
30
0.0
11
1157.977
21
430.843
31
0.0
0
LINE
5
2d8e
8
0-0
6
CONTINUOUS
62
  7
10
1157.977
20
430.843
30
0.0
11
1158.449
21
430.471
31
0.0
0
LINE
5
2d8f
8
0-0
6
CONTINUOUS
62
  7
10
1158.449
20
430.471
30
0.0
11
1158.883
21
430.078
31
0.0
0
LINE
5
2d90
8
0-0
6
CONTINUOUS
62
  7
10
1158.883
20
430.078
30
0.0
11
1159.570
21
429.342
31
0.0
0
LINE
5
2d91
8
0-0
6
CONTINUOUS
62
  7
10
1159.570
20
429.342
30
0.0
11
1160.184
21
428.543
31
0.0
0
LINE
5
2d92
8
0-0
6
CONTINUOUS
62
  7
10
1160.184
20
428.543
30
0.0
11
1160.732
21
427.695
31
0.0
0
LINE
5
2d93
8
0-0
6
CONTINUOUS
62
  7
10
1160.732
20
427.695
30
0.0
11
1161.023
21
427.187
31
0.0
0
LINE
5
2d94
8
0-0
6
CONTINUOUS
62
  7
10
1161.023
20
427.187
30
0.0
11
1161.248
21
426.760
31
0.0
0
LINE
5
2d95
8
0-0
6
CONTINUOUS
62
  7
10
1161.248
20
426.760
30
0.0
11
1161.608
21
426.012
31
0.0
0
LINE
5
2d96
8
0-0
6
CONTINUOUS
62
  7
10
1161.608
20
426.012
30
0.0
11
1161.937
21
425.251
31
0.0
0
LINE
5
2d97
8
0-0
6
CONTINUOUS
62
  7
10
1161.937
20
425.251
30
0.0
11
1162.239
21
424.479
31
0.0
0
LINE
5
2d98
8
0-0
6
CONTINUOUS
62
  7
10
1162.239
20
424.479
30
0.0
11
1162.402
21
424.027
31
0.0
0
LINE
5
2d99
8
0-0
6
CONTINUOUS
62
  7
10
1162.402
20
424.027
30
0.0
11
1162.552
21
423.596
31
0.0
0
LINE
5
2d9a
8
0-0
6
CONTINUOUS
62
  7
10
1162.552
20
423.596
30
0.0
11
1162.797
21
422.850
31
0.0
0
LINE
5
2d9b
8
0-0
6
CONTINUOUS
62
  7
10
1162.797
20
422.850
30
0.0
11
1163.030
21
422.100
31
0.0
0
LINE
5
2d9c
8
0-0
6
CONTINUOUS
62
  7
10
1163.030
20
422.100
30
0.0
11
1163.256
21
421.346
31
0.0
0
LINE
5
2d9d
8
0-0
6
CONTINUOUS
62
  7
10
1163.256
20
421.346
30
0.0
11
1163.385
21
420.908
31
0.0
0
LINE
5
2d9e
8
0-0
6
CONTINUOUS
62
  7
10
1163.385
20
420.908
30
0.0
11
1163.511
21
420.480
31
0.0
0
LINE
5
2d9f
8
0-0
6
CONTINUOUS
62
  7
10
1163.511
20
420.480
30
0.0
11
1163.722
21
419.740
31
0.0
0
LINE
5
2da0
8
0-0
6
CONTINUOUS
62
  7
10
1163.722
20
419.740
30
0.0
11
1163.917
21
418.996
31
0.0
0
LINE
5
2da1
8
0-0
6
CONTINUOUS
62
  7
10
1163.917
20
418.996
30
0.0
11
1164.086
21
418.248
31
0.0
0
LINE
5
2da2
8
0-0
6
CONTINUOUS
62
  7
10
1164.086
20
418.248
30
0.0
11
1164.168
21
417.810
31
0.0
0
LINE
5
2da3
8
0-0
6
CONTINUOUS
62
  7
10
1164.168
20
417.810
30
0.0
11
1164.235
21
417.387
31
0.0
0
LINE
5
2da4
8
0-0
6
CONTINUOUS
62
  7
10
1164.235
20
417.387
30
0.0
11
1164.328
21
416.653
31
0.0
0
LINE
5
2da5
8
0-0
6
CONTINUOUS
62
  7
10
1164.328
20
416.653
30
0.0
11
1164.410
21
415.916
31
0.0
0
LINE
5
2da6
8
0-0
6
CONTINUOUS
62
  7
10
1164.410
20
415.916
30
0.0
11
1164.495
21
415.180
31
0.0
0
LINE
5
2da7
8
0-0
6
CONTINUOUS
62
  7
10
1164.495
20
415.180
30
0.0
11
1164.554
21
414.754
31
0.0
0
LINE
5
2da8
8
0-0
6
CONTINUOUS
62
  7
10
1164.554
20
414.754
30
0.0
11
1164.622
21
414.324
31
0.0
0
LINE
5
2da9
8
0-0
6
CONTINUOUS
62
  7
10
1164.622
20
414.324
30
0.0
11
1164.758
21
413.585
31
0.0
0
LINE
5
2daa
8
0-0
6
CONTINUOUS
62
  7
10
1164.758
20
413.585
30
0.0
11
1164.903
21
412.847
31
0.0
0
LINE
5
2dab
8
0-0
6
CONTINUOUS
62
  7
10
1164.903
20
412.847
30
0.0
11
1165.043
21
412.109
31
0.0
0
LINE
5
2dac
8
0-0
6
CONTINUOUS
62
  7
10
1165.043
20
412.109
30
0.0
11
1165.116
21
411.679
31
0.0
0
LINE
5
2dad
8
0-0
6
CONTINUOUS
62
  7
10
1165.116
20
411.679
30
0.0
11
1165.179
21
411.256
31
0.0
0
LINE
5
2dae
8
0-0
6
CONTINUOUS
62
  7
10
1165.179
20
411.256
30
0.0
11
1165.271
21
410.524
31
0.0
0
LINE
5
2daf
8
0-0
6
CONTINUOUS
62
  7
10
1165.271
20
410.524
30
0.0
11
1165.348
21
409.790
31
0.0
0
LINE
5
2db0
8
0-0
6
CONTINUOUS
62
  7
10
1165.348
20
409.790
30
0.0
11
1165.417
21
409.055
31
0.0
0
LINE
5
2db1
8
0-0
6
CONTINUOUS
62
  7
10
1165.417
20
409.055
30
0.0
11
1165.456
21
408.628
31
0.0
0
LINE
5
2db2
8
0-0
6
CONTINUOUS
62
  7
10
1165.456
20
408.628
30
0.0
11
1165.577
21
407.353
31
0.0
0
LINE
5
2db3
8
0-0
6
CONTINUOUS
62
  7
10
1165.577
20
407.353
30
0.0
11
1165.797
21
405.156
31
0.0
0
LINE
5
2db4
8
0-0
6
CONTINUOUS
62
  7
10
1165.797
20
405.156
30
0.0
11
1166.010
21
402.961
31
0.0
0
LINE
5
2db5
8
0-0
6
CONTINUOUS
62
  7
10
1166.010
20
402.961
30
0.0
11
1166.196
21
400.766
31
0.0
0
LINE
5
2db6
8
0-0
6
CONTINUOUS
62
  7
10
1166.196
20
400.766
30
0.0
11
1166.282
21
399.493
31
0.0
0
LINE
5
2db7
8
0-0
6
CONTINUOUS
62
  7
10
1166.282
20
399.493
30
0.0
11
1166.423
21
395.324
31
0.0
0
LINE
5
2db8
8
0-0
6
CONTINUOUS
62
  7
10
1166.423
20
395.324
30
0.0
11
1166.224
21
377.111
31
0.0
0
LINE
5
2db9
8
0-0
6
CONTINUOUS
62
  7
10
1166.224
20
377.111
30
0.0
11
1165.605
21
369.912
31
0.0
0
LINE
5
2dba
8
0-0
6
CONTINUOUS
62
  7
10
1165.605
20
369.912
30
0.0
11
1164.730
21
362.709
31
0.0
0
LINE
5
2dbb
8
0-0
6
CONTINUOUS
62
  7
10
1164.730
20
362.709
30
0.0
11
1164.169
21
358.531
31
0.0
0
LINE
5
2dbc
8
0-0
6
CONTINUOUS
62
  7
10
852.418
20
426.282
30
0.0
11
878.439
21
439.761
31
0.0
0
LINE
5
2dbd
8
0-0
6
CONTINUOUS
62
  7
10
880.777
20
462.431
30
0.0
11
852.418
21
446.306
31
0.0
0
LINE
5
2dbe
8
0-0
6
CONTINUOUS
62
  7
10
852.418
20
446.306
30
0.0
11
852.418
21
426.282
31
0.0
0
LINE
5
2dbf
8
0-0
6
CONTINUOUS
62
  7
10
852.418
20
1272.701
30
0.0
11
1142.418
21
1272.701
31
0.0
0
LINE
5
2dc0
8
0-0
6
CONTINUOUS
62
  7
10
852.418
20
1095.876
30
0.0
11
852.418
21
1272.701
31
0.0
0
LINE
5
2dc1
8
0-0
6
CONTINUOUS
62
  7
10
1142.418
20
1095.876
30
0.0
11
1142.418
21
1272.701
31
0.0
0
LINE
5
2dc2
8
0-0
6
CONTINUOUS
62
  7
10
852.418
20
1215.126
30
0.0
11
902.418
21
1215.126
31
0.0
0
LINE
5
2dc3
8
0-0
6
CONTINUOUS
62
  7
10
852.418
20
1095.876
30
0.0
11
852.418
21
1215.126
31
0.0
0
LINE
5
2dc4
8
0-0
6
CONTINUOUS
62
  7
10
902.418
20
1095.876
30
0.0
11
902.418
21
1215.126
31
0.0
0
LINE
5
2dc5
8
0-0
6
CONTINUOUS
62
  7
10
902.418
20
1215.126
30
0.0
11
1142.419
21
1215.126
31
0.0
0
LINE
5
2dc6
8
0-0
6
CONTINUOUS
62
  7
10
1142.419
20
1095.876
30
0.0
11
1142.419
21
1215.126
31
0.0
0
LINE
5
2dc7
8
0-0
6
CONTINUOUS
62
  7
10
556.581
20
598.910
30
0.0
11
580.581
21
598.910
31
0.0
0
LINE
5
2dc8
8
0-0
6
CONTINUOUS
62
  7
10
556.581
20
692.153
30
0.0
11
556.581
21
598.910
31
0.0
0
LINE
5
2dc9
8
0-0
6
CONTINUOUS
62
  7
10
580.581
20
692.153
30
0.0
11
580.581
21
598.910
31
0.0
0
LINE
5
2dca
8
0-0
6
CONTINUOUS
62
  7
10
852.418
20
598.910
30
0.0
11
1182.042
21
598.910
31
0.0
0
LINE
5
2dcb
8
0-0
6
CONTINUOUS
62
  7
10
852.418
20
692.153
30
0.0
11
852.418
21
598.910
31
0.0
0
LINE
5
2dcc
8
0-0
6
CONTINUOUS
62
  7
10
1182.042
20
692.153
30
0.0
11
1182.042
21
598.910
31
0.0
0
LINE
5
2dcd
8
0-0
6
CONTINUOUS
62
  7
10
1395.662
20
598.910
30
0.0
11
1485.662
21
598.910
31
0.0
0
LINE
5
2dce
8
0-0
6
CONTINUOUS
62
  7
10
1395.662
20
692.153
30
0.0
11
1395.662
21
598.910
31
0.0
0
LINE
5
2dcf
8
0-0
6
CONTINUOUS
62
  7
10
1485.662
20
692.153
30
0.0
11
1485.662
21
598.910
31
0.0
0
LINE
5
2dd0
8
0-0
6
CONTINUOUS
62
  7
10
719.138
20
1047.228
30
0.0
11
719.138
21
747.227
31
0.0
0
LINE
5
2dd1
8
0-0
6
CONTINUOUS
62
  7
10
804.273
20
1047.228
30
0.0
11
719.138
21
1047.228
31
0.0
0
LINE
5
2dd2
8
0-0
6
CONTINUOUS
62
  7
10
804.273
20
747.227
30
0.0
11
719.138
21
747.227
31
0.0
0
LINE
5
2dd3
8
0-0
6
CONTINUOUS
62
  7
10
1290.760
20
446.770
30
0.0
11
1290.760
21
356.770
31
0.0
0
LINE
5
2dd4
8
0-0
6
CONTINUOUS
62
  7
10
1217.786
20
446.770
30
0.0
11
1290.760
21
446.770
31
0.0
0
LINE
5
2dd5
8
0-0
6
CONTINUOUS
62
  7
10
1217.786
20
356.770
30
0.0
11
1290.760
21
356.770
31
0.0
0
LINE
5
2dd6
8
0-0
6
CONTINUOUS
62
  7
10
1164.169
20
358.531
30
0.0
11
1181.078
21
356.770
31
0.0
0
LINE
5
2dd7
8
ADD_LINE
6
HIDDEN
62
  3
10
1023.810
20
396.207
30
0.0
11
1056.933
21
396.207
31
0.0
0
LINE
5
2dd8
8
ADD_LINE
6
HIDDEN
62
  3
10
1023.810
20
396.207
30
0.0
11
960.080
21
396.207
31
0.0
0
LINE
5
2dd9
8
ADD_LINE
6
HIDDEN
62
  3
10
1015.881
20
408.350
30
0.0
11
1011.990
21
383.524
31
0.0
0
LINE
5
2dda
8
ADD_LINE
6
HIDDEN
62
  3
10
852.419
20
426.282
30
0.0
11
852.419
21
419.665
31
0.0
0
CIRCLE
5
2ddb
8
0-0
6
CONTINUOUS
62
  7
10
972.418
20
1027.228
30
0.0
40
3.000
0
CIRCLE
5
2ddc
8
0-0
6
CONTINUOUS
62
  7
10
1062.418
20
1027.228
30
0.0
40
3.000
0
CIRCLE
5
2ddd
8
ADD_LINE
6
HIDDEN
62
  3
10
852.419
20
426.282
30
0.0
40
3.000
0
ARC
5
2dde
8
0-0
6
CONTINUOUS
62
  7
10
889.976
20
450.189
30
0.0
40
15.314
50
42.690552
51
126.920761
0
ARC
5
2ddf
8
0-0
6
CONTINUOUS
62
  7
10
1051.911
20
689.013
30
0.0
40
273.659
50
236.591248
51
250.298019
0
ARC
5
2de0
8
0-0
6
CONTINUOUS
62
  7
10
1151.686
20
419.959
30
0.0
40
12.692
50
65.938141
51
99.479996
0
ARC
5
2de1
8
0-0
6
CONTINUOUS
62
  7
10
891.818
20
411.908
30
0.0
40
30.899
50
58.621384
51
115.655777
0
ARC
5
2de2
8
0-0
6
CONTINUOUS
62
  7
10
1417.706
20
-323.386
30
0.0
40
802.748
50
109.853653
51
114.089432
0
ARC
5
2de3
8
0-0
6
CONTINUOUS
62
  7
10
1168.930
20
314.393
30
0.0
40
119.658
50
99.298904
51
101.498703
0
ARC
5
2de4
8
0-0
6
CONTINUOUS
62
  7
10
1022.497
20
572.405
30
0.0
40
176.403
50
229.489182
51
292.518005
0
ARC
5
2de5
8
0-0
6
CONTINUOUS
62
  7
10
1029.516
20
591.004
30
0.0
40
174.249
50
246.362900
51
299.699036
0
CIRCLE
5
2de6
8
ADD_LINE
6
HIDDEN
62
  3
10
1013.978
20
396.207
30
0.0
40
3.000
0
TEXT
5
2de7
100
AcDbEntity
8
0-0
62
7
100
AcDbText
10
1415.412
20
1272.701
30
0.0
40
9.750
41
0.800
50
0.000
1
52
100
AcDbText
0
TEXT
5
2de8
100
AcDbEntity
8
0-0
62
7
100
AcDbText
10
566.331
20
1272.701
30
0.0
40
9.750
41
0.800
50
0.001
1
16
100
AcDbText
0
TEXT
5
2de9
100
AcDbEntity
8
0-0
62
7
100
AcDbText
10
988.043
20
1275.201
30
0.0
40
9.750
41
0.800
50
0.000
1
290
100
AcDbText
0
TEXT
5
2dea
100
AcDbEntity
8
0-0
62
7
100
AcDbText
10
871.168
20
1217.626
30
0.0
40
9.750
41
0.800
50
359.999
1
50
100
AcDbText
0
TEXT
5
2deb
100
AcDbEntity
8
0-0
62
7
100
AcDbText
10
1013.044
20
1217.626
30
0.0
40
9.750
41
0.800
50
0.000
1
240
100
AcDbText
0
TEXT
5
2dec
100
AcDbEntity
8
0-0
62
7
100
AcDbText
10
562.331
20
601.410
30
0.0
40
9.750
41
0.800
50
0.000
1
24
100
AcDbText
0
TEXT
5
2ded
100
AcDbEntity
8
0-0
62
7
100
AcDbText
10
1007.855
20
601.410
30
0.0
40
9.750
41
0.800
50
0.000
1
330
100
AcDbText
0
TEXT
5
2dee
100
AcDbEntity
8
0-0
62
7
100
AcDbText
10
1434.412
20
601.410
30
0.0
40
9.750
41
0.800
50
0.000
1
90
100
AcDbText
0
TEXT
5
2def
100
AcDbEntity
8
0-0
62
7
100
AcDbText
10
716.638
20
887.853
30
0.0
40
9.750
41
0.800
50
90.000
1
300
100
AcDbText
0
TEXT
5
2df0
100
AcDbEntity
8
0-0
62
7
100
AcDbText
10
1288.260
20
395.520
30
0.0
40
9.750
41
0.800
50
90.000
1
90
100
AcDbText
0
POINT
5
2df1
8
0-0
62
  7
10
1447.662
20
1270.201
30
0.0
0
POINT
5
2df2
8
0-0
62
  7
10
1395.662
20
1270.201
30
0.0
0
POINT
5
2df3
8
0-0
62
  7
10
580.581
20
1270.201
30
0.0
0
POINT
5
2df4
8
0-0
62
  7
10
564.581
20
1270.201
30
0.0
0
POINT
5
2df5
8
0-0
62
  7
10
852.418
20
1272.701
30
0.0
0
POINT
5
2df6
8
0-0
62
  7
10
1142.418
20
1272.701
30
0.0
0
POINT
5
2df7
8
0-0
62
  7
10
852.418
20
1215.126
30
0.0
0
POINT
5
2df8
8
0-0
62
  7
10
902.418
20
1215.126
30
0.0
0
POINT
5
2df9
8
0-0
62
  7
10
1142.419
20
1215.126
30
0.0
0
POINT
5
2dfa
8
0-0
62
  7
10
556.581
20
598.910
30
0.0
0
POINT
5
2dfb
8
0-0
62
  7
10
580.581
20
598.910
30
0.0
0
POINT
5
2dfc
8
0-0
62
  7
10
852.418
20
598.910
30
0.0
0
POINT
5
2dfd
8
0-0
62
  7
10
1182.042
20
598.910
30
0.0
0
POINT
5
2dfe
8
0-0
62
  7
10
1395.662
20
598.910
30
0.0
0
POINT
5
2dff
8
0-0
62
  7
10
1485.662
20
598.910
30
0.0
0
POINT
5
2e00
8
0-0
62
  7
10
719.138
20
1047.228
30
0.0
0
POINT
5
2e01
8
0-0
62
  7
10
719.138
20
747.227
30
0.0
0
POINT
5
2e02
8
0-0
62
  7
10
1290.760
20
446.770
30
0.0
0
POINT
5
2e03
8
0-0
62
  7
10
1290.760
20
356.770
30
0.0
0
ENDSEC
0
EOF
