0
SECTION
2
HEADER
  9
$EXTMIN
10
0
20
0
30
0
  9
$EXTMAX
10
1523.067
20
1373.159
30
0
  9
$LTSCALE
40
5.000
  9
$DIMSCALE
40
5.000
  9
$PDMODE
70
0
  9
$PDSIZE
40
40
0
ENDSEC
0
SECTION
2
TABLES
0
TABLE
2
LTYPE
70
9
0
LTYPE
5
1f4
2
CONTINUOUS
70
0
3
実線
72
65
73
0
40
0.0
0
LTYPE
5
1f5
2
DOT
70
0
3
--  --  --  --  --  --  --  --     
72
65
73
2
40
5.000
49
1.000
49
-4.000
0
LTYPE
5
1f6
2
DASHED
70
0
3
----    ----    ----    ----    
72
65
73
2
40
5.000
49
2.000
49
-3.000
0
LTYPE
5
1f7
2
DASHED2
70
0
3
------  ------  ------  ------ 
72
65
73
2
40
10.000
49
4.000
49
-6.000
0
LTYPE
5
1f8
2
CENTER
70
0
3
----- - ----- - ----- - ----- - 
72
65
73
4
40
9.000
49
6.000
49
-1.000
49
1.000
49
-1.000
0
LTYPE
5
1f9
2
CENTER2
70
0
3
----------  --  ----------  -- 
72
65
73
4
40
18.000
49
12.000
49
-2.000
49
2.000
49
-2.000
0
LTYPE
5
1fa
2
PHANTOM
70
0
3
--- - - --- - - --- - - --- - -
72
65
73
6
40
10.000
49
5.000
49
-1.000
49
1.000
49
-1.000
49
1.000
49
-1.000
0
LTYPE
5
1fb
2
PHANTOM2
70
0
3
--------  -  -  --------  -  -
72
65
73
6
40
16.000
49
6.000
49
-2.000
49
2.000
49
-2.000
49
2.000
49
-2.000
0
LTYPE
5
1fc
2
HIDDEN
70
0
3
-   -   -   -   -   -   -   -   
72
65
73
2
40
2.500
49
0.500
49
-2.000
0
ENDTAB
0
TABLE
2
STYLE
70
1
0
STYLE
5
1fd
100
AcDbSymbolTableRecord
100
AcDbTextStyleTableRecord
2
STANDARD
70
0
40
0.0
41
1.0
50
0.0
71
0
42
0.0
3
txt.shx
4
extfont.shx
0
STYLE
5
1fe
100
AcDbSymbolTableRecord
100
AcDbTextStyleTableRecord
2
TATEGAKI
70
4
40
0.0
41
1.0
50
0.0
71
0
42
0.0
3
txt.shx
4
extfont.shx
0
STYLE
5
1ff
100
AcDbSymbolTableRecord
100
AcDbTextStyleTableRecord
2
MT
70
0
40
0.0
41
1.0
50
0.0
71
0
42
0.0
3
MS Mincho
4

0
STYLE
5
200
100
AcDbSymbolTableRecord
100
AcDbTextStyleTableRecord
2
TMT
70
4
40
0.0
41
1.0
50
0.0
71
0
42
0.0
3
@MS Mincho
4

0
ENDTAB
0
TABLE
2
LAYER
5
575
100
AcDbSymbolTable
70
10
0
LAYER
5
576
100
AcDbSymbolTableRecord
100
AcDbLayerTableRecord
2
0
70
64
62
  7
  6
CONTINUOUS
0
LAYER
5
577
100
AcDbSymbolTableRecord
100
AcDbLayerTableRecord
2
0-0
70
64
62
  7
  6
CONTINUOUS
0
LAYER
5
578
100
AcDbSymbolTableRecord
100
AcDbLayerTableRecord
2
ADD_LINE
70
64
62
  -7
  6
CONTINUOUS
0
ENDTAB
0
ENDSEC
0
SECTION
2
ENTITIES
0
LINE
5
579
8
ADD_LINE
6
HIDDEN
62
  3
10
1021.622
20
465.531
30
0.0
11
1021.622
21
456.784
31
0.0
0
LINE
5
57a
8
ADD_LINE
6
HIDDEN
62
  3
10
1021.622
20
462.162
30
0.0
11
1139.418
21
462.162
31
0.0
0
LINE
5
57b
8
0-0
6
CONTINUOUS
62
  7
10
834.418
20
633.627
30
0.0
11
1139.418
21
633.627
31
0.0
0
LINE
5
57c
8
0-0
6
CONTINUOUS
62
  7
10
834.418
20
561.625
30
0.0
11
834.418
21
633.627
31
0.0
0
LINE
5
57d
8
0-0
6
CONTINUOUS
62
  7
10
1139.418
20
561.625
30
0.0
11
1139.418
21
633.627
31
0.0
0
LINE
5
57e
8
ADD_LINE
6
HIDDEN
62
  7
10
1099.418
20
561.625
30
0.0
11
1099.418
21
633.627
31
0.0
0
LINE
5
57f
8
0-0
6
CONTINUOUS
62
  7
10
834.418
20
597.626
30
0.0
11
1099.418
21
597.626
31
0.0
0
LINE
5
580
8
0-0
6
CONTINUOUS
62
  7
10
834.418
20
561.625
30
0.0
11
834.418
21
597.626
31
0.0
0
LINE
5
581
8
0-0
6
CONTINUOUS
62
  7
10
1099.418
20
561.625
30
0.0
11
1099.418
21
597.626
31
0.0
0
LINE
5
582
8
0-0
6
CONTINUOUS
62
  7
10
879.418
20
1210.993
30
0.0
11
1139.418
21
1210.993
31
0.0
0
LINE
5
583
8
0-0
6
CONTINUOUS
62
  7
10
879.418
20
1170.993
30
0.0
11
879.418
21
1210.993
31
0.0
0
LINE
5
584
8
0-0
6
CONTINUOUS
62
  7
10
834.418
20
1170.993
30
0.0
11
879.418
21
1170.993
31
0.0
0
LINE
5
585
8
0-0
6
CONTINUOUS
62
  7
10
834.418
20
905.993
30
0.0
11
834.418
21
1170.993
31
0.0
0
LINE
5
586
8
0-0
6
CONTINUOUS
62
  7
10
1099.418
20
935.993
30
0.0
11
1139.418
21
935.993
31
0.0
0
LINE
5
587
8
0-0
6
CONTINUOUS
62
  7
10
1139.418
20
935.993
30
0.0
11
1139.418
21
1210.993
31
0.0
0
LINE
5
588
8
0-0
6
CONTINUOUS
62
  7
10
834.418
20
905.993
30
0.0
11
1099.418
21
905.993
31
0.0
0
LINE
5
589
8
0-0
6
CONTINUOUS
62
  7
10
1099.418
20
905.993
30
0.0
11
1099.418
21
935.993
31
0.0
0
LINE
5
58a
8
0-0
6
CONTINUOUS
62
  7
10
904.418
20
1202.993
30
0.0
11
904.418
21
1210.993
31
0.0
0
LINE
5
58b
8
0-0
6
CONTINUOUS
62
  7
10
904.418
20
1202.993
30
0.0
11
1131.418
21
1202.993
31
0.0
0
LINE
5
58c
8
0-0
6
CONTINUOUS
62
  7
10
1131.418
20
935.993
30
0.0
11
1131.418
21
1202.993
31
0.0
0
LINE
5
58d
8
0-0
6
CONTINUOUS
62
  7
10
1405.526
20
1210.993
30
0.0
11
1405.526
21
1202.993
31
0.0
0
LINE
5
58e
8
0-0
6
CONTINUOUS
62
  7
10
1395.526
20
1202.993
30
0.0
11
1395.526
21
905.993
31
0.0
0
LINE
5
58f
8
0-0
6
CONTINUOUS
62
  7
10
1375.526
20
1210.993
30
0.0
11
1375.526
21
1202.993
31
0.0
0
LINE
5
590
8
0-0
6
CONTINUOUS
62
  7
10
1395.526
20
1202.993
30
0.0
11
1405.526
21
1202.993
31
0.0
0
LINE
5
591
8
0-0
6
CONTINUOUS
62
  7
10
1332.526
20
1170.993
30
0.0
11
1338.526
21
1170.993
31
0.0
0
LINE
5
592
8
0-0
6
CONTINUOUS
62
  7
10
1338.526
20
1210.993
30
0.0
11
1338.526
21
1170.993
31
0.0
0
LINE
5
593
8
0-0
6
CONTINUOUS
62
  7
10
1338.526
20
1210.993
30
0.0
11
1405.526
21
1210.993
31
0.0
0
LINE
5
594
8
0-0
6
CONTINUOUS
62
  7
10
1338.526
20
1202.993
30
0.0
11
1381.526
21
1202.993
31
0.0
0
LINE
5
595
8
0-0
6
CONTINUOUS
62
  7
10
699.287
20
905.993
30
0.0
11
699.287
21
1210.993
31
0.0
0
LINE
5
596
8
0-0
6
CONTINUOUS
62
  7
10
785.157
20
905.993
30
0.0
11
699.287
21
905.993
31
0.0
0
LINE
5
597
8
0-0
6
CONTINUOUS
62
  7
10
785.157
20
1210.993
30
0.0
11
699.287
21
1210.993
31
0.0
0
LINE
5
598
8
0-0
6
CONTINUOUS
62
  7
10
732.680
20
905.993
30
0.0
11
732.680
21
1170.993
31
0.0
0
LINE
5
599
8
0-0
6
CONTINUOUS
62
  7
10
785.157
20
905.993
30
0.0
11
732.680
21
905.993
31
0.0
0
LINE
5
59a
8
0-0
6
CONTINUOUS
62
  7
10
785.157
20
1170.993
30
0.0
11
732.680
21
1170.993
31
0.0
0
LINE
5
59b
8
0-0
6
CONTINUOUS
62
  7
10
732.680
20
1170.993
30
0.0
11
732.680
21
1210.994
31
0.0
0
LINE
5
59c
8
0-0
6
CONTINUOUS
62
  7
10
785.157
20
1210.994
30
0.0
11
732.680
21
1210.994
31
0.0
0
LINE
5
59d
8
0-0
6
CONTINUOUS
62
  7
10
834.418
20
735.345
30
0.0
11
1139.418
21
735.345
31
0.0
0
LINE
5
59e
8
0-0
6
CONTINUOUS
62
  7
10
834.418
20
797.362
30
0.0
11
834.418
21
735.345
31
0.0
0
LINE
5
59f
8
0-0
6
CONTINUOUS
62
  7
10
1139.418
20
797.362
30
0.0
11
1139.418
21
735.345
31
0.0
0
LINE
5
5a0
8
0-0
6
CONTINUOUS
62
  7
10
834.418
20
766.353
30
0.0
11
1099.418
21
766.353
31
0.0
0
LINE
5
5a1
8
0-0
6
CONTINUOUS
62
  7
10
834.418
20
797.362
30
0.0
11
834.418
21
766.353
31
0.0
0
LINE
5
5a2
8
0-0
6
CONTINUOUS
62
  7
10
1099.418
20
797.362
30
0.0
11
1099.418
21
766.353
31
0.0
0
LINE
5
5a3
8
0-0
6
CONTINUOUS
62
  7
10
1099.418
20
766.353
30
0.0
11
1139.418
21
766.353
31
0.0
0
LINE
5
5a4
8
0-0
6
CONTINUOUS
62
  7
10
1139.418
20
797.362
30
0.0
11
1139.418
21
766.353
31
0.0
0
LINE
5
5a5
8
0-0
6
CONTINUOUS
62
  7
10
1523.067
20
905.993
30
0.0
11
1523.067
21
1210.993
31
0.0
0
LINE
5
5a6
8
0-0
6
CONTINUOUS
62
  7
10
1458.202
20
905.993
30
0.0
11
1523.067
21
905.993
31
0.0
0
LINE
5
5a7
8
0-0
6
CONTINUOUS
62
  7
10
1458.202
20
1210.993
30
0.0
11
1523.067
21
1210.993
31
0.0
0
LINE
5
5a8
8
0-0
6
CONTINUOUS
62
  7
10
834.418
20
1370.659
30
0.0
11
1139.418
21
1370.659
31
0.0
0
LINE
5
5a9
8
0-0
6
CONTINUOUS
62
  7
10
834.418
20
1245.375
30
0.0
11
834.418
21
1370.659
31
0.0
0
LINE
5
5aa
8
0-0
6
CONTINUOUS
62
  7
10
1139.418
20
1245.375
30
0.0
11
1139.418
21
1370.659
31
0.0
0
LINE
5
5ab
8
0-0
6
CONTINUOUS
62
  7
10
1139.418
20
1319.819
30
0.0
11
879.418
21
1319.819
31
0.0
0
LINE
5
5ac
8
0-0
6
CONTINUOUS
62
  7
10
1139.418
20
1245.375
30
0.0
11
1139.418
21
1319.819
31
0.0
0
LINE
5
5ad
8
0-0
6
CONTINUOUS
62
  7
10
879.418
20
1245.375
30
0.0
11
879.418
21
1319.819
31
0.0
0
LINE
5
5ae
8
0-0
6
CONTINUOUS
62
  7
10
879.418
20
1319.819
30
0.0
11
834.418
21
1319.819
31
0.0
0
LINE
5
5af
8
0-0
6
CONTINUOUS
62
  7
10
834.418
20
1245.375
30
0.0
11
834.418
21
1319.819
31
0.0
0
LINE
5
5b0
8
0-0
6
CONTINUOUS
62
  7
10
1236.732
20
905.993
30
0.0
11
1236.732
21
935.993
31
0.0
0
LINE
5
5b1
8
0-0
6
CONTINUOUS
62
  7
10
1182.260
20
905.993
30
0.0
11
1236.732
21
905.993
31
0.0
0
LINE
5
5b2
8
0-0
6
CONTINUOUS
62
  7
10
1182.260
20
935.993
30
0.0
11
1236.732
21
935.993
31
0.0
0
LINE
5
5b3
8
0-0
6
CONTINUOUS
62
  7
10
1236.732
20
935.993
30
0.0
11
1236.732
21
1210.993
31
0.0
0
LINE
5
5b4
8
0-0
6
CONTINUOUS
62
  7
10
1182.260
20
1210.993
30
0.0
11
1236.732
21
1210.993
31
0.0
0
LINE
5
5b5
8
0-0
6
CONTINUOUS
62
  7
10
899.418
20
925.993
30
0.0
11
1064.418
21
925.993
31
0.0
0
LINE
5
5b6
8
0-0
6
CONTINUOUS
62
  7
10
1064.418
20
925.993
30
0.0
11
1064.418
21
970.994
31
0.0
0
LINE
5
5b7
8
0-0
6
CONTINUOUS
62
  7
10
899.418
20
970.994
30
0.0
11
1064.418
21
970.994
31
0.0
0
LINE
5
5b8
8
0-0
6
CONTINUOUS
62
  7
10
899.418
20
925.993
30
0.0
11
899.418
21
970.994
31
0.0
0
LINE
5
5b9
8
0-0
6
CONTINUOUS
62
  7
10
1389.526
20
905.993
30
0.0
11
1395.526
21
905.993
31
0.0
0
LINE
5
5ba
8
0-0
6
CONTINUOUS
62
  7
10
1381.526
20
913.993
30
0.0
11
1381.526
21
1202.993
31
0.0
0
LINE
5
5bb
8
0-0
6
CONTINUOUS
62
  7
10
1340.526
20
905.993
30
0.0
11
1389.526
21
905.993
31
0.0
0
LINE
5
5bc
8
0-0
6
CONTINUOUS
62
  7
10
1330.526
20
970.994
30
0.0
11
1330.526
21
925.993
31
0.0
0
LINE
5
5bd
8
0-0
6
CONTINUOUS
62
  7
10
1344.526
20
970.994
30
0.0
11
1344.526
21
925.993
31
0.0
0
LINE
5
5be
8
0-0
6
CONTINUOUS
62
  7
10
1332.526
20
913.993
30
0.0
11
1332.526
21
925.993
31
0.0
0
LINE
5
5bf
8
0-0
6
CONTINUOUS
62
  7
10
1332.526
20
970.994
30
0.0
11
1332.526
21
1170.993
31
0.0
0
LINE
5
5c0
8
0-0
6
CONTINUOUS
62
  7
10
1330.526
20
970.994
30
0.0
11
1355.526
21
970.994
31
0.0
0
LINE
5
5c1
8
0-0
6
CONTINUOUS
62
  7
10
1355.526
20
970.994
30
0.0
11
1355.526
21
925.993
31
0.0
0
LINE
5
5c2
8
0-0
6
CONTINUOUS
62
  7
10
1330.526
20
925.993
30
0.0
11
1355.526
21
925.993
31
0.0
0
LINE
5
5c3
8
0-0
6
CONTINUOUS
62
  7
10
834.418
20
797.362
30
0.0
11
899.418
21
797.362
31
0.0
0
LINE
5
5c4
8
0-0
6
CONTINUOUS
62
  7
10
834.418
20
845.024
30
0.0
11
834.418
21
797.362
31
0.0
0
LINE
5
5c5
8
0-0
6
CONTINUOUS
62
  7
10
899.418
20
845.024
30
0.0
11
899.418
21
797.362
31
0.0
0
LINE
5
5c6
8
0-0
6
CONTINUOUS
62
  7
10
899.418
20
797.362
30
0.0
11
1064.418
21
797.362
31
0.0
0
LINE
5
5c7
8
0-0
6
CONTINUOUS
62
  7
10
1064.418
20
845.024
30
0.0
11
1064.418
21
797.362
31
0.0
0
LINE
5
5c8
8
0-0
6
CONTINUOUS
62
  7
10
1064.418
20
797.362
30
0.0
11
1139.418
21
797.362
31
0.0
0
LINE
5
5c9
8
0-0
6
CONTINUOUS
62
  7
10
1139.418
20
845.024
30
0.0
11
1139.418
21
797.362
31
0.0
0
LINE
5
5ca
8
0-0
6
CONTINUOUS
62
  7
10
759.063
20
905.993
30
0.0
11
759.063
21
925.993
31
0.0
0
LINE
5
5cb
8
0-0
6
CONTINUOUS
62
  7
10
785.157
20
905.993
30
0.0
11
759.063
21
905.993
31
0.0
0
LINE
5
5cc
8
0-0
6
CONTINUOUS
62
  7
10
785.157
20
925.993
30
0.0
11
759.063
21
925.993
31
0.0
0
LINE
5
5cd
8
0-0
6
CONTINUOUS
62
  7
10
759.063
20
925.993
30
0.0
11
759.063
21
970.994
31
0.0
0
LINE
5
5ce
8
0-0
6
CONTINUOUS
62
  7
10
785.157
20
970.994
30
0.0
11
759.063
21
970.994
31
0.0
0
LINE
5
5cf
8
0-0
6
CONTINUOUS
62
  7
10
862.776
20
519.298
30
0.0
11
834.418
21
503.173
31
0.0
0
LINE
5
5d0
8
0-0
6
CONTINUOUS
62
  7
10
1132.471
20
504.887
30
0.0
11
1139.418
21
504.887
31
0.0
0
LINE
5
5d1
8
0-0
6
CONTINUOUS
62
  7
10
834.418
20
503.173
30
0.0
11
834.418
21
489.174
31
0.0
0
LINE
5
5d2
8
0-0
6
CONTINUOUS
62
  7
10
857.280
20
501.017
30
0.0
11
834.418
21
489.174
31
0.0
0
LINE
5
5d3
8
0-0
6
CONTINUOUS
62
  7
10
1139.418
20
504.887
30
0.0
11
1139.418
21
488.981
31
0.0
0
LINE
5
5d4
8
0-0
6
CONTINUOUS
62
  7
10
1139.418
20
504.887
30
0.0
11
1139.418
21
488.981
31
0.0
0
LINE
5
5d5
8
ADD_LINE
6
HIDDEN
62
  3
10
1021.622
20
453.099
30
0.0
11
1021.622
21
520.352
31
0.0
0
LINE
5
5d6
8
ADD_LINE
6
HIDDEN
62
  3
10
1021.622
20
462.162
30
0.0
11
1021.622
21
460.138
31
0.0
0
LINE
5
5d7
8
ADD_LINE
6
HIDDEN
62
  3
10
1021.622
20
462.162
30
0.0
11
1090.697
21
462.162
31
0.0
0
LINE
5
5d8
8
ADD_LINE
6
HIDDEN
62
  3
10
1021.620
20
462.162
30
0.0
11
949.400
21
462.162
31
0.0
0
LINE
5
5d9
8
ADD_LINE
6
HIDDEN
62
  3
10
1099.418
20
561.625
30
0.0
11
1099.418
21
444.768
31
0.0
0
LINE
5
5da
8
ADD_LINE
6
HIDDEN
62
  3
10
834.418
20
561.625
30
0.0
11
834.418
21
490.012
31
0.0
0
LINE
5
5db
8
ADD_LINE
6
HIDDEN
62
  3
10
834.418
20
503.173
30
0.0
11
1110.153
21
503.173
31
0.0
0
LINE
5
5dc
8
ADD_LINE
6
HIDDEN
62
  3
10
834.418
20
503.173
30
0.0
11
826.550
21
503.173
31
0.0
0
CIRCLE
5
5dd
8
0-0
6
CONTINUOUS
62
  7
10
939.418
20
1190.994
30
0.0
40
3.000
0
CIRCLE
5
5de
8
0-0
6
CONTINUOUS
62
  7
10
1064.418
20
1190.994
30
0.0
40
3.000
0
ARC
5
5df
8
0-0
6
CONTINUOUS
62
  7
10
1389.526
20
913.993
30
0.0
40
8.000
50
180.000000
51
270.000000
0
ARC
5
5e0
8
0-0
6
CONTINUOUS
62
  7
10
1340.526
20
913.993
30
0.0
40
8.000
50
180.000000
51
270.000000
0
CIRCLE
5
5e1
8
ADD_LINE
6
HIDDEN
62
  3
10
1021.622
20
462.162
30
0.0
40
3.000
0
ARC
5
5e2
8
0-0
6
CONTINUOUS
62
  7
10
871.976
20
507.056
30
0.0
40
15.314
50
42.690552
51
126.920761
0
ARC
5
5e3
8
0-0
6
CONTINUOUS
62
  7
10
871.042
20
482.424
30
0.0
40
23.132
50
47.123047
51
126.507172
0
ARC
5
5e4
8
0-0
6
CONTINUOUS
62
  7
10
1022.071
20
730.492
30
0.0
40
254.299
50
236.909088
51
297.481079
0
ARC
5
5e5
8
0-0
6
CONTINUOUS
62
  7
10
1022.770
20
729.229
30
0.0
40
267.069
50
239.390030
51
295.898193
0
ARC
5
5e6
8
0-0
6
CONTINUOUS
62
  7
10
965.515
20
404.212
30
0.0
40
110.968
50
41.400421
51
118.932373
0
ARC
5
5e7
8
0-0
6
CONTINUOUS
62
  7
10
965.515
20
404.212
30
0.0
40
124.968
50
37.243408
51
123.089432
0
ARC
5
5e8
8
0-0
6
CONTINUOUS
62
  7
10
1126.641
20
504.739
30
0.0
40
5.832
50
314.380249
51
1.447281
0
CIRCLE
5
5e9
8
ADD_LINE
6
HIDDEN
62
  3
10
834.418
20
503.173
30
0.0
40
3.000
0
CIRCLE
5
5ea
8
ADD_LINE
6
HIDDEN
62
  3
10
1099.418
20
503.173
30
0.0
40
3.000
0
TEXT
5
5eb
100
AcDbEntity
8
0-0
62
4
100
AcDbText
10
977.543
20
636.127
30
0.0
40
9.750
41
0.800
50
0.000
1
305
100
AcDbText
0
TEXT
5
5ec
100
AcDbEntity
8
0-0
62
4
100
AcDbText
10
957.543
20
600.126
30
0.0
40
9.750
41
0.800
50
0.000
1
265
100
AcDbText
0
TEXT
5
5ed
100
AcDbEntity
8
0-0
62
4
100
AcDbText
10
696.787
20
1049.118
30
0.0
40
9.750
41
0.800
50
90.000
1
305
100
AcDbText
0
TEXT
5
5ee
100
AcDbEntity
8
0-0
62
4
100
AcDbText
10
730.180
20
1029.118
30
0.0
40
9.750
41
0.800
50
90.000
1
265
100
AcDbText
0
TEXT
5
5ef
100
AcDbEntity
8
0-0
62
4
100
AcDbText
10
730.180
20
1184.744
30
0.0
40
9.750
41
0.800
50
90.000
1
40
100
AcDbText
0
TEXT
5
5f0
100
AcDbEntity
8
0-0
62
4
100
AcDbText
10
977.543
20
737.845
30
0.0
40
9.750
41
0.800
50
0.000
1
305
100
AcDbText
0
TEXT
5
5f1
100
AcDbEntity
8
0-0
62
4
100
AcDbText
10
957.543
20
768.853
30
0.0
40
9.750
41
0.800
50
0.000
1
265
100
AcDbText
0
TEXT
5
5f2
100
AcDbEntity
8
0-0
62
4
100
AcDbText
10
1113.168
20
768.853
30
0.0
40
9.750
41
0.800
50
0.000
1
40
100
AcDbText
0
TEXT
5
5f3
100
AcDbEntity
8
0-0
62
4
100
AcDbText
10
1520.567
20
1049.118
30
0.0
40
9.750
41
0.800
50
90.000
1
305
100
AcDbText
0
TEXT
5
5f4
100
AcDbEntity
8
0-0
62
4
100
AcDbText
10
977.543
20
1373.159
30
0.0
40
9.750
41
0.800
50
0.000
1
305
100
AcDbText
0
TEXT
5
5f5
100
AcDbEntity
8
0-0
62
4
100
AcDbText
10
1000.043
20
1322.319
30
0.0
40
9.750
41
0.800
50
0.000
1
260
100
AcDbText
0
TEXT
5
5f6
100
AcDbEntity
8
0-0
62
4
100
AcDbText
10
850.668
20
1322.319
30
0.0
40
9.750
41
0.800
50
0.000
1
45
100
AcDbText
0
TEXT
5
5f7
100
AcDbEntity
8
0-0
62
4
100
AcDbText
10
1234.232
20
914.743
30
0.0
40
9.750
41
0.800
50
90.000
1
30
100
AcDbText
0
TEXT
5
5f8
100
AcDbEntity
8
0-0
62
4
100
AcDbText
10
1234.232
20
1064.118
30
0.0
40
9.750
41
0.800
50
90.000
1
275
100
AcDbText
0
TEXT
5
5f9
100
AcDbEntity
8
0-0
62
4
100
AcDbText
10
860.668
20
799.862
30
0.0
40
9.750
41
0.800
50
0.000
1
65
100
AcDbText
0
TEXT
5
5fa
100
AcDbEntity
8
0-0
62
4
100
AcDbText
10
972.543
20
799.862
30
0.0
40
9.750
41
0.800
50
0.000
1
165
100
AcDbText
0
TEXT
5
5fb
100
AcDbEntity
8
0-0
62
4
100
AcDbText
10
1095.668
20
799.862
30
0.0
40
9.750
41
0.800
50
0.000
1
75
100
AcDbText
0
TEXT
5
5fc
100
AcDbEntity
8
0-0
62
4
100
AcDbText
10
756.563
20
909.743
30
0.0
40
9.750
41
0.800
50
90.000
1
20
100
AcDbText
0
TEXT
5
5fd
100
AcDbEntity
8
0-0
62
4
100
AcDbText
10
756.563
20
942.243
30
0.0
40
9.750
41
0.800
50
90.000
1
45
100
AcDbText
0
POINT
5
5fe
8
0-0
62
  7
10
834.418
20
633.627
30
0.0
0
POINT
5
5ff
8
0-0
62
  7
10
1139.418
20
633.627
30
0.0
0
POINT
5
600
8
0-0
62
  7
10
834.418
20
597.626
30
0.0
0
POINT
5
601
8
0-0
62
  7
10
1099.418
20
597.626
30
0.0
0
POINT
5
602
8
0-0
62
  7
10
699.287
20
905.993
30
0.0
0
POINT
5
603
8
0-0
62
  7
10
699.287
20
1210.993
30
0.0
0
POINT
5
604
8
0-0
62
  7
10
732.680
20
905.993
30
0.0
0
POINT
5
605
8
0-0
62
  7
10
732.680
20
1170.993
30
0.0
0
POINT
5
606
8
0-0
62
  7
10
732.680
20
1210.994
30
0.0
0
POINT
5
607
8
0-0
62
  7
10
834.418
20
735.345
30
0.0
0
POINT
5
608
8
0-0
62
  7
10
1139.418
20
735.345
30
0.0
0
POINT
5
609
8
0-0
62
  7
10
834.418
20
766.353
30
0.0
0
POINT
5
60a
8
0-0
62
  7
10
1099.418
20
766.353
30
0.0
0
POINT
5
60b
8
0-0
62
  7
10
1139.418
20
766.353
30
0.0
0
POINT
5
60c
8
0-0
62
  7
10
1523.067
20
905.993
30
0.0
0
POINT
5
60d
8
0-0
62
  7
10
1523.067
20
1210.993
30
0.0
0
POINT
5
60e
8
0-0
62
  7
10
834.418
20
1370.659
30
0.0
0
POINT
5
60f
8
0-0
62
  7
10
1139.418
20
1370.659
30
0.0
0
POINT
5
610
8
0-0
62
  7
10
1139.418
20
1319.819
30
0.0
0
POINT
5
611
8
0-0
62
  7
10
879.418
20
1319.819
30
0.0
0
POINT
5
612
8
0-0
62
  7
10
834.418
20
1319.819
30
0.0
0
POINT
5
613
8
0-0
62
  7
10
1236.732
20
905.993
30
0.0
0
POINT
5
614
8
0-0
62
  7
10
1236.732
20
935.993
30
0.0
0
POINT
5
615
8
0-0
62
  7
10
1236.732
20
1210.993
30
0.0
0
POINT
5
616
8
0-0
62
  7
10
834.418
20
797.362
30
0.0
0
POINT
5
617
8
0-0
62
  7
10
899.418
20
797.362
30
0.0
0
POINT
5
618
8
0-0
62
  7
10
1064.418
20
797.362
30
0.0
0
POINT
5
619
8
0-0
62
  7
10
1139.418
20
797.362
30
0.0
0
POINT
5
61a
8
0-0
62
  7
10
759.063
20
905.993
30
0.0
0
POINT
5
61b
8
0-0
62
  7
10
759.063
20
925.993
30
0.0
0
POINT
5
61c
8
0-0
62
  7
10
759.063
20
970.994
30
0.0
0
ENDSEC
0
EOF
