0
SECTION
2
HEADER
  9
$EXTMIN
10
0
20
0
30
0
  9
$EXTMAX
10
1466.876
20
1372.033
30
0
  9
$LTSCALE
40
5.000
  9
$DIMSCALE
40
5.000
  9
$PDMODE
70
0
  9
$PDSIZE
40
40
0
ENDSEC
0
SECTION
2
TABLES
0
TABLE
2
LTYPE
70
9
0
LTYPE
5
1f4
2
CONTINUOUS
70
0
3
実線
72
65
73
0
40
0.0
0
LTYPE
5
1f5
2
DOT
70
0
3
--  --  --  --  --  --  --  --     
72
65
73
2
40
5.000
49
1.000
49
-4.000
0
LTYPE
5
1f6
2
DASHED
70
0
3
----    ----    ----    ----    
72
65
73
2
40
5.000
49
2.000
49
-3.000
0
LTYPE
5
1f7
2
DASHED2
70
0
3
------  ------  ------  ------ 
72
65
73
2
40
10.000
49
4.000
49
-6.000
0
LTYPE
5
1f8
2
CENTER
70
0
3
----- - ----- - ----- - ----- - 
72
65
73
4
40
9.000
49
6.000
49
-1.000
49
1.000
49
-1.000
0
LTYPE
5
1f9
2
CENTER2
70
0
3
----------  --  ----------  -- 
72
65
73
4
40
18.000
49
12.000
49
-2.000
49
2.000
49
-2.000
0
LTYPE
5
1fa
2
PHANTOM
70
0
3
--- - - --- - - --- - - --- - -
72
65
73
6
40
10.000
49
5.000
49
-1.000
49
1.000
49
-1.000
49
1.000
49
-1.000
0
LTYPE
5
1fb
2
PHANTOM2
70
0
3
--------  -  -  --------  -  -
72
65
73
6
40
16.000
49
6.000
49
-2.000
49
2.000
49
-2.000
49
2.000
49
-2.000
0
LTYPE
5
1fc
2
HIDDEN
70
0
3
-   -   -   -   -   -   -   -   
72
65
73
2
40
2.500
49
0.500
49
-2.000
0
ENDTAB
0
TABLE
2
STYLE
70
1
0
STYLE
5
1fd
100
AcDbSymbolTableRecord
100
AcDbTextStyleTableRecord
2
STANDARD
70
0
40
0.0
41
1.0
50
0.0
71
0
42
0.0
3
txt.shx
4
extfont.shx
0
STYLE
5
1fe
100
AcDbSymbolTableRecord
100
AcDbTextStyleTableRecord
2
TATEGAKI
70
4
40
0.0
41
1.0
50
0.0
71
0
42
0.0
3
txt.shx
4
extfont.shx
0
STYLE
5
1ff
100
AcDbSymbolTableRecord
100
AcDbTextStyleTableRecord
2
MT
70
0
40
0.0
41
1.0
50
0.0
71
0
42
0.0
3
MS Mincho
4

0
STYLE
5
200
100
AcDbSymbolTableRecord
100
AcDbTextStyleTableRecord
2
TMT
70
4
40
0.0
41
1.0
50
0.0
71
0
42
0.0
3
@MS Mincho
4

0
ENDTAB
0
TABLE
2
LAYER
5
1615
100
AcDbSymbolTable
70
10
0
LAYER
5
1616
100
AcDbSymbolTableRecord
100
AcDbLayerTableRecord
2
0
70
64
62
  7
  6
CONTINUOUS
0
LAYER
5
1617
100
AcDbSymbolTableRecord
100
AcDbLayerTableRecord
2
0-0
70
64
62
  7
  6
CONTINUOUS
0
LAYER
5
1618
100
AcDbSymbolTableRecord
100
AcDbLayerTableRecord
2
ADD_LINE
70
64
62
  -7
  6
CONTINUOUS
0
ENDTAB
0
ENDSEC
0
SECTION
2
ENTITIES
0
LINE
5
1619
8
0-0
6
CONTINUOUS
62
  7
10
1153.046
20
1154.668
30
0.0
11
1153.046
21
884.668
31
0.0
0
LINE
5
161a
8
0-0
6
CONTINUOUS
62
  7
10
910.046
20
1154.668
30
0.0
11
1153.046
21
1154.668
31
0.0
0
LINE
5
161b
8
0-0
6
CONTINUOUS
62
  7
10
910.046
20
1154.668
30
0.0
11
932.861
21
1154.668
31
0.0
0
LINE
5
161c
8
0-0
6
CONTINUOUS
62
  7
10
940.046
20
1146.668
30
0.0
11
1145.046
21
1146.668
31
0.0
0
LINE
5
161d
8
0-0
6
CONTINUOUS
62
  7
10
940.046
20
1154.668
30
0.0
11
940.046
21
1146.668
31
0.0
0
LINE
5
161e
8
0-0
6
CONTINUOUS
62
  7
10
1056.046
20
1128.668
30
0.0
11
1056.046
21
1146.668
31
0.0
0
LINE
5
161f
8
0-0
6
CONTINUOUS
62
  7
10
1003.046
20
1126.668
30
0.0
11
1054.046
21
1126.668
31
0.0
0
LINE
5
1620
8
0-0
6
CONTINUOUS
62
  7
10
1001.046
20
1128.668
30
0.0
11
1001.046
21
1146.668
31
0.0
0
LINE
5
1621
8
0-0
6
CONTINUOUS
62
  7
10
973.046
20
1114.168
30
0.0
11
973.046
21
1115.168
31
0.0
0
LINE
5
1622
8
0-0
6
CONTINUOUS
62
  7
10
1031.546
20
1116.668
30
0.0
11
974.546
21
1116.668
31
0.0
0
LINE
5
1623
8
0-0
6
CONTINUOUS
62
  7
10
1031.546
20
1112.668
30
0.0
11
974.546
21
1112.668
31
0.0
0
LINE
5
1624
8
0-0
6
CONTINUOUS
62
  7
10
1033.046
20
1114.168
30
0.0
11
1033.046
21
1115.168
31
0.0
0
LINE
5
1625
8
0-0
6
CONTINUOUS
62
  7
10
1063.046
20
1115.168
30
0.0
11
1063.046
21
1114.168
31
0.0
0
LINE
5
1626
8
0-0
6
CONTINUOUS
62
  7
10
1121.546
20
1116.668
30
0.0
11
1064.546
21
1116.668
31
0.0
0
LINE
5
1627
8
0-0
6
CONTINUOUS
62
  7
10
1121.546
20
1112.668
30
0.0
11
1064.546
21
1112.668
31
0.0
0
LINE
5
1628
8
0-0
6
CONTINUOUS
62
  7
10
1123.046
20
1114.168
30
0.0
11
1123.046
21
1115.168
31
0.0
0
LINE
5
1629
8
0-0
6
CONTINUOUS
62
  7
10
1390.937
20
876.376
30
0.0
11
1390.937
21
872.667
31
0.0
0
LINE
5
162a
8
0-0
6
CONTINUOUS
62
  7
10
1394.702
20
857.609
30
0.0
11
1396.815
21
853.647
31
0.0
0
LINE
5
162b
8
ADD_LINE
6
HIDDEN
62
  3
10
823.425
20
914.668
30
0.0
11
1193.051
21
914.668
31
0.0
0
LINE
5
162c
8
0-0
6
CONTINUOUS
62
  7
10
891.046
20
534.541
30
0.0
11
889.046
21
491.541
31
0.0
0
LINE
5
162d
8
0-0
6
CONTINUOUS
62
  7
10
892.786
20
549.950
30
0.0
11
892.786
21
549.075
31
0.0
0
LINE
5
162e
8
0-0
6
CONTINUOUS
62
  7
10
907.958
20
532.821
30
0.0
11
908.027
21
533.497
31
0.0
0
LINE
5
162f
8
0-0
6
CONTINUOUS
62
  7
10
908.027
20
533.497
30
0.0
11
908.152
21
534.734
31
0.0
0
LINE
5
1630
8
0-0
6
CONTINUOUS
62
  7
10
908.152
20
534.734
30
0.0
11
908.276
21
535.970
31
0.0
0
LINE
5
1631
8
0-0
6
CONTINUOUS
62
  7
10
908.276
20
535.970
30
0.0
11
908.395
21
537.173
31
0.0
0
LINE
5
1632
8
0-0
6
CONTINUOUS
62
  7
10
908.395
20
537.173
30
0.0
11
908.470
21
537.936
31
0.0
0
LINE
5
1633
8
0-0
6
CONTINUOUS
62
  7
10
908.470
20
537.936
30
0.0
11
908.530
21
538.565
31
0.0
0
LINE
5
1634
8
0-0
6
CONTINUOUS
62
  7
10
908.530
20
538.565
30
0.0
11
908.648
21
539.794
31
0.0
0
LINE
5
1635
8
0-0
6
CONTINUOUS
62
  7
10
908.648
20
539.794
30
0.0
11
908.760
21
540.943
31
0.0
0
LINE
5
1636
8
0-0
6
CONTINUOUS
62
  7
10
908.760
20
540.943
30
0.0
11
908.875
21
542.051
31
0.0
0
LINE
5
1637
8
0-0
6
CONTINUOUS
62
  7
10
908.875
20
542.051
30
0.0
11
908.940
21
542.648
31
0.0
0
LINE
5
1638
8
0-0
6
CONTINUOUS
62
  7
10
908.940
20
542.648
30
0.0
11
909.004
21
543.208
31
0.0
0
LINE
5
1639
8
0-0
6
CONTINUOUS
62
  7
10
909.004
20
543.208
30
0.0
11
909.126
21
544.172
31
0.0
0
LINE
5
163a
8
0-0
6
CONTINUOUS
62
  7
10
909.126
20
544.172
30
0.0
11
909.249
21
545.025
31
0.0
0
LINE
5
163b
8
0-0
6
CONTINUOUS
62
  7
10
889.046
20
491.541
30
0.0
11
906.064
21
491.541
31
0.0
0
LINE
5
163c
8
0-0
6
CONTINUOUS
62
  7
10
908.027
20
533.752
30
0.0
11
906.064
21
491.541
31
0.0
0
LINE
5
163d
8
0-0
6
CONTINUOUS
62
  7
10
1416.937
20
855.668
30
0.0
11
1416.937
21
849.668
31
0.0
0
LINE
5
163e
8
0-0
6
CONTINUOUS
62
  7
10
1406.937
20
859.584
30
0.0
11
1416.937
21
855.668
31
0.0
0
LINE
5
163f
8
0-0
6
CONTINUOUS
62
  7
10
1393.269
20
1146.668
30
0.0
11
1393.269
21
1126.668
31
0.0
0
LINE
5
1640
8
0-0
6
CONTINUOUS
62
  7
10
1365.937
20
1146.668
30
0.0
11
1393.269
21
1146.668
31
0.0
0
LINE
5
1641
8
0-0
6
CONTINUOUS
62
  7
10
1390.937
20
1126.668
30
0.0
11
1393.269
21
1126.668
31
0.0
0
LINE
5
1642
8
0-0
6
CONTINUOUS
62
  7
10
1390.937
20
1146.668
30
0.0
11
1390.937
21
872.668
31
0.0
0
LINE
5
1643
8
0-0
6
CONTINUOUS
62
  7
10
1406.937
20
1154.668
30
0.0
11
1406.937
21
859.584
31
0.0
0
LINE
5
1644
8
0-0
6
CONTINUOUS
62
  7
10
1388.269
20
1154.668
30
0.0
11
1388.269
21
1146.668
31
0.0
0
LINE
5
1645
8
0-0
6
CONTINUOUS
62
  7
10
1365.937
20
1154.668
30
0.0
11
1406.937
21
1154.668
31
0.0
0
LINE
5
1646
8
0-0
6
CONTINUOUS
62
  7
10
1369.702
20
857.609
30
0.0
11
1371.815
21
853.647
31
0.0
0
LINE
5
1647
8
0-0
6
CONTINUOUS
62
  7
10
1378.447
20
849.668
30
0.0
11
1416.937
21
849.668
31
0.0
0
LINE
5
1648
8
0-0
6
CONTINUOUS
62
  7
10
1365.937
20
1154.668
30
0.0
11
1365.937
21
872.667
31
0.0
0
LINE
5
1649
8
ADD_LINE
6
HIDDEN
62
  3
10
1012.524
20
531.081
30
0.0
11
1019.337
21
531.081
31
0.0
0
LINE
5
164a
8
0-0
6
CONTINUOUS
62
  7
10
583.181
20
1369.533
30
0.0
11
638.181
21
1369.533
31
0.0
0
LINE
5
164b
8
0-0
6
CONTINUOUS
62
  7
10
583.181
20
1199.262
30
0.0
11
583.181
21
1369.533
31
0.0
0
LINE
5
164c
8
0-0
6
CONTINUOUS
62
  7
10
638.181
20
1199.262
30
0.0
11
638.181
21
1369.533
31
0.0
0
LINE
5
164d
8
0-0
6
CONTINUOUS
62
  7
10
910.046
20
1369.533
30
0.0
11
1153.046
21
1369.533
31
0.0
0
LINE
5
164e
8
0-0
6
CONTINUOUS
62
  7
10
910.046
20
1199.262
30
0.0
11
910.046
21
1369.533
31
0.0
0
LINE
5
164f
8
0-0
6
CONTINUOUS
62
  7
10
1153.046
20
1199.262
30
0.0
11
1153.046
21
1369.533
31
0.0
0
LINE
5
1650
8
0-0
6
CONTINUOUS
62
  7
10
910.046
20
1304.668
30
0.0
11
940.046
21
1304.668
31
0.0
0
LINE
5
1651
8
0-0
6
CONTINUOUS
62
  7
10
910.046
20
1199.262
30
0.0
11
910.046
21
1304.668
31
0.0
0
LINE
5
1652
8
0-0
6
CONTINUOUS
62
  7
10
940.046
20
1199.262
30
0.0
11
940.046
21
1304.668
31
0.0
0
LINE
5
1653
8
0-0
6
CONTINUOUS
62
  7
10
940.046
20
1304.668
30
0.0
11
1153.046
21
1304.668
31
0.0
0
LINE
5
1654
8
0-0
6
CONTINUOUS
62
  7
10
1153.046
20
1199.262
30
0.0
11
1153.046
21
1304.668
31
0.0
0
LINE
5
1655
8
0-0
6
CONTINUOUS
62
  7
10
1390.937
20
1304.668
30
0.0
11
1406.937
21
1304.668
31
0.0
0
LINE
5
1656
8
0-0
6
CONTINUOUS
62
  7
10
1390.937
20
1199.262
30
0.0
11
1390.937
21
1304.668
31
0.0
0
LINE
5
1657
8
0-0
6
CONTINUOUS
62
  7
10
1406.937
20
1199.262
30
0.0
11
1406.937
21
1304.668
31
0.0
0
LINE
5
1658
8
0-0
6
CONTINUOUS
62
  7
10
889.046
20
416.830
30
0.0
11
906.064
21
416.830
31
0.0
0
LINE
5
1659
8
0-0
6
CONTINUOUS
62
  7
10
889.046
20
465.479
30
0.0
11
889.046
21
416.830
31
0.0
0
LINE
5
165a
8
0-0
6
CONTINUOUS
62
  7
10
906.064
20
465.479
30
0.0
11
906.064
21
416.830
31
0.0
0
LINE
5
165b
8
0-0
6
CONTINUOUS
62
  7
10
1123.046
20
879.668
30
0.0
11
1123.046
21
849.668
31
0.0
0
LINE
5
165c
8
0-0
6
CONTINUOUS
62
  7
10
1123.046
20
879.668
30
0.0
11
1153.046
21
879.668
31
0.0
0
LINE
5
165d
8
0-0
6
CONTINUOUS
62
  7
10
1153.046
20
884.668
30
0.0
11
1153.046
21
879.668
31
0.0
0
LINE
5
165e
8
0-0
6
CONTINUOUS
62
  7
10
1145.046
20
1146.668
30
0.0
11
1145.046
21
879.668
31
0.0
0
LINE
5
165f
8
0-0
6
CONTINUOUS
62
  7
10
910.046
20
1154.668
30
0.0
11
881.521
21
864.669
31
0.0
0
LINE
5
1660
8
0-0
6
CONTINUOUS
62
  7
10
890.046
20
849.668
30
0.0
11
1123.046
21
849.668
31
0.0
0
LINE
5
1661
8
0-0
6
CONTINUOUS
62
  7
10
638.181
20
1154.668
30
0.0
11
583.181
21
1154.668
31
0.0
0
LINE
5
1662
8
0-0
6
CONTINUOUS
62
  7
10
583.181
20
1154.668
30
0.0
11
558.181
21
849.668
31
0.0
0
LINE
5
1663
8
0-0
6
CONTINUOUS
62
  7
10
558.181
20
849.668
30
0.0
11
628.181
21
849.668
31
0.0
0
LINE
5
1664
8
0-0
6
CONTINUOUS
62
  7
10
638.181
20
1154.668
30
0.0
11
638.181
21
874.668
31
0.0
0
LINE
5
1665
8
0-0
6
CONTINUOUS
62
  7
10
558.181
20
716.830
30
0.0
11
638.181
21
716.830
31
0.0
0
LINE
5
1666
8
0-0
6
CONTINUOUS
62
  7
10
558.181
20
801.965
30
0.0
11
558.181
21
716.830
31
0.0
0
LINE
5
1667
8
0-0
6
CONTINUOUS
62
  7
10
638.181
20
801.965
30
0.0
11
638.181
21
716.830
31
0.0
0
LINE
5
1668
8
0-0
6
CONTINUOUS
62
  7
10
880.046
20
716.830
30
0.0
11
1153.046
21
716.830
31
0.0
0
LINE
5
1669
8
0-0
6
CONTINUOUS
62
  7
10
880.046
20
801.965
30
0.0
11
880.046
21
716.830
31
0.0
0
LINE
5
166a
8
0-0
6
CONTINUOUS
62
  7
10
1153.046
20
801.965
30
0.0
11
1153.046
21
716.830
31
0.0
0
LINE
5
166b
8
0-0
6
CONTINUOUS
62
  7
10
1153.046
20
761.424
30
0.0
11
1123.046
21
761.424
31
0.0
0
LINE
5
166c
8
0-0
6
CONTINUOUS
62
  7
10
1153.046
20
801.965
30
0.0
11
1153.046
21
761.424
31
0.0
0
LINE
5
166d
8
0-0
6
CONTINUOUS
62
  7
10
1123.046
20
801.965
30
0.0
11
1123.046
21
761.424
31
0.0
0
LINE
5
166e
8
0-0
6
CONTINUOUS
62
  7
10
390.883
20
1154.668
30
0.0
11
390.883
21
849.668
31
0.0
0
LINE
5
166f
8
0-0
6
CONTINUOUS
62
  7
10
492.235
20
1154.668
30
0.0
11
390.883
21
1154.668
31
0.0
0
LINE
5
1670
8
0-0
6
CONTINUOUS
62
  7
10
492.235
20
849.668
30
0.0
11
390.883
21
849.668
31
0.0
0
LINE
5
1671
8
0-0
6
CONTINUOUS
62
  7
10
1282.775
20
1154.668
30
0.0
11
1282.775
21
849.668
31
0.0
0
LINE
5
1672
8
0-0
6
CONTINUOUS
62
  7
10
1193.586
20
1154.668
30
0.0
11
1282.775
21
1154.668
31
0.0
0
LINE
5
1673
8
0-0
6
CONTINUOUS
62
  7
10
1193.586
20
849.668
30
0.0
11
1282.775
21
849.668
31
0.0
0
LINE
5
1674
8
0-0
6
CONTINUOUS
62
  7
10
1238.181
20
849.668
30
0.0
11
1238.181
21
879.668
31
0.0
0
LINE
5
1675
8
0-0
6
CONTINUOUS
62
  7
10
1193.586
20
849.668
30
0.0
11
1238.181
21
849.668
31
0.0
0
LINE
5
1676
8
0-0
6
CONTINUOUS
62
  7
10
1193.586
20
879.668
30
0.0
11
1238.181
21
879.668
31
0.0
0
LINE
5
1677
8
0-0
6
CONTINUOUS
62
  7
10
793.910
20
491.541
30
0.0
11
793.910
21
571.593
31
0.0
0
LINE
5
1678
8
0-0
6
CONTINUOUS
62
  7
10
852.232
20
491.541
30
0.0
11
793.910
21
491.541
31
0.0
0
LINE
5
1679
8
0-0
6
CONTINUOUS
62
  7
10
852.232
20
571.593
30
0.0
11
793.910
21
571.593
31
0.0
0
LINE
5
167a
8
ADD_LINE
6
HIDDEN
62
  3
10
890.885
20
531.081
30
0.0
11
890.885
21
620.270
31
0.0
0
LINE
5
167b
8
0-0
6
CONTINUOUS
62
  7
10
890.885
20
649.936
30
0.0
11
1115.885
21
649.936
31
0.0
0
LINE
5
167c
8
0-0
6
CONTINUOUS
62
  7
10
890.885
20
592.084
30
0.0
11
890.885
21
649.936
31
0.0
0
LINE
5
167d
8
0-0
6
CONTINUOUS
62
  7
10
1115.885
20
592.084
30
0.0
11
1115.885
21
649.936
31
0.0
0
LINE
5
167e
8
ADD_LINE
6
HIDDEN
62
  3
10
1115.885
20
572.092
30
0.0
11
1115.885
21
627.396
31
0.0
0
LINE
5
167f
8
ADD_LINE
6
HIDDEN
62
  3
10
1115.885
20
572.092
30
0.0
11
1112.128
21
572.092
31
0.0
0
LINE
5
1680
8
ADD_LINE
6
HIDDEN
62
  3
10
1115.885
20
572.092
30
0.0
11
1119.438
21
572.092
31
0.0
0
LINE
5
1681
8
ADD_LINE
6
HIDDEN
62
  3
10
1119.438
20
572.092
30
0.0
11
1122.010
21
572.092
31
0.0
0
LINE
5
1682
8
ADD_LINE
6
HIDDEN
62
  3
10
1112.128
20
572.092
30
0.0
11
1110.496
21
572.092
31
0.0
0
LINE
5
1683
8
0-0
6
CONTINUOUS
62
  7
10
891.046
20
534.541
30
0.0
11
891.116
21
535.238
31
0.0
0
LINE
5
1684
8
0-0
6
CONTINUOUS
62
  7
10
891.116
20
535.238
30
0.0
11
891.238
21
536.440
31
0.0
0
LINE
5
1685
8
0-0
6
CONTINUOUS
62
  7
10
891.238
20
536.440
30
0.0
11
891.359
21
537.642
31
0.0
0
LINE
5
1686
8
0-0
6
CONTINUOUS
62
  7
10
891.359
20
537.642
30
0.0
11
891.478
21
538.844
31
0.0
0
LINE
5
1687
8
0-0
6
CONTINUOUS
62
  7
10
891.478
20
538.844
30
0.0
11
891.546
21
539.541
31
0.0
0
LINE
5
1688
8
0-0
6
CONTINUOUS
62
  7
10
891.546
20
539.541
30
0.0
11
891.613
21
540.239
31
0.0
0
LINE
5
1689
8
0-0
6
CONTINUOUS
62
  7
10
891.613
20
540.239
30
0.0
11
891.728
21
541.441
31
0.0
0
LINE
5
168a
8
0-0
6
CONTINUOUS
62
  7
10
891.728
20
541.441
30
0.0
11
891.846
21
542.643
31
0.0
0
LINE
5
168b
8
0-0
6
CONTINUOUS
62
  7
10
891.846
20
542.643
30
0.0
11
891.969
21
543.845
31
0.0
0
LINE
5
168c
8
0-0
6
CONTINUOUS
62
  7
10
891.969
20
543.845
30
0.0
11
892.046
21
544.541
31
0.0
0
LINE
5
168d
8
0-0
6
CONTINUOUS
62
  7
10
892.046
20
544.541
30
0.0
11
892.126
21
545.242
31
0.0
0
LINE
5
168e
8
0-0
6
CONTINUOUS
62
  7
10
892.126
20
545.242
30
0.0
11
892.278
21
546.448
31
0.0
0
LINE
5
168f
8
0-0
6
CONTINUOUS
62
  7
10
892.278
20
546.448
30
0.0
11
892.452
21
547.651
31
0.0
0
LINE
5
1690
8
0-0
6
CONTINUOUS
62
  7
10
892.452
20
547.651
30
0.0
11
892.654
21
548.849
31
0.0
0
LINE
5
1691
8
0-0
6
CONTINUOUS
62
  7
10
892.654
20
548.849
30
0.0
11
892.786
21
549.541
31
0.0
0
LINE
5
1692
8
0-0
6
CONTINUOUS
62
  7
10
892.786
20
549.541
30
0.0
11
892.934
21
550.245
31
0.0
0
LINE
5
1693
8
0-0
6
CONTINUOUS
62
  7
10
892.934
20
550.245
30
0.0
11
893.215
21
551.453
31
0.0
0
LINE
5
1694
8
0-0
6
CONTINUOUS
62
  7
10
893.215
20
551.453
30
0.0
11
893.523
21
552.654
31
0.0
0
LINE
5
1695
8
0-0
6
CONTINUOUS
62
  7
10
893.523
20
552.654
30
0.0
11
893.850
21
553.850
31
0.0
0
LINE
5
1696
8
0-0
6
CONTINUOUS
62
  7
10
893.850
20
553.850
30
0.0
11
894.046
21
554.541
31
0.0
0
LINE
5
1697
8
0-0
6
CONTINUOUS
62
  7
10
894.046
20
554.541
30
0.0
11
894.247
21
555.244
31
0.0
0
LINE
5
1698
8
0-0
6
CONTINUOUS
62
  7
10
894.247
20
555.244
30
0.0
11
894.606
21
556.452
31
0.0
0
LINE
5
1699
8
0-0
6
CONTINUOUS
62
  7
10
894.606
20
556.452
30
0.0
11
894.987
21
557.654
31
0.0
0
LINE
5
169a
8
0-0
6
CONTINUOUS
62
  7
10
894.987
20
557.654
30
0.0
11
895.399
21
558.851
31
0.0
0
LINE
5
169b
8
0-0
6
CONTINUOUS
62
  7
10
895.399
20
558.851
30
0.0
11
895.656
21
559.541
31
0.0
0
LINE
5
169c
8
0-0
6
CONTINUOUS
62
  7
10
895.656
20
559.541
30
0.0
11
895.862
21
560.063
31
0.0
0
LINE
5
169d
8
0-0
6
CONTINUOUS
62
  7
10
895.862
20
560.063
30
0.0
11
896.248
21
560.950
31
0.0
0
LINE
5
169e
8
0-0
6
CONTINUOUS
62
  7
10
896.248
20
560.950
30
0.0
11
896.688
21
561.806
31
0.0
0
LINE
5
169f
8
0-0
6
CONTINUOUS
62
  7
10
896.688
20
561.806
30
0.0
11
897.197
21
562.615
31
0.0
0
LINE
5
16a0
8
0-0
6
CONTINUOUS
62
  7
10
897.197
20
562.615
30
0.0
11
897.531
21
563.056
31
0.0
0
LINE
5
16a1
8
0-0
6
CONTINUOUS
62
  7
10
897.531
20
563.056
30
0.0
11
897.721
21
563.281
31
0.0
0
LINE
5
16a2
8
0-0
6
CONTINUOUS
62
  7
10
897.721
20
563.281
30
0.0
11
898.069
21
563.654
31
0.0
0
LINE
5
16a3
8
0-0
6
CONTINUOUS
62
  7
10
898.069
20
563.654
30
0.0
11
898.436
21
564.009
31
0.0
0
LINE
5
16a4
8
0-0
6
CONTINUOUS
62
  7
10
898.436
20
564.009
30
0.0
11
898.818
21
564.350
31
0.0
0
LINE
5
16a5
8
0-0
6
CONTINUOUS
62
  7
10
898.818
20
564.350
30
0.0
11
899.046
21
564.541
31
0.0
0
LINE
5
16a6
8
0-0
6
CONTINUOUS
62
  7
10
899.046
20
564.541
30
0.0
11
900.286
21
565.488
31
0.0
0
LINE
5
16a7
8
0-0
6
CONTINUOUS
62
  7
10
900.286
20
565.488
30
0.0
11
902.574
21
566.898
31
0.0
0
LINE
5
16a8
8
0-0
6
CONTINUOUS
62
  7
10
902.574
20
566.898
30
0.0
11
905.009
21
568.068
31
0.0
0
LINE
5
16a9
8
0-0
6
CONTINUOUS
62
  7
10
905.009
20
568.068
30
0.0
11
907.546
21
569.044
31
0.0
0
LINE
5
16aa
8
0-0
6
CONTINUOUS
62
  7
10
907.546
20
569.044
30
0.0
11
909.046
21
569.542
31
0.0
0
LINE
5
16ab
8
0-0
6
CONTINUOUS
62
  7
10
909.046
20
569.542
30
0.0
11
910.422
21
569.958
31
0.0
0
LINE
5
16ac
8
0-0
6
CONTINUOUS
62
  7
10
910.422
20
569.958
30
0.0
11
912.812
21
570.588
31
0.0
0
LINE
5
16ad
8
0-0
6
CONTINUOUS
62
  7
10
912.812
20
570.588
30
0.0
11
915.218
21
571.084
31
0.0
0
LINE
5
16ae
8
0-0
6
CONTINUOUS
62
  7
10
915.218
20
571.084
30
0.0
11
917.637
21
571.424
31
0.0
0
LINE
5
16af
8
0-0
6
CONTINUOUS
62
  7
10
917.637
20
571.424
30
0.0
11
919.046
21
571.541
31
0.0
0
LINE
5
16b0
8
0-0
6
CONTINUOUS
62
  7
10
919.046
20
571.541
30
0.0
11
921.708
21
571.593
31
0.0
0
LINE
5
16b1
8
0-0
6
CONTINUOUS
62
  7
10
921.708
20
571.593
30
0.0
11
926.306
21
571.227
31
0.0
0
LINE
5
16b2
8
0-0
6
CONTINUOUS
62
  7
10
926.306
20
571.227
30
0.0
11
930.891
21
570.408
31
0.0
0
LINE
5
16b3
8
0-0
6
CONTINUOUS
62
  7
10
930.891
20
570.408
30
0.0
11
935.437
21
569.280
31
0.0
0
LINE
5
16b4
8
0-0
6
CONTINUOUS
62
  7
10
935.437
20
569.280
30
0.0
11
938.046
21
568.541
31
0.0
0
LINE
5
16b5
8
0-0
6
CONTINUOUS
62
  7
10
938.046
20
568.541
30
0.0
11
939.322
21
568.164
31
0.0
0
LINE
5
16b6
8
0-0
6
CONTINUOUS
62
  7
10
939.322
20
568.164
30
0.0
11
941.508
21
567.491
31
0.0
0
LINE
5
16b7
8
0-0
6
CONTINUOUS
62
  7
10
941.508
20
567.491
30
0.0
11
943.672
21
566.779
31
0.0
0
LINE
5
16b8
8
0-0
6
CONTINUOUS
62
  7
10
943.672
20
566.779
30
0.0
11
945.814
21
566.014
31
0.0
0
LINE
5
16b9
8
0-0
6
CONTINUOUS
62
  7
10
945.814
20
566.014
30
0.0
11
947.046
21
565.541
31
0.0
0
LINE
5
16ba
8
0-0
6
CONTINUOUS
62
  7
10
947.046
20
565.541
30
0.0
11
948.029
21
565.145
31
0.0
0
LINE
5
16bb
8
0-0
6
CONTINUOUS
62
  7
10
948.029
20
565.145
30
0.0
11
949.714
21
564.435
31
0.0
0
LINE
5
16bc
8
0-0
6
CONTINUOUS
62
  7
10
949.714
20
564.435
30
0.0
11
951.393
21
563.703
31
0.0
0
LINE
5
16bd
8
0-0
6
CONTINUOUS
62
  7
10
951.393
20
563.703
30
0.0
11
953.071
21
562.965
31
0.0
0
LINE
5
16be
8
0-0
6
CONTINUOUS
62
  7
10
953.071
20
562.965
30
0.0
11
954.046
21
562.541
31
0.0
0
LINE
5
16bf
8
0-0
6
CONTINUOUS
62
  7
10
954.046
20
562.541
30
0.0
11
955.016
21
562.126
31
0.0
0
LINE
5
16c0
8
0-0
6
CONTINUOUS
62
  7
10
955.016
20
562.126
30
0.0
11
956.692
21
561.416
31
0.0
0
LINE
5
16c1
8
0-0
6
CONTINUOUS
62
  7
10
956.692
20
561.416
30
0.0
11
958.366
21
560.705
31
0.0
0
LINE
5
16c2
8
0-0
6
CONTINUOUS
62
  7
10
958.366
20
560.705
30
0.0
11
960.032
21
559.977
31
0.0
0
LINE
5
16c3
8
0-0
6
CONTINUOUS
62
  7
10
1145.046
20
572.791
30
0.0
11
1145.046
21
569.989
31
0.0
0
LINE
5
16c4
8
0-0
6
CONTINUOUS
62
  7
10
1145.046
20
572.791
30
0.0
11
1153.046
21
572.791
31
0.0
0
LINE
5
16c5
8
0-0
6
CONTINUOUS
62
  7
10
1153.046
20
572.791
30
0.0
11
1153.046
21
556.419
31
0.0
0
LINE
5
16c6
8
ADD_LINE
6
HIDDEN
62
  3
10
1026.026
20
531.081
30
0.0
11
966.032
21
531.081
31
0.0
0
LINE
5
16c7
8
ADD_LINE
6
HIDDEN
62
  3
10
1115.885
20
531.081
30
0.0
11
1115.885
21
620.270
31
0.0
0
LINE
5
16c8
8
ADD_LINE
6
HIDDEN
62
  3
10
1026.026
20
531.081
30
0.0
11
1087.405
21
531.081
31
0.0
0
LINE
5
16c9
8
ADD_LINE
6
HIDDEN
62
  3
10
1037.838
20
529.748
30
0.0
11
1037.838
21
532.837
31
0.0
0
LINE
5
16ca
8
ADD_LINE
6
HIDDEN
62
  3
10
1037.838
20
532.837
30
0.0
11
1037.838
21
536.415
31
0.0
0
LINE
5
16cb
8
ADD_LINE
6
HIDDEN
62
  3
10
1037.838
20
529.748
30
0.0
11
1037.838
21
524.633
31
0.0
0
CIRCLE
5
16cc
8
0-0
6
CONTINUOUS
62
  7
10
1073.046
20
1134.668
30
0.0
40
3.000
0
CIRCLE
5
16cd
8
0-0
6
CONTINUOUS
62
  7
10
988.046
20
1134.668
30
0.0
40
3.000
0
ARC
5
16ce
8
0-0
6
CONTINUOUS
62
  7
10
1054.046
20
1128.668
30
0.0
40
2.000
50
270.000000
51
0.000000
0
ARC
5
16cf
8
0-0
6
CONTINUOUS
62
  7
10
1003.046
20
1128.668
30
0.0
40
2.000
50
180.000000
51
270.000000
0
ARC
5
16d0
8
0-0
6
CONTINUOUS
62
  7
10
974.546
20
1115.168
30
0.0
40
1.500
50
90.000000
51
180.000000
0
ARC
5
16d1
8
0-0
6
CONTINUOUS
62
  7
10
974.546
20
1114.168
30
0.0
40
1.500
50
180.000000
51
270.000000
0
ARC
5
16d2
8
0-0
6
CONTINUOUS
62
  7
10
1031.546
20
1115.168
30
0.0
40
1.500
50
0.000000
51
90.000000
0
ARC
5
16d3
8
0-0
6
CONTINUOUS
62
  7
10
1031.546
20
1114.168
30
0.0
40
1.500
50
270.000000
51
0.000000
0
ARC
5
16d4
8
0-0
6
CONTINUOUS
62
  7
10
1064.546
20
1114.168
30
0.0
40
1.500
50
180.000000
51
270.000000
0
ARC
5
16d5
8
0-0
6
CONTINUOUS
62
  7
10
1064.546
20
1115.168
30
0.0
40
1.500
50
90.000000
51
180.000000
0
ARC
5
16d6
8
0-0
6
CONTINUOUS
62
  7
10
1121.546
20
1115.168
30
0.0
40
1.500
50
0.000000
51
90.000000
0
ARC
5
16d7
8
0-0
6
CONTINUOUS
62
  7
10
1121.546
20
1114.168
30
0.0
40
1.500
50
270.000000
51
0.000000
0
CIRCLE
5
16d8
8
0-0
6
CONTINUOUS
62
  7
10
938.046
20
981.668
30
0.0
40
3.000
0
CIRCLE
5
16d9
8
0-0
6
CONTINUOUS
62
  7
10
938.046
20
949.668
30
0.0
40
3.000
0
ARC
5
16da
8
0-0
6
CONTINUOUS
62
  7
10
1428.892
20
874.156
30
0.0
40
37.984
50
182.246185
51
205.826172
0
ARC
5
16db
8
0-0
6
CONTINUOUS
62
  7
10
1404.984
20
859.747
30
0.0
40
10.195
50
216.747940
51
261.324615
0
ARC
5
16dc
8
0-0
6
CONTINUOUS
62
  7
10
920.608
20
543.024
30
0.0
40
11.534
50
93.066727
51
170.010605
0
ARC
5
16dd
8
0-0
6
CONTINUOUS
62
  7
10
1379.984
20
859.747
30
0.0
40
10.195
50
216.747940
51
261.327423
0
ARC
5
16de
8
0-0
6
CONTINUOUS
62
  7
10
1403.892
20
874.156
30
0.0
40
37.984
50
182.246643
51
205.826172
0
CIRCLE
5
16df
8
ADD_LINE
6
HIDDEN
62
  3
10
907.903
20
531.081
30
0.0
40
3.000
0
ARC
5
16e0
8
0-0
6
CONTINUOUS
62
  7
10
897.276
20
863.699
30
0.0
40
15.784
50
176.476639
51
242.739014
0
ARC
5
16e1
8
0-0
6
CONTINUOUS
62
  7
10
597.825
20
876.310
30
0.0
40
40.389
50
318.727539
51
357.669739
0
CIRCLE
5
16e2
8
ADD_LINE
6
HIDDEN
62
  3
10
1115.885
20
572.092
30
0.0
40
3.000
0
ARC
5
16e3
8
0-0
6
CONTINUOUS
62
  7
10
1040.680
20
784.130
30
0.0
40
238.220
50
250.211990
51
295.983246
0
ARC
5
16e4
8
0-0
6
CONTINUOUS
62
  7
10
1072.386
20
883.846
30
0.0
40
358.282
50
249.932312
51
255.524185
0
ARC
5
16e5
8
0-0
6
CONTINUOUS
62
  7
10
900.996
20
416.402
30
0.0
40
139.439
50
69.690155
51
82.170837
0
ARC
5
16e6
8
0-0
6
CONTINUOUS
62
  7
10
1038.104
20
806.048
30
0.0
40
274.821
50
258.392212
51
294.723572
0
CIRCLE
5
16e7
8
ADD_LINE
6
HIDDEN
62
  3
10
1037.838
20
531.081
30
0.0
40
3.000
0
TEXT
5
16e8
100
AcDbEntity
8
0-0
62
7
100
AcDbText
10
604.431
20
1372.033
30
0.0
40
9.750
41
0.800
50
0.001
1
55
100
AcDbText
0
TEXT
5
16e9
100
AcDbEntity
8
0-0
62
7
100
AcDbText
10
1022.170
20
1372.033
30
0.0
40
9.750
41
0.800
50
0.000
1
243
100
AcDbText
0
TEXT
5
16ea
100
AcDbEntity
8
0-0
62
7
100
AcDbText
10
918.796
20
1307.168
30
0.0
40
9.750
41
0.800
50
0.001
1
30
100
AcDbText
0
TEXT
5
16eb
100
AcDbEntity
8
0-0
62
7
100
AcDbText
10
1037.171
20
1307.168
30
0.0
40
9.750
41
0.800
50
0.000
1
213
100
AcDbText
0
TEXT
5
16ec
100
AcDbEntity
8
0-0
62
7
100
AcDbText
10
1392.687
20
1307.168
30
0.0
40
9.750
41
0.800
50
0.001
1
16
100
AcDbText
0
TEXT
5
16ed
100
AcDbEntity
8
0-0
62
7
100
AcDbText
10
891.305
20
419.330
30
0.0
40
9.750
41
0.800
50
0.000
1
17
100
AcDbText
0
TEXT
5
16ee
100
AcDbEntity
8
0-0
62
7
100
AcDbText
10
591.931
20
719.330
30
0.0
40
9.750
41
0.800
50
0.000
1
80
100
AcDbText
0
TEXT
5
16ef
100
AcDbEntity
8
0-0
62
7
100
AcDbText
10
1007.171
20
719.330
30
0.0
40
9.750
41
0.800
50
0.000
1
273
100
AcDbText
0
TEXT
5
16f0
100
AcDbEntity
8
0-0
62
7
100
AcDbText
10
1131.796
20
763.924
30
0.0
40
9.750
41
0.800
50
0.000
1
30
100
AcDbText
0
TEXT
5
16f1
100
AcDbEntity
8
0-0
62
7
100
AcDbText
10
388.383
20
992.793
30
0.0
40
9.750
41
0.800
50
90.000
1
305
100
AcDbText
0
TEXT
5
16f2
100
AcDbEntity
8
0-0
62
7
100
AcDbText
10
1280.275
20
992.793
30
0.0
40
9.750
41
0.800
50
90.000
1
305
100
AcDbText
0
TEXT
5
16f3
100
AcDbEntity
8
0-0
62
7
100
AcDbText
10
1235.681
20
858.418
30
0.0
40
9.750
41
0.800
50
90.000
1
30
100
AcDbText
0
TEXT
5
16f4
100
AcDbEntity
8
0-0
62
7
100
AcDbText
10
791.410
20
525.317
30
0.0
40
9.750
41
0.800
50
90.000
1
80
100
AcDbText
0
TEXT
5
16f5
100
AcDbEntity
8
0-0
62
7
100
AcDbText
10
994.010
20
652.436
30
0.0
40
9.750
41
0.800
50
0.000
1
225
100
AcDbText
0
POINT
5
16f6
8
0-0
62
  7
10
583.181
20
1369.533
30
0.0
0
POINT
5
16f7
8
0-0
62
  7
10
638.181
20
1369.533
30
0.0
0
POINT
5
16f8
8
0-0
62
  7
10
910.046
20
1369.533
30
0.0
0
POINT
5
16f9
8
0-0
62
  7
10
1153.046
20
1369.533
30
0.0
0
POINT
5
16fa
8
0-0
62
  7
10
910.046
20
1304.668
30
0.0
0
POINT
5
16fb
8
0-0
62
  7
10
940.046
20
1304.668
30
0.0
0
POINT
5
16fc
8
0-0
62
  7
10
1153.046
20
1304.668
30
0.0
0
POINT
5
16fd
8
0-0
62
  7
10
1390.937
20
1304.668
30
0.0
0
POINT
5
16fe
8
0-0
62
  7
10
1406.937
20
1304.668
30
0.0
0
POINT
5
16ff
8
0-0
62
  7
10
889.046
20
416.830
30
0.0
0
POINT
5
1700
8
0-0
62
  7
10
906.064
20
416.830
30
0.0
0
POINT
5
1701
8
0-0
62
  7
10
558.181
20
716.830
30
0.0
0
POINT
5
1702
8
0-0
62
  7
10
638.181
20
716.830
30
0.0
0
POINT
5
1703
8
0-0
62
  7
10
880.046
20
716.830
30
0.0
0
POINT
5
1704
8
0-0
62
  7
10
1153.046
20
716.830
30
0.0
0
POINT
5
1705
8
0-0
62
  7
10
1153.046
20
761.424
30
0.0
0
POINT
5
1706
8
0-0
62
  7
10
1123.046
20
761.424
30
0.0
0
POINT
5
1707
8
0-0
62
  7
10
390.883
20
1154.668
30
0.0
0
POINT
5
1708
8
0-0
62
  7
10
390.883
20
849.668
30
0.0
0
POINT
5
1709
8
0-0
62
  7
10
1282.775
20
1154.668
30
0.0
0
POINT
5
170a
8
0-0
62
  7
10
1282.775
20
849.668
30
0.0
0
POINT
5
170b
8
0-0
62
  7
10
1238.181
20
849.668
30
0.0
0
POINT
5
170c
8
0-0
62
  7
10
1238.181
20
879.668
30
0.0
0
POINT
5
170d
8
0-0
62
  7
10
793.910
20
491.541
30
0.0
0
POINT
5
170e
8
0-0
62
  7
10
793.910
20
571.593
30
0.0
0
POINT
5
170f
8
0-0
62
  7
10
890.885
20
649.936
30
0.0
0
POINT
5
1710
8
0-0
62
  7
10
1115.885
20
649.936
30
0.0
0
ENDSEC
0
EOF
