0
SECTION
2
HEADER
  9
$EXTMIN
10
0
20
0
30
0
  9
$EXTMAX
10
1406.757
20
1266.621
30
0
  9
$LTSCALE
40
5.000
  9
$DIMSCALE
40
5.000
  9
$PDMODE
70
0
  9
$PDSIZE
40
40
0
ENDSEC
0
SECTION
2
TABLES
0
TABLE
2
LTYPE
70
9
0
LTYPE
5
1f4
2
CONTINUOUS
70
0
3
実線
72
65
73
0
40
0.0
0
LTYPE
5
1f5
2
DOT
70
0
3
--  --  --  --  --  --  --  --     
72
65
73
2
40
5.000
49
1.000
49
-4.000
0
LTYPE
5
1f6
2
DASHED
70
0
3
----    ----    ----    ----    
72
65
73
2
40
5.000
49
2.000
49
-3.000
0
LTYPE
5
1f7
2
DASHED2
70
0
3
------  ------  ------  ------ 
72
65
73
2
40
10.000
49
4.000
49
-6.000
0
LTYPE
5
1f8
2
CENTER
70
0
3
----- - ----- - ----- - ----- - 
72
65
73
4
40
9.000
49
6.000
49
-1.000
49
1.000
49
-1.000
0
LTYPE
5
1f9
2
CENTER2
70
0
3
----------  --  ----------  -- 
72
65
73
4
40
18.000
49
12.000
49
-2.000
49
2.000
49
-2.000
0
LTYPE
5
1fa
2
PHANTOM
70
0
3
--- - - --- - - --- - - --- - -
72
65
73
6
40
10.000
49
5.000
49
-1.000
49
1.000
49
-1.000
49
1.000
49
-1.000
0
LTYPE
5
1fb
2
PHANTOM2
70
0
3
--------  -  -  --------  -  -
72
65
73
6
40
16.000
49
6.000
49
-2.000
49
2.000
49
-2.000
49
2.000
49
-2.000
0
LTYPE
5
1fc
2
HIDDEN
70
0
3
-   -   -   -   -   -   -   -   
72
65
73
2
40
2.500
49
0.500
49
-2.000
0
ENDTAB
0
TABLE
2
STYLE
70
1
0
STYLE
5
1fd
100
AcDbSymbolTableRecord
100
AcDbTextStyleTableRecord
2
STANDARD
70
0
40
0.0
41
1.0
50
0.0
71
0
42
0.0
3
txt.shx
4
extfont.shx
0
STYLE
5
1fe
100
AcDbSymbolTableRecord
100
AcDbTextStyleTableRecord
2
TATEGAKI
70
4
40
0.0
41
1.0
50
0.0
71
0
42
0.0
3
txt.shx
4
extfont.shx
0
STYLE
5
1ff
100
AcDbSymbolTableRecord
100
AcDbTextStyleTableRecord
2
MT
70
0
40
0.0
41
1.0
50
0.0
71
0
42
0.0
3
MS Mincho
4

0
STYLE
5
200
100
AcDbSymbolTableRecord
100
AcDbTextStyleTableRecord
2
TMT
70
4
40
0.0
41
1.0
50
0.0
71
0
42
0.0
3
@MS Mincho
4

0
ENDTAB
0
TABLE
2
LAYER
5
ab8
100
AcDbSymbolTable
70
10
0
LAYER
5
ab9
100
AcDbSymbolTableRecord
100
AcDbLayerTableRecord
2
0
70
64
62
  7
  6
CONTINUOUS
0
LAYER
5
aba
100
AcDbSymbolTableRecord
100
AcDbLayerTableRecord
2
0-0
70
64
62
  7
  6
CONTINUOUS
0
LAYER
5
abb
100
AcDbSymbolTableRecord
100
AcDbLayerTableRecord
2
ADD_LINE
70
64
62
  -7
  6
CONTINUOUS
0
ENDTAB
0
ENDSEC
0
SECTION
2
ENTITIES
0
LINE
5
abc
8
0-0
6
CONTINUOUS
62
  7
10
801.554
20
855.945
30
0.0
11
801.554
21
1120.945
31
0.0
0
LINE
5
abd
8
0-0
6
CONTINUOUS
62
  7
10
801.554
20
1120.945
30
0.0
11
1006.554
21
1120.945
31
0.0
0
LINE
5
abe
8
0-0
6
CONTINUOUS
62
  7
10
1006.554
20
1120.945
30
0.0
11
1006.554
21
855.945
31
0.0
0
LINE
5
abf
8
0-0
6
CONTINUOUS
62
  7
10
1006.554
20
855.945
30
0.0
11
801.554
21
855.945
31
0.0
0
LINE
5
ac0
8
ADD_LINE
6
HIDDEN
62
  7
10
904.054
20
1120.945
30
0.0
11
904.054
21
855.945
31
0.0
0
LINE
5
ac1
8
0-0
6
CONTINUOUS
62
  7
10
801.554
20
595.946
30
0.0
11
801.554
21
568.946
31
0.0
0
LINE
5
ac2
8
0-0
6
CONTINUOUS
62
  7
10
1006.554
20
595.946
30
0.0
11
1006.554
21
568.946
31
0.0
0
LINE
5
ac3
8
0-0
6
CONTINUOUS
62
  7
10
1244.595
20
1120.945
30
0.0
11
1244.595
21
855.945
31
0.0
0
LINE
5
ac4
8
0-0
6
CONTINUOUS
62
  7
10
1262.595
20
1120.945
30
0.0
11
1262.595
21
855.945
31
0.0
0
LINE
5
ac5
8
0-0
6
CONTINUOUS
62
  7
10
1244.595
20
855.945
30
0.0
11
1289.595
21
855.945
31
0.0
0
LINE
5
ac6
8
0-0
6
CONTINUOUS
62
  7
10
1289.595
20
1120.945
30
0.0
11
1289.595
21
855.945
31
0.0
0
LINE
5
ac7
8
0-0
6
CONTINUOUS
62
  7
10
1244.595
20
1120.945
30
0.0
11
1289.595
21
1120.945
31
0.0
0
LINE
5
ac8
8
0-0
6
CONTINUOUS
62
  7
10
801.554
20
1264.121
30
0.0
11
1006.554
21
1264.121
31
0.0
0
LINE
5
ac9
8
0-0
6
CONTINUOUS
62
  7
10
801.554
20
1154.661
30
0.0
11
801.554
21
1264.121
31
0.0
0
LINE
5
aca
8
0-0
6
CONTINUOUS
62
  7
10
1006.554
20
1154.661
30
0.0
11
1006.554
21
1264.121
31
0.0
0
LINE
5
acb
8
0-0
6
CONTINUOUS
62
  7
10
1244.595
20
1264.121
30
0.0
11
1289.595
21
1264.121
31
0.0
0
LINE
5
acc
8
0-0
6
CONTINUOUS
62
  7
10
1244.595
20
1154.661
30
0.0
11
1244.595
21
1264.121
31
0.0
0
LINE
5
acd
8
0-0
6
CONTINUOUS
62
  7
10
1289.595
20
1154.661
30
0.0
11
1289.595
21
1264.121
31
0.0
0
LINE
5
ace
8
0-0
6
CONTINUOUS
62
  7
10
801.554
20
1223.580
30
0.0
11
904.054
21
1223.580
31
0.0
0
LINE
5
acf
8
0-0
6
CONTINUOUS
62
  7
10
801.554
20
1154.661
30
0.0
11
801.554
21
1223.580
31
0.0
0
LINE
5
ad0
8
0-0
6
CONTINUOUS
62
  7
10
904.054
20
1154.661
30
0.0
11
904.054
21
1223.580
31
0.0
0
LINE
5
ad1
8
0-0
6
CONTINUOUS
62
  7
10
904.054
20
1223.580
30
0.0
11
1006.554
21
1223.580
31
0.0
0
LINE
5
ad2
8
0-0
6
CONTINUOUS
62
  7
10
1006.554
20
1154.661
30
0.0
11
1006.554
21
1223.580
31
0.0
0
LINE
5
ad3
8
0-0
6
CONTINUOUS
62
  7
10
1244.595
20
1223.580
30
0.0
11
1262.595
21
1223.580
31
0.0
0
LINE
5
ad4
8
0-0
6
CONTINUOUS
62
  7
10
1244.595
20
1154.661
30
0.0
11
1244.595
21
1223.580
31
0.0
0
LINE
5
ad5
8
0-0
6
CONTINUOUS
62
  7
10
1262.595
20
1154.661
30
0.0
11
1262.595
21
1223.580
31
0.0
0
LINE
5
ad6
8
0-0
6
CONTINUOUS
62
  7
10
1262.595
20
1223.580
30
0.0
11
1289.595
21
1223.580
31
0.0
0
LINE
5
ad7
8
0-0
6
CONTINUOUS
62
  7
10
1289.595
20
1154.661
30
0.0
11
1289.595
21
1223.580
31
0.0
0
LINE
5
ad8
8
0-0
6
CONTINUOUS
62
  7
10
1406.757
20
855.945
30
0.0
11
1406.757
21
1120.945
31
0.0
0
LINE
5
ad9
8
0-0
6
CONTINUOUS
62
  7
10
1337.838
20
855.945
30
0.0
11
1406.757
21
855.945
31
0.0
0
LINE
5
ada
8
0-0
6
CONTINUOUS
62
  7
10
1337.838
20
1120.945
30
0.0
11
1406.757
21
1120.945
31
0.0
0
LINE
5
adb
8
0-0
6
CONTINUOUS
62
  7
10
595.946
20
1120.945
30
0.0
11
595.946
21
855.945
31
0.0
0
LINE
5
adc
8
0-0
6
CONTINUOUS
62
  7
10
741.892
20
1120.945
30
0.0
11
595.946
21
1120.945
31
0.0
0
LINE
5
add
8
0-0
6
CONTINUOUS
62
  7
10
741.892
20
855.945
30
0.0
11
595.946
21
855.945
31
0.0
0
LINE
5
ade
8
0-0
6
CONTINUOUS
62
  7
10
595.946
20
595.946
30
0.0
11
595.946
21
568.946
31
0.0
0
LINE
5
adf
8
0-0
6
CONTINUOUS
62
  7
10
741.892
20
595.946
30
0.0
11
595.946
21
595.946
31
0.0
0
LINE
5
ae0
8
0-0
6
CONTINUOUS
62
  7
10
741.892
20
568.946
30
0.0
11
595.946
21
568.946
31
0.0
0
LINE
5
ae1
8
0-0
6
CONTINUOUS
62
  7
10
595.946
20
595.946
30
0.0
11
595.946
21
613.946
31
0.0
0
LINE
5
ae2
8
0-0
6
CONTINUOUS
62
  7
10
741.892
20
613.946
30
0.0
11
595.946
21
613.946
31
0.0
0
LINE
5
ae3
8
0-0
6
CONTINUOUS
62
  7
10
801.554
20
441.148
30
0.0
11
1006.554
21
441.148
31
0.0
0
LINE
5
ae4
8
0-0
6
CONTINUOUS
62
  7
10
801.554
20
526.283
30
0.0
11
801.554
21
441.148
31
0.0
0
LINE
5
ae5
8
0-0
6
CONTINUOUS
62
  7
10
1006.554
20
526.283
30
0.0
11
1006.554
21
441.148
31
0.0
0
LINE
5
ae6
8
ADD_LINE
6
HIDDEN
62
  3
10
904.054
20
650.480
30
0.0
11
904.054
21
549.927
31
0.0
0
CIRCLE
5
ae7
8
0-0
6
CONTINUOUS
62
  7
10
914.054
20
988.445
30
0.0
40
3.000
0
CIRCLE
5
ae8
8
0-0
6
CONTINUOUS
62
  7
10
894.054
20
988.445
30
0.0
40
3.000
0
ARC
5
ae9
8
0-0
6
CONTINUOUS
62
  7
10
904.054
20
313.106
30
0.0
40
300.840
50
70.079697
51
109.920303
0
ARC
5
aea
8
0-0
6
CONTINUOUS
62
  7
10
904.054
20
387.886
30
0.0
40
208.060
50
60.485336
51
119.514664
0
CIRCLE
5
aeb
8
ADD_LINE
6
HIDDEN
62
  3
10
904.054
20
595.946
30
0.0
40
3.000
0
TEXT
5
aec
100
AcDbEntity
8
0-0
62
7
100
AcDbText
10
894.679
20
1266.621
30
0.0
40
9.750
41
0.800
50
0.000
1
205
100
AcDbText
0
TEXT
5
aed
100
AcDbEntity
8
0-0
62
7
100
AcDbText
10
1260.845
20
1266.621
30
0.0
40
9.750
41
0.800
50
0.000
1
45
100
AcDbText
0
TEXT
5
aee
100
AcDbEntity
8
0-0
62
7
100
AcDbText
10
843.429
20
1226.080
30
0.0
40
9.750
41
0.800
50
0.000
1
102
100
AcDbText
0
TEXT
5
aef
100
AcDbEntity
8
0-0
62
7
100
AcDbText
10
945.929
20
1226.080
30
0.0
40
9.750
41
0.800
50
0.000
1
102
100
AcDbText
0
TEXT
5
af0
100
AcDbEntity
8
0-0
62
7
100
AcDbText
10
1247.345
20
1226.080
30
0.0
40
9.750
41
0.800
50
0.000
1
18
100
AcDbText
0
TEXT
5
af1
100
AcDbEntity
8
0-0
62
7
100
AcDbText
10
1269.845
20
1226.080
30
0.0
40
9.750
41
0.800
50
0.000
1
27
100
AcDbText
0
TEXT
5
af2
100
AcDbEntity
8
0-0
62
7
100
AcDbText
10
1404.257
20
979.070
30
0.0
40
9.750
41
0.800
50
90.000
1
265
100
AcDbText
0
TEXT
5
af3
100
AcDbEntity
8
0-0
62
7
100
AcDbText
10
593.446
20
979.070
30
0.0
40
9.750
41
0.800
50
90.000
1
265
100
AcDbText
0
TEXT
5
af4
100
AcDbEntity
8
0-0
62
7
100
AcDbText
10
593.446
20
576.196
30
0.0
40
9.750
41
0.800
50
90.000
1
27
100
AcDbText
0
TEXT
5
af5
100
AcDbEntity
8
0-0
62
7
100
AcDbText
10
593.446
20
598.696
30
0.0
40
9.750
41
0.800
50
90.000
1
18
100
AcDbText
0
TEXT
5
af6
100
AcDbEntity
8
0-0
62
7
100
AcDbText
10
894.679
20
443.648
30
0.0
40
9.750
41
0.800
50
0.000
1
205
100
AcDbText
0
POINT
5
af7
8
0-0
62
  7
10
801.554
20
1264.121
30
0.0
0
POINT
5
af8
8
0-0
62
  7
10
1006.554
20
1264.121
30
0.0
0
POINT
5
af9
8
0-0
62
  7
10
1244.595
20
1264.121
30
0.0
0
POINT
5
afa
8
0-0
62
  7
10
1289.595
20
1264.121
30
0.0
0
POINT
5
afb
8
0-0
62
  7
10
801.554
20
1223.580
30
0.0
0
POINT
5
afc
8
0-0
62
  7
10
904.054
20
1223.580
30
0.0
0
POINT
5
afd
8
0-0
62
  7
10
1006.554
20
1223.580
30
0.0
0
POINT
5
afe
8
0-0
62
  7
10
1244.595
20
1223.580
30
0.0
0
POINT
5
aff
8
0-0
62
  7
10
1262.595
20
1223.580
30
0.0
0
POINT
5
b00
8
0-0
62
  7
10
1289.595
20
1223.580
30
0.0
0
POINT
5
b01
8
0-0
62
  7
10
1406.757
20
855.945
30
0.0
0
POINT
5
b02
8
0-0
62
  7
10
1406.757
20
1120.945
30
0.0
0
POINT
5
b03
8
0-0
62
  7
10
595.946
20
1120.945
30
0.0
0
POINT
5
b04
8
0-0
62
  7
10
595.946
20
855.945
30
0.0
0
POINT
5
b05
8
0-0
62
  7
10
595.946
20
595.946
30
0.0
0
POINT
5
b06
8
0-0
62
  7
10
595.946
20
568.946
30
0.0
0
POINT
5
b07
8
0-0
62
  7
10
595.946
20
613.946
30
0.0
0
POINT
5
b08
8
0-0
62
  7
10
801.554
20
441.148
30
0.0
0
POINT
5
b09
8
0-0
62
  7
10
1006.554
20
441.148
30
0.0
0
ENDSEC
0
EOF
