0
SECTION
2
HEADER
  9
$EXTMIN
10
0
20
0
30
0
  9
$EXTMAX
10
1531.421
20
1324.122
30
0
  9
$LTSCALE
40
5.000
  9
$DIMSCALE
40
5.000
  9
$PDMODE
70
0
  9
$PDSIZE
40
40
0
ENDSEC
0
SECTION
2
TABLES
0
TABLE
2
LTYPE
70
9
0
LTYPE
5
1f4
2
CONTINUOUS
70
0
3
実線
72
65
73
0
40
0.0
0
LTYPE
5
1f5
2
DOT
70
0
3
--  --  --  --  --  --  --  --     
72
65
73
2
40
5.000
49
1.000
49
-4.000
0
LTYPE
5
1f6
2
DASHED
70
0
3
----    ----    ----    ----    
72
65
73
2
40
5.000
49
2.000
49
-3.000
0
LTYPE
5
1f7
2
DASHED2
70
0
3
------  ------  ------  ------ 
72
65
73
2
40
10.000
49
4.000
49
-6.000
0
LTYPE
5
1f8
2
CENTER
70
0
3
----- - ----- - ----- - ----- - 
72
65
73
4
40
9.000
49
6.000
49
-1.000
49
1.000
49
-1.000
0
LTYPE
5
1f9
2
CENTER2
70
0
3
----------  --  ----------  -- 
72
65
73
4
40
18.000
49
12.000
49
-2.000
49
2.000
49
-2.000
0
LTYPE
5
1fa
2
PHANTOM
70
0
3
--- - - --- - - --- - - --- - -
72
65
73
6
40
10.000
49
5.000
49
-1.000
49
1.000
49
-1.000
49
1.000
49
-1.000
0
LTYPE
5
1fb
2
PHANTOM2
70
0
3
--------  -  -  --------  -  -
72
65
73
6
40
16.000
49
6.000
49
-2.000
49
2.000
49
-2.000
49
2.000
49
-2.000
0
LTYPE
5
1fc
2
HIDDEN
70
0
3
-   -   -   -   -   -   -   -   
72
65
73
2
40
2.500
49
0.500
49
-2.000
0
ENDTAB
0
TABLE
2
STYLE
70
1
0
STYLE
5
1fd
100
AcDbSymbolTableRecord
100
AcDbTextStyleTableRecord
2
STANDARD
70
0
40
0.0
41
1.0
50
0.0
71
0
42
0.0
3
txt.shx
4
extfont.shx
0
STYLE
5
1fe
100
AcDbSymbolTableRecord
100
AcDbTextStyleTableRecord
2
TATEGAKI
70
4
40
0.0
41
1.0
50
0.0
71
0
42
0.0
3
txt.shx
4
extfont.shx
0
STYLE
5
1ff
100
AcDbSymbolTableRecord
100
AcDbTextStyleTableRecord
2
MT
70
0
40
0.0
41
1.0
50
0.0
71
0
42
0.0
3
MS Mincho
4

0
STYLE
5
200
100
AcDbSymbolTableRecord
100
AcDbTextStyleTableRecord
2
TMT
70
4
40
0.0
41
1.0
50
0.0
71
0
42
0.0
3
@MS Mincho
4

0
ENDTAB
0
TABLE
2
LAYER
5
b0e
100
AcDbSymbolTable
70
10
0
LAYER
5
b0f
100
AcDbSymbolTableRecord
100
AcDbLayerTableRecord
2
0
70
64
62
  7
  6
CONTINUOUS
0
LAYER
5
b10
100
AcDbSymbolTableRecord
100
AcDbLayerTableRecord
2
0-0
70
64
62
  7
  6
CONTINUOUS
0
LAYER
5
b11
100
AcDbSymbolTableRecord
100
AcDbLayerTableRecord
2
0-1
70
64
62
  7
  6
CONTINUOUS
0
LAYER
5
b12
100
AcDbSymbolTableRecord
100
AcDbLayerTableRecord
2
0-2
70
64
62
  7
  6
CONTINUOUS
0
LAYER
5
b13
100
AcDbSymbolTableRecord
100
AcDbLayerTableRecord
2
ADD_LINE
70
64
62
  -7
  6
CONTINUOUS
0
ENDTAB
0
ENDSEC
0
SECTION
2
ENTITIES
0
LINE
5
b14
8
0-0
6
CONTINUOUS
62
  7
10
956.757
20
1073.243
30
0.0
11
956.757
21
843.243
31
0.0
0
LINE
5
b15
8
0-0
6
CONTINUOUS
62
  7
10
901.757
20
1073.243
30
0.0
11
901.757
21
843.243
31
0.0
0
LINE
5
b16
8
0-0
6
CONTINUOUS
62
  7
10
901.757
20
603.811
30
0.0
11
901.757
21
420.811
31
0.0
0
LINE
5
b17
8
0-0
6
CONTINUOUS
62
  7
10
344.595
20
1073.243
30
0.0
11
353.595
21
1049.879
31
0.0
0
LINE
5
b18
8
0-0
6
CONTINUOUS
62
  7
10
1371.216
20
1097.472
30
0.0
11
1364.049
21
1067.617
31
0.0
0
LINE
5
b19
8
0-0
6
CONTINUOUS
62
  7
10
1364.049
20
1067.617
30
0.0
11
1357.216
21
1049.879
31
0.0
0
LINE
5
b1a
8
0-0
6
CONTINUOUS
62
  7
10
956.757
20
606.811
30
0.0
11
956.757
21
420.811
31
0.0
0
LINE
5
b1b
8
ADD_LINE
6
HIDDEN
62
  3
10
956.757
20
420.811
30
0.0
11
965.992
21
420.811
31
0.0
0
LINE
5
b1c
8
ADD_LINE
6
HIDDEN
62
  3
10
956.757
20
420.811
30
0.0
11
956.757
21
410.097
31
0.0
0
LINE
5
b1d
8
ADD_LINE
6
HIDDEN
62
  3
10
539.189
20
958.243
30
0.0
11
308.108
21
958.243
31
0.0
0
LINE
5
b1e
8
0-0
6
CONTINUOUS
62
  7
10
901.757
20
1073.243
30
0.0
11
676.757
21
1073.243
31
0.0
0
LINE
5
b1f
8
0-2
6
CONTINUOUS
62
  7
10
676.757
20
1073.243
30
0.0
11
676.757
21
843.243
31
0.0
0
LINE
5
b20
8
0-0
6
CONTINUOUS
62
  7
10
901.757
20
843.243
30
0.0
11
676.757
21
843.243
31
0.0
0
LINE
5
b21
8
0-2
6
CONTINUOUS
62
  7
10
344.595
20
843.243
30
0.0
11
254.595
21
836.792
31
0.0
0
LINE
5
b22
8
0-2
6
CONTINUOUS
62
  7
10
263.595
20
857.489
30
0.0
11
254.595
21
836.792
31
0.0
0
LINE
5
b23
8
0-2
6
CONTINUOUS
62
  7
10
263.595
20
857.489
30
0.0
11
353.595
21
866.608
31
0.0
0
LINE
5
b24
8
0-2
6
CONTINUOUS
62
  7
10
901.757
20
420.811
30
0.0
11
676.757
21
420.811
31
0.0
0
LINE
5
b25
8
0-0
6
CONTINUOUS
62
  7
10
901.757
20
603.811
30
0.0
11
676.757
21
603.811
31
0.0
0
LINE
5
b26
8
0-2
6
CONTINUOUS
62
  7
10
676.757
20
603.811
30
0.0
11
676.757
21
420.811
31
0.0
0
LINE
5
b27
8
0-2
6
CONTINUOUS
62
  7
10
1447.216
20
857.489
30
0.0
11
1456.216
21
836.792
31
0.0
0
LINE
5
b28
8
0-2
6
CONTINUOUS
62
  7
10
1447.216
20
857.489
30
0.0
11
1357.216
21
866.608
31
0.0
0
LINE
5
b29
8
0-2
6
CONTINUOUS
62
  7
10
1371.216
20
819.014
30
0.0
11
1464.040
21
812.361
31
0.0
0
LINE
5
b2a
8
0-2
6
CONTINUOUS
62
  7
10
1456.216
20
836.792
30
0.0
11
1464.040
21
812.361
31
0.0
0
LINE
5
b2b
8
0-2
6
CONTINUOUS
62
  7
10
1366.132
20
840.195
30
0.0
11
1457.218
21
833.666
31
0.0
0
LINE
5
b2c
8
ADD_LINE
6
HIDDEN
62
  3
10
539.189
20
958.243
30
0.0
11
1520.270
21
958.243
31
0.0
0
LINE
5
b2d
8
0-2
6
CONTINUOUS
62
  7
10
1364.049
20
848.869
30
0.0
11
1453.761
21
842.439
31
0.0
0
LINE
5
b2e
8
0-2
6
CONTINUOUS
62
  7
10
344.595
20
1321.622
30
0.0
11
437.595
21
1321.622
31
0.0
0
LINE
5
b2f
8
0-2
6
CONTINUOUS
62
  7
10
344.595
20
1155.406
30
0.0
11
344.595
21
1321.622
31
0.0
0
LINE
5
b30
8
0-2
6
CONTINUOUS
62
  7
10
437.595
20
1155.406
30
0.0
11
437.595
21
1321.622
31
0.0
0
LINE
5
b31
8
0-2
6
CONTINUOUS
62
  7
10
676.757
20
1321.622
30
0.0
11
901.757
21
1321.622
31
0.0
0
LINE
5
b32
8
0-2
6
CONTINUOUS
62
  7
10
676.757
20
1155.406
30
0.0
11
676.757
21
1321.622
31
0.0
0
LINE
5
b33
8
0-2
6
CONTINUOUS
62
  7
10
901.757
20
1155.406
30
0.0
11
901.757
21
1321.622
31
0.0
0
LINE
5
b34
8
0-2
6
CONTINUOUS
62
  7
10
901.757
20
1321.622
30
0.0
11
956.757
21
1321.622
31
0.0
0
LINE
5
b35
8
0-2
6
CONTINUOUS
62
  7
10
956.757
20
1155.406
30
0.0
11
956.757
21
1321.622
31
0.0
0
LINE
5
b36
8
0-2
6
CONTINUOUS
62
  7
10
676.757
20
259.459
30
0.0
11
901.757
21
259.459
31
0.0
0
LINE
5
b37
8
0-2
6
CONTINUOUS
62
  7
10
676.757
20
372.973
30
0.0
11
676.757
21
259.459
31
0.0
0
LINE
5
b38
8
0-2
6
CONTINUOUS
62
  7
10
901.757
20
372.973
30
0.0
11
901.757
21
259.459
31
0.0
0
LINE
5
b39
8
0-2
6
CONTINUOUS
62
  7
10
901.757
20
259.459
30
0.0
11
956.757
21
259.459
31
0.0
0
LINE
5
b3a
8
0-2
6
CONTINUOUS
62
  7
10
956.757
20
372.973
30
0.0
11
956.757
21
259.459
31
0.0
0
LINE
5
b3b
8
0-2
6
CONTINUOUS
62
  7
10
1094.595
20
1098.243
30
0.0
11
1094.595
21
818.243
31
0.0
0
LINE
5
b3c
8
0-2
6
CONTINUOUS
62
  7
10
1001.351
20
1098.243
30
0.0
11
1094.595
21
1098.243
31
0.0
0
LINE
5
b3d
8
0-2
6
CONTINUOUS
62
  7
10
1001.351
20
818.243
30
0.0
11
1094.595
21
818.243
31
0.0
0
LINE
5
b3e
8
0-2
6
CONTINUOUS
62
  7
10
531.081
20
1073.243
30
0.0
11
531.081
21
843.243
31
0.0
0
LINE
5
b3f
8
0-2
6
CONTINUOUS
62
  7
10
620.270
20
1073.243
30
0.0
11
531.081
21
1073.243
31
0.0
0
LINE
5
b40
8
0-2
6
CONTINUOUS
62
  7
10
620.270
20
843.243
30
0.0
11
531.081
21
843.243
31
0.0
0
LINE
5
b41
8
0-2
6
CONTINUOUS
62
  7
10
531.081
20
603.811
30
0.0
11
531.081
21
420.811
31
0.0
0
LINE
5
b42
8
0-2
6
CONTINUOUS
62
  7
10
620.270
20
603.811
30
0.0
11
531.081
21
603.811
31
0.0
0
LINE
5
b43
8
0-2
6
CONTINUOUS
62
  7
10
620.270
20
420.811
30
0.0
11
531.081
21
420.811
31
0.0
0
ARC
5
b44
8
0-0
6
CONTINUOUS
62
  7
10
929.257
20
1070.618
30
0.0
40
27.625
50
365.452820
51
534.547180
0
ARC
5
b45
8
0-0
6
CONTINUOUS
62
  7
10
929.257
20
845.868
30
0.0
40
27.625
50
185.452545
51
354.547424
0
CIRCLE
5
b46
8
0-0
6
CONTINUOUS
62
  7
10
861.757
20
958.243
30
0.0
40
3.000
0
CIRCLE
5
b47
8
0-0
6
CONTINUOUS
62
  7
10
831.757
20
958.243
30
0.0
40
3.000
0
ARC
5
b48
8
0-0
6
CONTINUOUS
62
  7
10
929.257
20
493.936
30
0.0
40
78.125
50
249.390335
51
290.609619
0
ARC
5
b49
8
0-0
6
CONTINUOUS
62
  7
10
929.633
20
598.421
30
0.0
40
28.392
50
377.186829
51
529.057495
0
ARC
5
b4a
8
0-0
6
CONTINUOUS
62
  7
10
319.992
20
958.243
30
0.0
40
97.602
50
290.137695
51
429.862305
0
ARC
5
b4b
8
0-0
6
CONTINUOUS
62
  7
10
1390.818
20
958.243
30
0.0
40
140.602
50
458.014038
51
261.985962
0
ARC
5
b4c
8
0-0
6
CONTINUOUS
62
  7
10
1390.818
20
958.243
30
0.0
40
112.602
50
463.752838
51
256.247192
0
ARC
5
b4d
8
0-0
6
CONTINUOUS
62
  7
10
1390.818
20
958.243
30
0.0
40
120.602
50
461.811768
51
258.188263
0
CIRCLE
5
b4e
8
ADD_LINE
6
HIDDEN
62
  3
10
956.757
20
420.811
30
0.0
40
3.000
0
CIRCLE
5
b4f
8
ADD_LINE
6
HIDDEN
62
  3
10
956.757
20
958.243
30
0.0
40
3.000
0
ARC
5
b50
8
0-0
6
CONTINUOUS
62
  7
10
319.992
20
958.243
30
0.0
40
117.602
50
282.075378
51
437.924622
0
ARC
5
b51
8
0-0
6
CONTINUOUS
62
  7
10
1390.818
20
958.243
30
0.0
40
97.602
50
470.137695
51
249.862350
0
TEXT
5
b52
100
AcDbEntity
8
0-2
62
7
100
AcDbText
10
409.475
20
911.054
30
0.0
40
9.750
41
0.800
50
336.371
1
20
100
AcDbText
0
TEXT
5
b53
100
AcDbEntity
8
0-2
62
7
100
AcDbText
10
384.845
20
1324.122
30
0.0
40
9.750
41
0.800
50
0.000
1
93
100
AcDbText
0
TEXT
5
b54
100
AcDbEntity
8
0-2
62
7
100
AcDbText
10
779.882
20
1324.122
30
0.0
40
9.750
41
0.800
50
0.000
1
225
100
AcDbText
0
TEXT
5
b55
100
AcDbEntity
8
0-2
62
7
100
AcDbText
10
923.007
20
1324.122
30
0.0
40
9.750
41
0.800
50
0.000
1
55
100
AcDbText
0
TEXT
5
b56
100
AcDbEntity
8
0-2
62
7
100
AcDbText
10
779.882
20
261.959
30
0.0
40
9.750
41
0.800
50
0.000
1
225
100
AcDbText
0
TEXT
5
b57
100
AcDbEntity
8
0-2
62
7
100
AcDbText
10
923.007
20
261.959
30
0.0
40
9.750
41
0.800
50
0.000
1
55
100
AcDbText
0
TEXT
5
b58
100
AcDbEntity
8
0-2
62
7
100
AcDbText
10
1092.095
20
948.868
30
0.0
40
9.750
41
0.800
50
90.000
1
280
100
AcDbText
0
TEXT
5
b59
100
AcDbEntity
8
0-2
62
7
100
AcDbText
10
528.581
20
948.868
30
0.0
40
9.750
41
0.800
50
90.000
1
230
100
AcDbText
0
TEXT
5
b5a
100
AcDbEntity
8
0-2
62
7
100
AcDbText
10
528.581
20
502.936
30
0.0
40
9.750
41
0.800
50
90.000
1
183
100
AcDbText
0
POINT
5
b5b
8
0-2
62
  7
10
344.595
20
1321.622
30
0.0
0
POINT
5
b5c
8
0-2
62
  7
10
437.595
20
1321.622
30
0.0
0
POINT
5
b5d
8
0-2
62
  7
10
676.757
20
1321.622
30
0.0
0
POINT
5
b5e
8
0-2
62
  7
10
901.757
20
1321.622
30
0.0
0
POINT
5
b5f
8
0-2
62
  7
10
956.757
20
1321.622
30
0.0
0
POINT
5
b60
8
0-2
62
  7
10
676.757
20
259.459
30
0.0
0
POINT
5
b61
8
0-2
62
  7
10
901.757
20
259.459
30
0.0
0
POINT
5
b62
8
0-2
62
  7
10
956.757
20
259.459
30
0.0
0
POINT
5
b63
8
0-2
62
  7
10
1094.595
20
1098.243
30
0.0
0
POINT
5
b64
8
0-2
62
  7
10
1094.595
20
818.243
30
0.0
0
POINT
5
b65
8
0-2
62
  7
10
531.081
20
1073.243
30
0.0
0
POINT
5
b66
8
0-2
62
  7
10
531.081
20
843.243
30
0.0
0
POINT
5
b67
8
0-2
62
  7
10
531.081
20
603.811
30
0.0
0
POINT
5
b68
8
0-2
62
  7
10
531.081
20
420.811
30
0.0
0
ENDSEC
0
EOF
