0
SECTION
2
HEADER
  9
$EXTMIN
10
0
20
0
30
0
  9
$EXTMAX
10
1396.946
20
1279.527
30
0
  9
$LTSCALE
40
5.000
  9
$DIMSCALE
40
5.000
  9
$PDMODE
70
0
  9
$PDSIZE
40
40
0
ENDSEC
0
SECTION
2
TABLES
0
TABLE
2
LTYPE
70
9
0
LTYPE
5
1f4
2
CONTINUOUS
70
0
3
実線
72
65
73
0
40
0.0
0
LTYPE
5
1f5
2
DOT
70
0
3
--  --  --  --  --  --  --  --     
72
65
73
2
40
5.000
49
1.000
49
-4.000
0
LTYPE
5
1f6
2
DASHED
70
0
3
----    ----    ----    ----    
72
65
73
2
40
5.000
49
2.000
49
-3.000
0
LTYPE
5
1f7
2
DASHED2
70
0
3
------  ------  ------  ------ 
72
65
73
2
40
10.000
49
4.000
49
-6.000
0
LTYPE
5
1f8
2
CENTER
70
0
3
----- - ----- - ----- - ----- - 
72
65
73
4
40
9.000
49
6.000
49
-1.000
49
1.000
49
-1.000
0
LTYPE
5
1f9
2
CENTER2
70
0
3
----------  --  ----------  -- 
72
65
73
4
40
18.000
49
12.000
49
-2.000
49
2.000
49
-2.000
0
LTYPE
5
1fa
2
PHANTOM
70
0
3
--- - - --- - - --- - - --- - -
72
65
73
6
40
10.000
49
5.000
49
-1.000
49
1.000
49
-1.000
49
1.000
49
-1.000
0
LTYPE
5
1fb
2
PHANTOM2
70
0
3
--------  -  -  --------  -  -
72
65
73
6
40
16.000
49
6.000
49
-2.000
49
2.000
49
-2.000
49
2.000
49
-2.000
0
LTYPE
5
1fc
2
HIDDEN
70
0
3
-   -   -   -   -   -   -   -   
72
65
73
2
40
2.500
49
0.500
49
-2.000
0
ENDTAB
0
TABLE
2
STYLE
70
1
0
STYLE
5
1fd
100
AcDbSymbolTableRecord
100
AcDbTextStyleTableRecord
2
STANDARD
70
0
40
0.0
41
1.0
50
0.0
71
0
42
0.0
3
txt.shx
4
extfont.shx
0
STYLE
5
1fe
100
AcDbSymbolTableRecord
100
AcDbTextStyleTableRecord
2
TATEGAKI
70
4
40
0.0
41
1.0
50
0.0
71
0
42
0.0
3
txt.shx
4
extfont.shx
0
STYLE
5
1ff
100
AcDbSymbolTableRecord
100
AcDbTextStyleTableRecord
2
MT
70
0
40
0.0
41
1.0
50
0.0
71
0
42
0.0
3
MS Mincho
4

0
STYLE
5
200
100
AcDbSymbolTableRecord
100
AcDbTextStyleTableRecord
2
TMT
70
4
40
0.0
41
1.0
50
0.0
71
0
42
0.0
3
@MS Mincho
4

0
ENDTAB
0
TABLE
2
LAYER
5
4951
100
AcDbSymbolTable
70
10
0
LAYER
5
4952
100
AcDbSymbolTableRecord
100
AcDbLayerTableRecord
2
0
70
64
62
  7
  6
CONTINUOUS
0
LAYER
5
4953
100
AcDbSymbolTableRecord
100
AcDbLayerTableRecord
2
0-0
70
64
62
  7
  6
CONTINUOUS
0
LAYER
5
4954
100
AcDbSymbolTableRecord
100
AcDbLayerTableRecord
2
0-1
70
64
62
  7
  6
CONTINUOUS
0
LAYER
5
4955
100
AcDbSymbolTableRecord
100
AcDbLayerTableRecord
2
0-2
70
64
62
  7
  6
CONTINUOUS
0
LAYER
5
4956
100
AcDbSymbolTableRecord
100
AcDbLayerTableRecord
2
ADD_LINE
70
64
62
  -7
  6
CONTINUOUS
0
ENDTAB
0
ENDSEC
0
SECTION
2
ENTITIES
0
LINE
5
4957
8
0-0
6
CONTINUOUS
62
  7
10
660.811
20
1063.635
30
0.0
11
660.811
21
906.635
31
0.0
0
LINE
5
4958
8
0-0
6
CONTINUOUS
62
  7
10
1083.811
20
1063.635
30
0.0
11
1160.811
21
985.135
31
0.0
0
LINE
5
4959
8
0-0
6
CONTINUOUS
62
  7
10
1160.811
20
985.135
30
0.0
11
1083.811
21
906.635
31
0.0
0
LINE
5
495a
8
0-0
6
CONTINUOUS
62
  7
10
660.811
20
906.635
30
0.0
11
1083.811
21
906.635
31
0.0
0
LINE
5
495b
8
0-0
6
CONTINUOUS
62
  7
10
660.811
20
1063.635
30
0.0
11
1083.811
21
1063.635
31
0.0
0
LINE
5
495c
8
0-0
6
CONTINUOUS
62
  7
10
660.811
20
985.135
30
0.0
11
967.811
21
985.135
31
0.0
0
LINE
5
495d
8
0-0
6
CONTINUOUS
62
  7
10
973.811
20
985.135
30
0.0
11
1160.811
21
985.135
31
0.0
0
LINE
5
495e
8
0-0
6
CONTINUOUS
62
  7
10
660.811
20
664.649
30
0.0
11
660.811
21
648.649
31
0.0
0
LINE
5
495f
8
0-0
6
CONTINUOUS
62
  7
10
660.811
20
664.649
30
0.0
11
1160.811
21
664.649
31
0.0
0
LINE
5
4960
8
0-0
6
CONTINUOUS
62
  7
10
1083.811
20
648.649
30
0.0
11
1160.811
21
664.649
31
0.0
0
LINE
5
4961
8
0-0
6
CONTINUOUS
62
  7
10
1160.811
20
664.649
30
0.0
11
1159.393
21
629.354
31
0.0
0
LINE
5
4962
8
0-0
6
CONTINUOUS
62
  7
10
660.811
20
648.649
30
0.0
11
1083.811
21
648.649
31
0.0
0
LINE
5
4963
8
0-0
6
CONTINUOUS
62
  7
10
1345.946
20
985.135
30
0.0
11
1361.946
21
906.635
31
0.0
0
LINE
5
4964
8
0-0
6
CONTINUOUS
62
  7
10
1361.946
20
1063.635
30
0.0
11
1345.946
21
985.135
31
0.0
0
LINE
5
4965
8
0-0
6
CONTINUOUS
62
  7
10
1083.811
20
648.649
30
0.0
11
1077.639
21
613.649
31
0.0
0
LINE
5
4966
8
0-0
6
CONTINUOUS
62
  7
10
1077.639
20
613.649
30
0.0
11
1159.393
21
629.354
31
0.0
0
LINE
5
4967
8
0-0
6
CONTINUOUS
62
  7
10
1345.946
20
985.135
30
0.0
11
1380.946
21
985.135
31
0.0
0
LINE
5
4968
8
0-0
6
CONTINUOUS
62
  7
10
1361.946
20
906.635
30
0.0
11
1396.946
21
906.635
31
0.0
0
LINE
5
4969
8
0-0
6
CONTINUOUS
62
  7
10
1361.946
20
1063.635
30
0.0
11
1396.946
21
1063.635
31
0.0
0
LINE
5
496a
8
0-0
6
CONTINUOUS
62
  7
10
1396.946
20
1063.635
30
0.0
11
1380.946
21
985.135
31
0.0
0
LINE
5
496b
8
0-0
6
CONTINUOUS
62
  7
10
1380.946
20
985.135
30
0.0
11
1396.946
21
906.635
31
0.0
0
LINE
5
496c
8
0-0
6
CONTINUOUS
62
  7
10
441.892
20
1063.635
30
0.0
11
457.892
21
985.135
31
0.0
0
LINE
5
496d
8
0-0
6
CONTINUOUS
62
  7
10
457.892
20
985.135
30
0.0
11
441.892
21
906.635
31
0.0
0
LINE
5
496e
8
0-0
6
CONTINUOUS
62
  7
10
441.892
20
906.635
30
0.0
11
440.871
21
906.635
31
0.0
0
LINE
5
496f
8
0-0
6
CONTINUOUS
62
  7
10
441.892
20
1063.635
30
0.0
11
440.871
21
1063.635
31
0.0
0
LINE
5
4970
8
0-0
6
CONTINUOUS
62
  7
10
456.871
20
985.135
30
0.0
11
440.871
21
906.635
31
0.0
0
LINE
5
4971
8
0-0
6
CONTINUOUS
62
  7
10
440.871
20
1063.635
30
0.0
11
456.871
21
985.135
31
0.0
0
LINE
5
4972
8
ADD_LINE
6
HIDDEN
62
  3
10
660.811
20
985.135
30
0.0
11
356.757
21
985.135
31
0.0
0
LINE
5
4973
8
ADD_LINE
6
HIDDEN
62
  3
10
1083.811
20
648.649
30
0.0
11
1092.388
21
648.649
31
0.0
0
LINE
5
4974
8
ADD_LINE
6
HIDDEN
62
  3
10
1083.811
20
648.649
30
0.0
11
1083.811
21
653.932
31
0.0
0
LINE
5
4975
8
0-2
6
CONTINUOUS
62
  7
10
660.811
20
1277.027
30
0.0
11
1160.811
21
1277.027
31
0.0
0
LINE
5
4976
8
0-2
6
CONTINUOUS
62
  7
10
660.811
20
1139.189
30
0.0
11
660.811
21
1277.027
31
0.0
0
LINE
5
4977
8
0-2
6
CONTINUOUS
62
  7
10
1160.811
20
1139.189
30
0.0
11
1160.811
21
1277.027
31
0.0
0
LINE
5
4978
8
0-2
6
CONTINUOUS
62
  7
10
1345.946
20
1277.027
30
0.0
11
1396.946
21
1277.027
31
0.0
0
LINE
5
4979
8
0-2
6
CONTINUOUS
62
  7
10
1345.946
20
1139.189
30
0.0
11
1345.946
21
1277.027
31
0.0
0
LINE
5
497a
8
0-2
6
CONTINUOUS
62
  7
10
1396.946
20
1139.189
30
0.0
11
1396.946
21
1277.027
31
0.0
0
LINE
5
497b
8
0-2
6
CONTINUOUS
62
  7
10
660.811
20
1220.270
30
0.0
11
1083.811
21
1220.270
31
0.0
0
LINE
5
497c
8
0-2
6
CONTINUOUS
62
  7
10
660.811
20
1139.189
30
0.0
11
660.811
21
1220.270
31
0.0
0
LINE
5
497d
8
0-2
6
CONTINUOUS
62
  7
10
1083.811
20
1139.189
30
0.0
11
1083.811
21
1220.270
31
0.0
0
LINE
5
497e
8
0-2
6
CONTINUOUS
62
  7
10
1083.811
20
1220.270
30
0.0
11
1160.811
21
1220.270
31
0.0
0
LINE
5
497f
8
0-2
6
CONTINUOUS
62
  7
10
1160.811
20
1139.189
30
0.0
11
1160.811
21
1220.270
31
0.0
0
LINE
5
4980
8
0-2
6
CONTINUOUS
62
  7
10
660.811
20
433.784
30
0.0
11
1083.811
21
433.784
31
0.0
0
LINE
5
4981
8
0-2
6
CONTINUOUS
62
  7
10
660.811
20
539.189
30
0.0
11
660.811
21
433.784
31
0.0
0
LINE
5
4982
8
0-2
6
CONTINUOUS
62
  7
10
1083.811
20
539.189
30
0.0
11
1083.811
21
433.784
31
0.0
0
LINE
5
4983
8
0-2
6
CONTINUOUS
62
  7
10
531.081
20
1063.635
30
0.0
11
531.081
21
906.635
31
0.0
0
LINE
5
4984
8
0-2
6
CONTINUOUS
62
  7
10
600.000
20
1063.635
30
0.0
11
531.081
21
1063.635
31
0.0
0
LINE
5
4985
8
0-2
6
CONTINUOUS
62
  7
10
600.000
20
906.635
30
0.0
11
531.081
21
906.635
31
0.0
0
LINE
5
4986
8
0-2
6
CONTINUOUS
62
  7
10
531.081
20
664.649
30
0.0
11
531.081
21
648.649
31
0.0
0
LINE
5
4987
8
0-2
6
CONTINUOUS
62
  7
10
600.000
20
664.649
30
0.0
11
531.081
21
664.649
31
0.0
0
LINE
5
4988
8
0-2
6
CONTINUOUS
62
  7
10
600.000
20
648.649
30
0.0
11
531.081
21
648.649
31
0.0
0
LINE
5
4989
8
0-2
6
CONTINUOUS
62
  7
10
1268.919
20
664.649
30
0.0
11
1268.919
21
629.354
31
0.0
0
LINE
5
498a
8
0-2
6
CONTINUOUS
62
  7
10
1204.054
20
664.649
30
0.0
11
1268.919
21
664.649
31
0.0
0
LINE
5
498b
8
0-2
6
CONTINUOUS
62
  7
10
1204.054
20
629.354
30
0.0
11
1268.919
21
629.354
31
0.0
0
CIRCLE
5
498c
8
0-0
6
CONTINUOUS
62
  7
10
970.811
20
985.135
30
0.0
40
3.000
0
CIRCLE
5
498d
8
ADD_LINE
6
HIDDEN
62
  3
10
1083.811
20
648.649
30
0.0
40
3.000
0
CIRCLE
5
498e
8
ADD_LINE
6
HIDDEN
62
  3
10
660.811
20
985.135
30
0.0
40
3.000
0
TEXT
5
498f
100
AcDbEntity
8
0-2
62
7
100
AcDbText
10
901.436
20
1279.527
30
0.0
40
9.750
41
0.800
50
0.000
1
500
100
AcDbText
0
TEXT
5
4990
100
AcDbEntity
8
0-2
62
7
100
AcDbText
10
1365.196
20
1279.527
30
0.0
40
9.750
41
0.800
50
0.000
1
51
100
AcDbText
0
TEXT
5
4991
100
AcDbEntity
8
0-2
62
7
100
AcDbText
10
862.936
20
1222.770
30
0.0
40
9.750
41
0.800
50
0.000
1
423
100
AcDbText
0
TEXT
5
4992
100
AcDbEntity
8
0-2
62
7
100
AcDbText
10
1116.061
20
1222.770
30
0.0
40
9.750
41
0.800
50
0.000
1
77
100
AcDbText
0
TEXT
5
4993
100
AcDbEntity
8
0-2
62
7
100
AcDbText
10
862.936
20
436.284
30
0.0
40
9.750
41
0.800
50
0.000
1
423
100
AcDbText
0
TEXT
5
4994
100
AcDbEntity
8
0-2
62
7
100
AcDbText
10
528.581
20
975.760
30
0.0
40
9.750
41
0.800
50
90.000
1
157
100
AcDbText
0
TEXT
5
4995
100
AcDbEntity
8
0-2
62
7
100
AcDbText
10
528.581
20
650.399
30
0.0
40
9.750
41
0.800
50
90.000
1
16
100
AcDbText
0
TEXT
5
4996
100
AcDbEntity
8
0-2
62
7
100
AcDbText
10
1266.419
20
640.751
30
0.0
40
9.750
41
0.800
50
90.000
1
35
100
AcDbText
0
POINT
5
4997
8
0-2
62
  7
10
660.811
20
1277.027
30
0.0
0
POINT
5
4998
8
0-2
62
  7
10
1160.811
20
1277.027
30
0.0
0
POINT
5
4999
8
0-2
62
  7
10
1345.946
20
1277.027
30
0.0
0
POINT
5
499a
8
0-2
62
  7
10
1396.946
20
1277.027
30
0.0
0
POINT
5
499b
8
0-2
62
  7
10
660.811
20
1220.270
30
0.0
0
POINT
5
499c
8
0-2
62
  7
10
1083.811
20
1220.270
30
0.0
0
POINT
5
499d
8
0-2
62
  7
10
1160.811
20
1220.270
30
0.0
0
POINT
5
499e
8
0-2
62
  7
10
660.811
20
433.784
30
0.0
0
POINT
5
499f
8
0-2
62
  7
10
1083.811
20
433.784
30
0.0
0
POINT
5
49a0
8
0-2
62
  7
10
531.081
20
1063.635
30
0.0
0
POINT
5
49a1
8
0-2
62
  7
10
531.081
20
906.635
30
0.0
0
POINT
5
49a2
8
0-2
62
  7
10
531.081
20
664.649
30
0.0
0
POINT
5
49a3
8
0-2
62
  7
10
531.081
20
648.649
30
0.0
0
POINT
5
49a4
8
0-2
62
  7
10
1268.919
20
664.649
30
0.0
0
POINT
5
49a5
8
0-2
62
  7
10
1268.919
20
629.354
30
0.0
0
ENDSEC
0
EOF
