  0
SECTION
  2
HEADER
  9
$EXTMIN
 10
0
 20
0
  9
$EXTMAX
 10
2100
 20
1485
  0
ENDSEC
  0
SECTION
  2
TABLES
  0
TABLE
  2
LTYPE
 70
     9
  0
LTYPE
  2
CONTINUOUS
 70
    64
  3
実線
 72
    65
 73
     0
 40
0.0
  0
LTYPE
  2
DASHED1
 70
    64
  3
--  --  --  --  --  --  --  --  
 72
    65
 73
     2
 40
2.5
 49
1.25
 49
-1.25
  0
LTYPE
  2
DASHED2
 70
    64
  3
----    ----    ----    ----    
 72
    65
 73
     2
 40
5.0
 49
2.5
 49
-2.5
  0
LTYPE
  2
DASHED3
 70
    64
  3
------  ------  ------  ------  
 72
    65
 73
     2
 40
5.0
 49
3.75
 49
-1.25
  0
LTYPE
  2
CENTER1
 70
    64
  3
----- - ----- - ----- - ----- - 
 72
    65
 73
     4
 40
10.0
 49
6.25
 49
-1.25
 49
1.25
 49
-1.25
  0
LTYPE
  2
CENTER2
 70
    64
  3
----------  --  ----------  --  
 72
    65
 73
     4
 40
20.0
 49
12.5
 49
-2.5
 49
2.5
 49
-2.5
  0
LTYPE
  2
PHANTOM1
 70
    64
  3
--- - - --- - - --- - - --- - - 
 72
    65
 73
     6
 40
10.0
 49
3.25
 49
-1.25
 49
1.25
 49
-1.25
 49
1.25
 49
-1.25
  0
LTYPE
  2
PHANTOM2
 70
    64
  3
--------  -  -  --------  -  -  
 72
    65
 73
     6
 40
20.0
 49
10.0
 49
-2.5
 49
1.25
 49
-2.5
 49
1.25
 49
-2.5
  0
LTYPE
  2
DOT
 70
    64
  3
-   -   -   -   -   -   -   -   
 72
    65
 73
     2
 40
2.5
 49
0.625
 49
-1.875
  0
ENDTAB
  0
TABLE
  2
STYLE
 70
    1
  0
STYLE
  2
STANDARD
 70
    64
 40
0.0
 41
1.0
 42
0.0
 50
0.0
 71
     0
  3
TXT
  4
BIGFONT
  0
ENDTAB
  0
TABLE
  2
LAYER
 70
    3
  0
LAYER
  2
0-0
 70
   64
 62
    7
  6
CONTINUOUS
  0
LAYER
  2
ADD_LINE
 70
   64
 62
    7
  6
CONTINUOUS
  0
LAYER
  2
ADD_LINE
 70
   64
 62
    7
  6
CONTINUOUS
  0
ENDTAB
  0
ENDSEC
  0
SECTION
  2
ENTITIES
  0
LINE
  8
0-0
  6
CONTINUOUS
 62
    7
 10
1110.1951
 20
1095.272
 11
1110.1951
 21
745.27201
  0
LINE
  8
0-0
  6
CONTINUOUS
 62
    7
 10
807.19507
 20
745.27201
 11
1110.1951
 21
745.27201
  0
LINE
  8
0-0
  6
CONTINUOUS
 62
    7
 10
772.19508
 20
770.27204
 11
807.19507
 21
770.27204
  0
LINE
  8
0-0
  6
CONTINUOUS
 62
    7
 10
772.19508
 20
1095.272
 11
1110.1951
 21
1095.272
  0
LINE
  8
0-0
  6
CONTINUOUS
 62
    7
 10
772.19508
 20
1095.272
 11
772.19508
 21
770.27204
  0
LINE
  8
0-0
  6
CONTINUOUS
 62
    7
 10
807.19507
 20
1095.272
 11
807.19507
 21
745.27201
  0
LINE
  8
0-0
  6
CONTINUOUS
 62
    7
 10
778.19506
 20
1089.272
 11
807.19507
 21
1089.272
  0
LINE
  8
0-0
  6
CONTINUOUS
 62
    7
 10
772.19508
 20
785.27202
 11
778.19506
 21
785.27202
  0
LINE
  8
0-0
  6
CONTINUOUS
 62
    7
 10
778.19506
 20
1089.272
 11
778.19506
 21
785.27202
  0
LINE
  8
0-0
  6
CONTINUOUS
 62
    7
 10
851.19507
 20
1095.272
 11
851.19507
 21
1083.272
  0
LINE
  8
0-0
  6
CONTINUOUS
 62
    7
 10
860.19507
 20
1082.2721
 11
860.19507
 21
1095.272
  0
LINE
  8
0-0
  6
CONTINUOUS
 62
    7
 10
852.1951
 20
1074.272
 11
816.19501
 21
1074.272
  0
LINE
  8
0-0
  6
CONTINUOUS
 62
    7
 10
816.19501
 20
1083.272
 11
851.19507
 21
1083.272
  0
LINE
  8
0-0
  6
CONTINUOUS
 62
    7
 10
816.19501
 20
1095.272
 11
816.19501
 21
1083.272
  0
LINE
  8
0-0
  6
CONTINUOUS
 62
    7
 10
816.19501
 20
1074.272
 11
816.19501
 21
745.27201
  0
LINE
  8
0-0
  6
CONTINUOUS
 62
    7
 10
1021.195
 20
1084.272
 11
1060.1949
 21
1084.272
  0
LINE
  8
0-0
  6
CONTINUOUS
 62
    7
 10
1021.195
 20
1095.272
 11
1021.195
 21
1084.272
  0
LINE
  8
0-0
  6
CONTINUOUS
 62
    7
 10
1060.1949
 20
1095.272
 11
1060.1949
 21
1084.272
  0
LINE
  8
0-0
  6
CONTINUOUS
 62
    7
 10
1012.195
 20
1075.272
 11
1012.195
 21
1070.5311
  0
LINE
  8
0-0
  6
CONTINUOUS
 62
    7
 10
995.19503
 20
1083.772
 11
995.19503
 21
1070.5311
  0
LINE
  8
0-0
  6
CONTINUOUS
 62
    7
 10
1012.195
 20
1083.772
 11
1012.195
 21
1075.272
  0
LINE
  8
0-0
  6
CONTINUOUS
 62
    7
 10
1103.195
 20
1075.272
 11
1103.195
 21
1014.272
  0
LINE
  8
0-0
  6
CONTINUOUS
 62
    7
 10
1103.195
 20
1014.272
 11
1110.1951
 21
1014.272
  0
LINE
  8
0-0
  6
CONTINUOUS
 62
    7
 10
914.69512
 20
1075.272
 11
914.69512
 21
1070.5311
  0
LINE
  8
0-0
  6
CONTINUOUS
 62
    7
 10
897.69508
 20
1083.772
 11
897.69508
 21
1070.5311
  0
LINE
  8
0-0
  6
CONTINUOUS
 62
    7
 10
914.69512
 20
1083.772
 11
914.69512
 21
1075.272
  0
LINE
  8
0-0
  6
CONTINUOUS
 62
    7
 10
1021.195
 20
1075.272
 11
1103.195
 21
1075.272
  0
LINE
  8
0-0
  6
CONTINUOUS
 62
    7
 10
1021.195
 20
1075.272
 11
1020.695
 21
1075.272
  0
LINE
  8
0-0
  6
CONTINUOUS
 62
    7
 10
807.19507
 20
1014.272
 11
816.19501
 21
1014.272
  0
LINE
  8
0-0
  6
CONTINUOUS
 62
    7
 10
806.19504
 20
785.27202
 11
807.19507
 21
785.27202
  0
LINE
  8
0-0
  6
CONTINUOUS
 62
    7
 10
806.19504
 20
1069.492
 11
806.19504
 21
785.27202
  0
LINE
  8
0-0
  6
CONTINUOUS
 62
    7
 10
806.19504
 20
1069.492
 11
807.19507
 21
1069.492
  0
LINE
  8
0-0
  6
CONTINUOUS
 62
    7
 10
1047.195
 20
1010.57
 11
1047.195
 21
745.27201
  0
LINE
  8
0-0
  6
CONTINUOUS
 62
    7
 10
1068.1949
 20
1014.272
 11
1047.195
 21
1010.57
  0
LINE
  8
0-0
  6
CONTINUOUS
 62
    7
 10
1103.195
 20
1014.272
 11
1068.1949
 21
1014.272
  0
LINE
  8
0-0
  6
CONTINUOUS
 62
    7
 10
1068.1949
 20
1075.272
 11
1068.1949
 21
775.27199
  0
LINE
  8
0-0
  6
CONTINUOUS
 62
    7
 10
816.19501
 20
1014.272
 11
840.19501
 21
1010.041
  0
LINE
  8
0-0
  6
CONTINUOUS
 62
    7
 10
840.19501
 20
1010.041
 11
840.19501
 21
745.27201
  0
LINE
  8
0-0
  6
CONTINUOUS
 62
    7
 10
832.19503
 20
1014.272
 11
840.19501
 21
1010.041
  0
LINE
  8
0-0
  6
CONTINUOUS
 62
    7
 10
1056.1949
 20
1014.272
 11
1047.195
 21
1010.57
  0
LINE
  8
0-0
  6
CONTINUOUS
 62
    7
 10
860.19507
 20
1083.772
 11
1012.195
 21
1083.772
  0
LINE
  8
0-0
  6
CONTINUOUS
 62
    7
 10
864.71512
 20
1078.7721
 11
897.69508
 21
1078.7721
  0
LINE
  8
0-0
  6
CONTINUOUS
 62
    7
 10
914.69512
 20
1078.7721
 11
995.19503
 21
1078.7721
  0
LINE
  8
0-0
  6
CONTINUOUS
 62
    7
 10
832.19503
 20
1069.272
 11
832.19503
 21
1014.272
  0
LINE
  8
0-0
  6
CONTINUOUS
 62
    7
 10
816.19501
 20
1074.272
 11
832.19503
 21
1069.272
  0
LINE
  8
0-0
  6
CONTINUOUS
 62
    7
 10
852.1951
 20
1069.272
 11
832.19503
 21
1069.272
  0
LINE
  8
0-0
  6
CONTINUOUS
 62
    7
 10
1056.1949
 20
1070.272
 11
1068.1949
 21
1075.272
  0
LINE
  8
0-0
  6
CONTINUOUS
 62
    7
 10
1056.1949
 20
1070.272
 11
1056.1949
 21
1014.272
  0
LINE
  8
0-0
  6
CONTINUOUS
 62
    7
 10
1020.603
 20
1070.272
 11
1056.1949
 21
1070.272
  0
LINE
  8
0-0
  6
CONTINUOUS
 62
    7
 10
1110.1951
 20
300.66402
 11
1110.1951
 21
263.66403
  0
LINE
  8
0-0
  6
CONTINUOUS
 62
    7
 10
807.19507
 20
300.66402
 11
807.19507
 21
263.66403
  0
LINE
  8
0-0
  6
CONTINUOUS
 62
    7
 10
807.19507
 20
263.66403
 11
889.19509
 21
263.66403
  0
LINE
  8
0-0
  6
CONTINUOUS
 62
    7
 10
1070.1949
 20
300.66402
 11
1110.1951
 21
300.66402
  0
LINE
  8
0-0
  6
CONTINUOUS
 62
    7
 10
807.19507
 20
300.66402
 11
814.19502
 21
300.66402
  0
LINE
  8
0-0
  6
CONTINUOUS
 62
    7
 10
816.19501
 20
288.66402
 11
816.19501
 21
300.20702
  0
LINE
  8
0-0
  6
CONTINUOUS
 62
    7
 10
831.19506
 20
283.664
 11
897.19506
 21
283.664
  0
LINE
  8
0-0
  6
CONTINUOUS
 62
    7
 10
807.19507
 20
288.66402
 11
816.19501
 21
288.66402
  0
LINE
  8
0-0
  6
CONTINUOUS
 62
    7
 10
991.19504
 20
283.664
 11
1047.195
 21
283.664
  0
LINE
  8
0-0
  6
CONTINUOUS
 62
    7
 10
1068.1949
 20
288.66402
 11
1110.1951
 21
288.66402
  0
LINE
  8
0-0
  6
CONTINUOUS
 62
    7
 10
1070.1949
 20
300.66402
 11
1068.1949
 21
288.66402
  0
LINE
  8
0-0
  6
CONTINUOUS
 62
    7
 10
916.69512
 20
274.664
 11
971.69505
 21
274.664
  0
LINE
  8
0-0
  6
CONTINUOUS
 62
    7
 10
1068.1949
 20
479.96702
 11
1110.1951
 21
479.96702
  0
LINE
  8
0-0
  6
CONTINUOUS
 62
    7
 10
1095.195
 20
465.96703
 11
1100.195
 21
465.96703
  0
LINE
  8
0-0
  6
CONTINUOUS
 62
    7
 10
1075.1949
 20
467.96703
 11
1095.195
 21
467.96703
  0
LINE
  8
0-0
  6
CONTINUOUS
 62
    7
 10
1100.195
 20
467.96703
 11
1110.1951
 21
467.96703
  0
LINE
  8
0-0
  6
CONTINUOUS
 62
    7
 10
1095.195
 20
467.96703
 11
1095.195
 21
465.96703
  0
LINE
  8
0-0
  6
CONTINUOUS
 62
    7
 10
1100.195
 20
467.96703
 11
1100.195
 21
465.96703
  0
LINE
  8
0-0
  6
CONTINUOUS
 62
    7
 10
1110.1951
 20
479.96702
 11
1110.1951
 21
467.96703
  0
LINE
  8
0-0
  6
CONTINUOUS
 62
    7
 10
807.19507
 20
479.96702
 11
816.19501
 21
479.96702
  0
LINE
  8
0-0
  6
CONTINUOUS
 62
    7
 10
840.19501
 20
467.96703
 11
1049.405
 21
467.96703
  0
LINE
  8
0-0
  6
CONTINUOUS
 62
    7
 10
1385.2491
 20
747.27201
 11
1405.2491
 21
745.27201
  0
LINE
  8
0-0
  6
CONTINUOUS
 62
    7
 10
1376.2491
 20
793.272
 11
1385.2491
 21
747.27201
  0
LINE
  8
0-0
  6
CONTINUOUS
 62
    7
 10
1396.2881
 20
759.46102
 11
1405.2491
 21
753.31202
  0
LINE
  8
0-0
  6
CONTINUOUS
 62
    7
 10
1405.2491
 20
745.27201
 11
1405.2491
 21
753.31202
  0
LINE
  8
0-0
  6
CONTINUOUS
 62
    7
 10
1366.249
 20
1083.772
 11
1376.2491
 21
1078.7721
  0
LINE
  8
0-0
  6
CONTINUOUS
 62
    7
 10
1376.2491
 20
1095.272
 11
1366.249
 21
1095.272
  0
LINE
  8
0-0
  6
CONTINUOUS
 62
    7
 10
1366.249
 20
1095.272
 11
1366.249
 21
1083.772
  0
LINE
  8
0-0
  6
CONTINUOUS
 62
    7
 10
1376.2491
 20
1078.7721
 11
1376.2491
 21
793.272
  0
LINE
  8
0-0
  6
CONTINUOUS
 62
    7
 10
1393.2492
 20
1075.272
 11
1384.6511
 21
1086.0201
  0
LINE
  8
0-0
  6
CONTINUOUS
 62
    7
 10
1401.2491
 20
1090.2721
 11
1393.2492
 21
1085.2719
  0
LINE
  8
0-0
  6
CONTINUOUS
 62
    7
 10
1401.2491
 20
1095.272
 11
1401.2491
 21
1090.2721
  0
LINE
  8
0-0
  6
CONTINUOUS
 62
    7
 10
1384.6511
 20
1086.0201
 11
1384.6511
 21
1095.272
  0
LINE
  8
0-0
  6
CONTINUOUS
 62
    7
 10
1366.249
 20
1095.272
 11
1401.2491
 21
1095.272
  0
LINE
  8
0-0
  6
CONTINUOUS
 62
    7
 10
1393.2492
 20
765.23305
 11
1393.2492
 21
1085.2719
  0
LINE
  8
ADD_LINE
  6
CONTINUOUS
 62
    7
 10
772.19508
 20
1293.9211
 11
1110.1951
 21
1293.9211
  0
LINE
  8
ADD_LINE
  6
CONTINUOUS
 62
    7
 10
772.19508
 20
1147.975
 11
772.19508
 21
1293.9211
  0
LINE
  8
ADD_LINE
  6
CONTINUOUS
 62
    7
 10
1110.1951
 20
1147.975
 11
1110.1951
 21
1293.9211
  0
LINE
  8
ADD_LINE
  6
CONTINUOUS
 62
    7
 10
1366.249
 20
1293.9211
 11
1401.2491
 21
1293.9211
  0
LINE
  8
ADD_LINE
  6
CONTINUOUS
 62
    7
 10
1366.249
 20
1147.975
 11
1366.249
 21
1293.9211
  0
LINE
  8
ADD_LINE
  6
CONTINUOUS
 62
    7
 10
1401.2491
 20
1147.975
 11
1401.2491
 21
1293.9211
  0
LINE
  8
ADD_LINE
  6
CONTINUOUS
 62
    7
 10
772.19508
 20
594.74601
 11
807.19507
 21
594.74601
  0
LINE
  8
ADD_LINE
  6
CONTINUOUS
 62
    7
 10
772.19508
 20
706.51805
 11
772.19508
 21
594.74601
  0
LINE
  8
ADD_LINE
  6
CONTINUOUS
 62
    7
 10
807.19507
 20
706.51805
 11
807.19507
 21
594.74601
  0
LINE
  8
ADD_LINE
  6
CONTINUOUS
 62
    7
 10
807.19507
 20
594.74601
 11
1110.1951
 21
594.74601
  0
LINE
  8
ADD_LINE
  6
CONTINUOUS
 62
    7
 10
1110.1951
 20
706.51805
 11
1110.1951
 21
594.74601
  0
LINE
  8
ADD_LINE
  6
CONTINUOUS
 62
    7
 10
1385.2491
 20
594.74601
 11
1405.2491
 21
594.74601
  0
LINE
  8
ADD_LINE
  6
CONTINUOUS
 62
    7
 10
1385.2491
 20
706.51805
 11
1385.2491
 21
594.74601
  0
LINE
  8
ADD_LINE
  6
CONTINUOUS
 62
    7
 10
1405.2491
 20
706.51805
 11
1405.2491
 21
594.74601
  0
LINE
  8
ADD_LINE
  6
CONTINUOUS
 62
    7
 10
772.19508
 20
392.69601
 11
807.19507
 21
392.69601
  0
LINE
  8
ADD_LINE
  6
CONTINUOUS
 62
    7
 10
772.19508
 20
427.08805
 11
772.19508
 21
392.69601
  0
LINE
  8
ADD_LINE
  6
CONTINUOUS
 62
    7
 10
807.19507
 20
427.08805
 11
807.19507
 21
392.69601
  0
LINE
  8
ADD_LINE
  6
CONTINUOUS
 62
    7
 10
807.19507
 20
392.69601
 11
1110.1951
 21
392.69601
  0
LINE
  8
ADD_LINE
  6
CONTINUOUS
 62
    7
 10
1110.1951
 20
427.08805
 11
1110.1951
 21
392.69601
  0
LINE
  8
ADD_LINE
  6
CONTINUOUS
 62
    7
 10
807.19507
 20
166.894
 11
1110.1951
 21
166.894
  0
LINE
  8
ADD_LINE
  6
CONTINUOUS
 62
    7
 10
807.19507
 20
223.65101
 11
807.19507
 21
166.894
  0
LINE
  8
ADD_LINE
  6
CONTINUOUS
 62
    7
 10
1110.1951
 20
223.65101
 11
1110.1951
 21
166.894
  0
LINE
  8
ADD_LINE
  6
CONTINUOUS
 62
    7
 10
468.14104
 20
745.27201
 11
468.14104
 21
1095.272
  0
LINE
  8
ADD_LINE
  6
CONTINUOUS
 62
    7
 10
703.27603
 20
745.27201
 11
468.14104
 21
745.27201
  0
LINE
  8
ADD_LINE
  6
CONTINUOUS
 62
    7
 10
703.27603
 20
1095.272
 11
468.14104
 21
1095.272
  0
LINE
  8
ADD_LINE
  6
CONTINUOUS
 62
    7
 10
561.38401
 20
745.27201
 11
561.38401
 21
770.27204
  0
LINE
  8
ADD_LINE
  6
CONTINUOUS
 62
    7
 10
703.27603
 20
745.27201
 11
561.38401
 21
745.27201
  0
LINE
  8
ADD_LINE
  6
CONTINUOUS
 62
    7
 10
703.27603
 20
770.27204
 11
561.38401
 21
770.27204
  0
LINE
  8
ADD_LINE
  6
CONTINUOUS
 62
    7
 10
561.38401
 20
770.27204
 11
561.38401
 21
1095.272
  0
LINE
  8
ADD_LINE
  6
CONTINUOUS
 62
    7
 10
703.27603
 20
1095.272
 11
561.38401
 21
1095.272
  0
LINE
  8
ADD_LINE
  6
CONTINUOUS
 62
    7
 10
561.38401
 20
288.66402
 11
561.38401
 21
263.66403
  0
LINE
  8
ADD_LINE
  6
CONTINUOUS
 62
    7
 10
703.27603
 20
288.66402
 11
561.38401
 21
288.66402
  0
LINE
  8
ADD_LINE
  6
CONTINUOUS
 62
    7
 10
703.27603
 20
263.66403
 11
561.38401
 21
263.66403
  0
LINE
  8
ADD_LINE
  6
CONTINUOUS
 62
    7
 10
1595.168
 20
1095.272
 11
1595.168
 21
745.27201
  0
LINE
  8
ADD_LINE
  6
CONTINUOUS
 62
    7
 10
1481.6551
 20
1095.272
 11
1595.168
 21
1095.272
  0
LINE
  8
ADD_LINE
  6
CONTINUOUS
 62
    7
 10
1481.6551
 20
745.27201
 11
1595.168
 21
745.27201
  0
LINE
  8
ADD_LINE
  6
DASHED1
 62
    3
 10
807.19507
 20
479.96702
 11
807.19507
 21
494.08303
  0
LINE
  8
ADD_LINE
  6
DASHED1
 62
    3
 10
807.19507
 20
479.96702
 11
798.03806
 21
479.96702
  0
LINE
  8
ADD_LINE
  6
DASHED1
 62
    3
 10
807.19507
 20
479.96702
 11
819.428
 21
479.96702
  0
LINE
  8
ADD_LINE
  6
DASHED1
 62
    3
 10
1110.1951
 20
479.96702
 11
1110.1951
 21
494.08303
  0
LINE
  8
ADD_LINE
  6
DASHED1
 62
    3
 10
1110.1951
 20
479.96702
 11
1101.0381
 21
479.96702
  0
LINE
  8
ADD_LINE
  6
DASHED1
 62
    3
 10
1110.1951
 20
479.96702
 11
1122.428
 21
479.96702
  0
LINE
  8
ADD_LINE
  6
DASHED1
 62
    3
 10
1110.1951
 20
479.96702
 11
1110.1951
 21
468.81803
  0
LINE
  8
0-0
  6
CONTINUOUS
 62
    7
 10
999.19502
 20
263.66403
 11
1110.1951
 21
263.66403
  0
LINE
  8
0-0
  6
CONTINUOUS
 62
    7
 10
772.19508
 20
466.96703
 11
772.19508
 21
452.96704
  0
LINE
  8
0-0
  6
CONTINUOUS
 62
    7
 10
772.19508
 20
466.96703
 11
778.19506
 21
466.96703
  0
LINE
  8
0-0
  6
CONTINUOUS
 62
    7
 10
778.19506
 20
463.96704
 11
778.19506
 21
466.96703
  0
LINE
  8
0-0
  6
CONTINUOUS
 62
    7
 10
778.19506
 20
466.96703
 11
778.19506
 21
463.96704
  0
LINE
  8
0-0
  6
CONTINUOUS
 62
    7
 10
807.19507
 20
463.96704
 11
778.19506
 21
463.96704
  0
LINE
  8
0-0
  6
CONTINUOUS
 62
    7
 10
1075.1949
 20
467.96703
 11
1066.4241
 21
457.003
  0
LINE
  8
ADD_LINE
  6
DASHED1
 62
    3
 10
807.19507
 20
479.96702
 11
807.19507
 21
463.96704
  0
LINE
  8
0-0
  6
CONTINUOUS
 62
    7
 10
807.19507
 20
479.96702
 11
807.19507
 21
463.96704
  0
LINE
  8
0-0
  6
CONTINUOUS
 62
    7
 10
778.19506
 20
463.96704
 11
807.19507
 21
463.96704
  0
LINE
  8
0-0
  6
CONTINUOUS
 62
    7
 10
829.25712
 20
452.96704
 11
1059.2851
 21
452.96704
  0
LINE
  8
0-0
  6
CONTINUOUS
 62
    7
 10
772.19508
 20
452.96704
 11
807.19507
 21
452.96704
  0
LINE
  8
0-0
  6
CONTINUOUS
 62
    7
 10
842.19506
 20
288.66402
 11
1047.195
 21
288.66402
  0
LINE
  8
0-0
  6
CONTINUOUS
 62
    7
 10
867.19509
 20
830.27205
 11
867.19509
 21
790.27198
  0
LINE
  8
0-0
  6
CONTINUOUS
 62
    7
 10
867.19509
 20
790.27198
 11
1007.195
 21
790.27198
  0
LINE
  8
0-0
  6
CONTINUOUS
 62
    7
 10
1007.195
 20
830.27205
 11
1007.195
 21
790.27198
  0
LINE
  8
0-0
  6
CONTINUOUS
 62
    7
 10
867.19509
 20
830.27205
 11
1007.195
 21
830.27205
  0
LINE
  8
0-0
  6
CONTINUOUS
 62
    7
 10
890.62306
 20
477.96703
 11
890.31803
 21
477.61703
  0
LINE
  8
0-0
  6
CONTINUOUS
 62
    7
 10
890.31803
 20
477.61703
 11
890.05209
 21
477.29705
  0
LINE
  8
0-0
  6
CONTINUOUS
 62
    7
 10
890.05209
 20
477.29705
 11
889.8221
 21
477.00201
  0
LINE
  8
0-0
  6
CONTINUOUS
 62
    7
 10
889.8221
 20
477.00201
 11
889.62507
 21
476.72606
  0
LINE
  8
0-0
  6
CONTINUOUS
 62
    7
 10
889.62507
 20
476.72606
 11
889.46009
 21
476.46306
  0
LINE
  8
0-0
  6
CONTINUOUS
 62
    7
 10
889.46009
 20
476.46306
 11
889.32307
 21
476.21005
  0
LINE
  8
0-0
  6
CONTINUOUS
 62
    7
 10
889.32307
 20
476.21005
 11
889.21401
 21
475.964
  0
LINE
  8
0-0
  6
CONTINUOUS
 62
    7
 10
889.21401
 20
475.964
 11
889.131
 21
475.72303
  0
LINE
  8
0-0
  6
CONTINUOUS
 62
    7
 10
889.131
 20
475.72303
 11
889.0731
 21
475.48502
  0
LINE
  8
0-0
  6
CONTINUOUS
 62
    7
 10
889.0731
 20
475.48502
 11
889.03907
 21
475.24903
  0
LINE
  8
0-0
  6
CONTINUOUS
 62
    7
 10
889.03907
 20
475.24903
 11
889.02602
 21
475.01504
  0
LINE
  8
0-0
  6
CONTINUOUS
 62
    7
 10
889.02602
 20
475.01504
 11
889.03611
 21
474.78102
  0
LINE
  8
0-0
  6
CONTINUOUS
 62
    7
 10
889.03611
 20
474.78102
 11
889.06605
 21
474.54704
  0
LINE
  8
0-0
  6
CONTINUOUS
 62
    7
 10
889.06605
 20
474.54704
 11
889.11609
 21
474.31401
  0
LINE
  8
0-0
  6
CONTINUOUS
 62
    7
 10
889.11609
 20
474.31401
 11
889.185
 21
474.08102
  0
LINE
  8
0-0
  6
CONTINUOUS
 62
    7
 10
889.185
 20
474.08102
 11
889.27303
 21
473.84901
  0
LINE
  8
0-0
  6
CONTINUOUS
 62
    7
 10
889.27303
 20
473.84901
 11
889.37906
 21
473.61806
  0
LINE
  8
0-0
  6
CONTINUOUS
 62
    7
 10
889.37906
 20
473.61806
 11
889.50098
 21
473.38803
  0
LINE
  8
0-0
  6
CONTINUOUS
 62
    7
 10
889.50098
 20
473.38803
 11
889.64004
 21
473.16005
  0
LINE
  8
0-0
  6
CONTINUOUS
 62
    7
 10
889.64004
 20
473.16005
 11
889.79401
 21
472.93305
  0
LINE
  8
0-0
  6
CONTINUOUS
 62
    7
 10
889.79401
 20
472.93305
 11
889.96203
 21
472.70906
  0
LINE
  8
0-0
  6
CONTINUOUS
 62
    7
 10
889.96203
 20
472.70906
 11
890.14507
 21
472.48704
  0
LINE
  8
0-0
  6
CONTINUOUS
 62
    7
 10
890.14507
 20
472.48704
 11
890.34005
 21
472.26704
  0
LINE
  8
0-0
  6
CONTINUOUS
 62
    7
 10
890.34005
 20
472.26704
 11
890.54802
 21
472.05099
  0
LINE
  8
0-0
  6
CONTINUOUS
 62
    7
 10
890.54802
 20
472.05099
 11
890.76806
 21
471.83807
  0
LINE
  8
0-0
  6
CONTINUOUS
 62
    7
 10
890.76806
 20
471.83807
 11
890.99806
 21
471.62706
  0
LINE
  8
0-0
  6
CONTINUOUS
 62
    7
 10
890.99806
 20
471.62706
 11
891.23906
 21
471.41903
  0
LINE
  8
0-0
  6
CONTINUOUS
 62
    7
 10
891.23906
 20
471.41903
 11
891.49108
 21
471.21501
  0
LINE
  8
0-0
  6
CONTINUOUS
 62
    7
 10
891.49108
 20
471.21501
 11
891.75108
 21
471.01202
  0
LINE
  8
0-0
  6
CONTINUOUS
 62
    7
 10
891.75108
 20
471.01202
 11
892.02202
 21
470.81203
  0
LINE
  8
0-0
  6
CONTINUOUS
 62
    7
 10
892.02202
 20
470.81203
 11
892.30305
 21
470.61302
  0
LINE
  8
0-0
  6
CONTINUOUS
 62
    7
 10
892.30305
 20
470.61302
 11
892.59311
 21
470.41603
  0
LINE
  8
0-0
  6
CONTINUOUS
 62
    7
 10
892.59311
 20
470.41603
 11
892.89406
 21
470.21901
  0
LINE
  8
0-0
  6
CONTINUOUS
 62
    7
 10
892.89406
 20
470.21901
 11
893.20602
 21
470.02102
  0
LINE
  8
0-0
  6
CONTINUOUS
 62
    7
 10
893.20602
 20
470.02102
 11
893.53104
 21
469.82304
  0
LINE
  8
0-0
  6
CONTINUOUS
 62
    7
 10
893.53104
 20
469.82304
 11
893.86805
 21
469.62404
  0
LINE
  8
0-0
  6
CONTINUOUS
 62
    7
 10
893.86805
 20
469.62404
 11
894.22102
 21
469.42306
  0
LINE
  8
0-0
  6
CONTINUOUS
 62
    7
 10
894.22102
 20
469.42306
 11
894.58903
 21
469.21901
  0
LINE
  8
0-0
  6
CONTINUOUS
 62
    7
 10
894.58903
 20
469.21901
 11
894.97404
 21
469.01305
  0
LINE
  8
0-0
  6
CONTINUOUS
 62
    7
 10
894.97404
 20
469.01305
 11
895.37805
 21
468.80501
  0
LINE
  8
0-0
  6
CONTINUOUS
 62
    7
 10
895.37805
 20
468.80501
 11
895.8021
 21
468.59401
  0
LINE
  8
0-0
  6
CONTINUOUS
 62
    7
 10
895.8021
 20
468.59401
 11
896.24706
 21
468.38303
  0
LINE
  8
0-0
  6
CONTINUOUS
 62
    7
 10
896.24706
 20
468.38303
 11
896.71101
 21
468.17404
  0
LINE
  8
0-0
  6
CONTINUOUS
 62
    7
 10
896.71101
 20
468.17404
 11
897.19506
 21
467.96703
  0
LINE
  8
0-0
  6
CONTINUOUS
 62
    7
 10
983.76801
 20
477.96703
 11
984.07205
 21
477.61703
  0
LINE
  8
0-0
  6
CONTINUOUS
 62
    7
 10
984.07205
 20
477.61703
 11
984.33811
 21
477.29705
  0
LINE
  8
0-0
  6
CONTINUOUS
 62
    7
 10
984.33811
 20
477.29705
 11
984.56805
 21
477.00201
  0
LINE
  8
0-0
  6
CONTINUOUS
 62
    7
 10
984.56805
 20
477.00201
 11
984.76507
 21
476.72606
  0
LINE
  8
0-0
  6
CONTINUOUS
 62
    7
 10
984.76507
 20
476.72606
 11
984.93011
 21
476.46306
  0
LINE
  8
0-0
  6
CONTINUOUS
 62
    7
 10
984.93011
 20
476.46306
 11
985.06707
 21
476.21005
  0
LINE
  8
0-0
  6
CONTINUOUS
 62
    7
 10
985.06707
 20
476.21005
 11
985.17607
 21
475.964
  0
LINE
  8
0-0
  6
CONTINUOUS
 62
    7
 10
985.17607
 20
475.964
 11
985.25896
 21
475.72303
  0
LINE
  8
0-0
  6
CONTINUOUS
 62
    7
 10
985.25896
 20
475.72303
 11
985.31711
 21
475.48502
  0
LINE
  8
0-0
  6
CONTINUOUS
 62
    7
 10
985.31711
 20
475.48502
 11
985.35212
 21
475.24903
  0
LINE
  8
0-0
  6
CONTINUOUS
 62
    7
 10
985.35212
 20
475.24903
 11
985.36406
 21
475.01504
  0
LINE
  8
0-0
  6
CONTINUOUS
 62
    7
 10
985.36406
 20
475.01504
 11
985.35404
 21
474.78102
  0
LINE
  8
0-0
  6
CONTINUOUS
 62
    7
 10
985.35404
 20
474.78102
 11
985.32404
 21
474.54704
  0
LINE
  8
0-0
  6
CONTINUOUS
 62
    7
 10
985.32404
 20
474.54704
 11
985.27399
 21
474.31401
  0
LINE
  8
0-0
  6
CONTINUOUS
 62
    7
 10
985.27399
 20
474.31401
 11
985.20508
 21
474.08102
  0
LINE
  8
0-0
  6
CONTINUOUS
 62
    7
 10
985.20508
 20
474.08102
 11
985.11706
 21
473.84901
  0
LINE
  8
0-0
  6
CONTINUOUS
 62
    7
 10
985.11706
 20
473.84901
 11
985.01103
 21
473.61806
  0
LINE
  8
0-0
  6
CONTINUOUS
 62
    7
 10
985.01103
 20
473.61806
 11
984.88904
 21
473.38803
  0
LINE
  8
0-0
  6
CONTINUOUS
 62
    7
 10
984.88904
 20
473.38803
 11
984.75103
 21
473.16005
  0
LINE
  8
0-0
  6
CONTINUOUS
 62
    7
 10
984.75103
 20
473.16005
 11
984.597
 21
472.93305
  0
LINE
  8
0-0
  6
CONTINUOUS
 62
    7
 10
984.597
 20
472.93305
 11
984.42806
 21
472.70906
  0
LINE
  8
0-0
  6
CONTINUOUS
 62
    7
 10
984.42806
 20
472.70906
 11
984.24607
 21
472.48704
  0
LINE
  8
0-0
  6
CONTINUOUS
 62
    7
 10
984.24607
 20
472.48704
 11
984.05003
 21
472.26704
  0
LINE
  8
0-0
  6
CONTINUOUS
 62
    7
 10
984.05003
 20
472.26704
 11
983.842
 21
472.05099
  0
LINE
  8
0-0
  6
CONTINUOUS
 62
    7
 10
983.842
 20
472.05099
 11
983.62308
 21
471.83807
  0
LINE
  8
0-0
  6
CONTINUOUS
 62
    7
 10
983.62308
 20
471.83807
 11
983.39203
 21
471.62706
  0
LINE
  8
0-0
  6
CONTINUOUS
 62
    7
 10
983.39203
 20
471.62706
 11
983.15108
 21
471.41903
  0
LINE
  8
0-0
  6
CONTINUOUS
 62
    7
 10
983.15108
 20
471.41903
 11
982.90006
 21
471.21501
  0
LINE
  8
0-0
  6
CONTINUOUS
 62
    7
 10
982.90006
 20
471.21501
 11
982.63901
 21
471.01202
  0
LINE
  8
0-0
  6
CONTINUOUS
 62
    7
 10
982.63901
 20
471.01202
 11
982.368
 21
470.81203
  0
LINE
  8
0-0
  6
CONTINUOUS
 62
    7
 10
982.368
 20
470.81203
 11
982.08808
 21
470.61302
  0
LINE
  8
0-0
  6
CONTINUOUS
 62
    7
 10
982.08808
 20
470.61302
 11
981.79709
 21
470.41603
  0
LINE
  8
0-0
  6
CONTINUOUS
 62
    7
 10
981.79709
 20
470.41603
 11
981.49608
 21
470.21901
  0
LINE
  8
0-0
  6
CONTINUOUS
 62
    7
 10
981.49608
 20
470.21901
 11
981.18406
 21
470.02102
  0
LINE
  8
0-0
  6
CONTINUOUS
 62
    7
 10
981.18406
 20
470.02102
 11
980.85905
 21
469.82304
  0
LINE
  8
0-0
  6
CONTINUOUS
 62
    7
 10
980.85905
 20
469.82304
 11
980.52204
 21
469.62404
  0
LINE
  8
0-0
  6
CONTINUOUS
 62
    7
 10
980.52204
 20
469.62404
 11
980.17005
 21
469.42306
  0
LINE
  8
0-0
  6
CONTINUOUS
 62
    7
 10
980.17005
 20
469.42306
 11
979.80106
 21
469.21901
  0
LINE
  8
0-0
  6
CONTINUOUS
 62
    7
 10
979.80106
 20
469.21901
 11
979.41604
 21
469.01305
  0
LINE
  8
0-0
  6
CONTINUOUS
 62
    7
 10
979.41604
 20
469.01305
 11
979.0121
 21
468.80501
  0
LINE
  8
0-0
  6
CONTINUOUS
 62
    7
 10
979.0121
 20
468.80501
 11
978.58805
 21
468.59401
  0
LINE
  8
0-0
  6
CONTINUOUS
 62
    7
 10
978.58805
 20
468.59401
 11
978.14303
 21
468.38303
  0
LINE
  8
0-0
  6
CONTINUOUS
 62
    7
 10
978.14303
 20
468.38303
 11
977.67901
 21
468.17404
  0
LINE
  8
0-0
  6
CONTINUOUS
 62
    7
 10
977.67901
 20
468.17404
 11
977.19502
 21
467.96703
  0
LINE
  8
0-0
  6
CONTINUOUS
 62
    7
 10
890.62306
 20
298.66402
 11
890.31803
 21
298.31399
  0
LINE
  8
0-0
  6
CONTINUOUS
 62
    7
 10
890.31803
 20
298.31399
 11
890.05209
 21
297.99504
  0
LINE
  8
0-0
  6
CONTINUOUS
 62
    7
 10
890.05209
 20
297.99504
 11
889.8221
 21
297.70003
  0
LINE
  8
0-0
  6
CONTINUOUS
 62
    7
 10
889.8221
 20
297.70003
 11
889.62507
 21
297.42302
  0
LINE
  8
0-0
  6
CONTINUOUS
 62
    7
 10
889.62507
 20
297.42302
 11
889.46009
 21
297.16002
  0
LINE
  8
0-0
  6
CONTINUOUS
 62
    7
 10
889.46009
 20
297.16002
 11
889.32307
 21
296.90701
  0
LINE
  8
0-0
  6
CONTINUOUS
 62
    7
 10
889.32307
 20
296.90701
 11
889.21401
 21
296.66103
  0
LINE
  8
0-0
  6
CONTINUOUS
 62
    7
 10
889.21401
 20
296.66103
 11
889.131
 21
296.42005
  0
LINE
  8
0-0
  6
CONTINUOUS
 62
    7
 10
889.131
 20
296.42005
 11
889.0731
 21
296.18201
  0
LINE
  8
0-0
  6
CONTINUOUS
 62
    7
 10
889.0731
 20
296.18201
 11
889.03907
 21
295.94701
  0
LINE
  8
0-0
  6
CONTINUOUS
 62
    7
 10
889.03907
 20
295.94701
 11
889.02602
 21
295.712
  0
LINE
  8
0-0
  6
CONTINUOUS
 62
    7
 10
889.02602
 20
295.712
 11
889.03611
 21
295.47802
  0
LINE
  8
0-0
  6
CONTINUOUS
 62
    7
 10
889.03611
 20
295.47802
 11
889.06605
 21
295.244
  0
LINE
  8
0-0
  6
CONTINUOUS
 62
    7
 10
889.06605
 20
295.244
 11
889.11609
 21
295.011
  0
LINE
  8
0-0
  6
CONTINUOUS
 62
    7
 10
889.11609
 20
295.011
 11
889.185
 21
294.779
  0
LINE
  8
0-0
  6
CONTINUOUS
 62
    7
 10
889.185
 20
294.779
 11
889.27303
 21
294.54699
  0
LINE
  8
0-0
  6
CONTINUOUS
 62
    7
 10
889.27303
 20
294.54699
 11
889.37906
 21
294.31502
  0
LINE
  8
0-0
  6
CONTINUOUS
 62
    7
 10
889.37906
 20
294.31502
 11
889.50098
 21
294.08499
  0
LINE
  8
0-0
  6
CONTINUOUS
 62
    7
 10
889.50098
 20
294.08499
 11
889.64004
 21
293.85701
  0
LINE
  8
0-0
  6
CONTINUOUS
 62
    7
 10
889.64004
 20
293.85701
 11
889.79401
 21
293.63001
  0
LINE
  8
0-0
  6
CONTINUOUS
 62
    7
 10
889.79401
 20
293.63001
 11
889.96203
 21
293.40602
  0
LINE
  8
0-0
  6
CONTINUOUS
 62
    7
 10
889.96203
 20
293.40602
 11
890.14507
 21
293.184
  0
LINE
  8
0-0
  6
CONTINUOUS
 62
    7
 10
890.14507
 20
293.184
 11
890.34005
 21
292.96499
  0
LINE
  8
0-0
  6
CONTINUOUS
 62
    7
 10
890.34005
 20
292.96499
 11
890.54802
 21
292.74801
  0
LINE
  8
0-0
  6
CONTINUOUS
 62
    7
 10
890.54802
 20
292.74801
 11
890.76806
 21
292.53503
  0
LINE
  8
0-0
  6
CONTINUOUS
 62
    7
 10
890.76806
 20
292.53503
 11
890.99806
 21
292.32402
  0
LINE
  8
0-0
  6
CONTINUOUS
 62
    7
 10
890.99806
 20
292.32402
 11
891.23906
 21
292.11701
  0
LINE
  8
0-0
  6
CONTINUOUS
 62
    7
 10
891.23906
 20
292.11701
 11
891.49108
 21
291.91201
  0
LINE
  8
0-0
  6
CONTINUOUS
 62
    7
 10
891.49108
 20
291.91201
 11
891.75108
 21
291.71
  0
LINE
  8
0-0
  6
CONTINUOUS
 62
    7
 10
891.75108
 20
291.71
 11
892.02202
 21
291.50902
  0
LINE
  8
0-0
  6
CONTINUOUS
 62
    7
 10
892.02202
 20
291.50902
 11
892.30305
 21
291.31002
  0
LINE
  8
0-0
  6
CONTINUOUS
 62
    7
 10
892.30305
 20
291.31002
 11
892.59311
 21
291.11302
  0
LINE
  8
0-0
  6
CONTINUOUS
 62
    7
 10
892.59311
 20
291.11302
 11
892.89406
 21
290.916
  0
LINE
  8
0-0
  6
CONTINUOUS
 62
    7
 10
892.89406
 20
290.916
 11
893.20602
 21
290.71901
  0
LINE
  8
0-0
  6
CONTINUOUS
 62
    7
 10
893.20602
 20
290.71901
 11
893.53104
 21
290.52099
  0
LINE
  8
0-0
  6
CONTINUOUS
 62
    7
 10
893.53104
 20
290.52099
 11
893.86805
 21
290.32103
  0
LINE
  8
0-0
  6
CONTINUOUS
 62
    7
 10
893.86805
 20
290.32103
 11
894.22102
 21
290.12002
  0
LINE
  8
0-0
  6
CONTINUOUS
 62
    7
 10
894.22102
 20
290.12002
 11
894.58903
 21
289.916
  0
LINE
  8
0-0
  6
CONTINUOUS
 62
    7
 10
894.58903
 20
289.916
 11
894.97404
 21
289.71001
  0
LINE
  8
0-0
  6
CONTINUOUS
 62
    7
 10
894.97404
 20
289.71001
 11
895.37805
 21
289.502
  0
LINE
  8
0-0
  6
CONTINUOUS
 62
    7
 10
895.37805
 20
289.502
 11
895.8021
 21
289.29199
  0
LINE
  8
0-0
  6
CONTINUOUS
 62
    7
 10
895.8021
 20
289.29199
 11
896.24706
 21
289.08099
  0
LINE
  8
0-0
  6
CONTINUOUS
 62
    7
 10
896.24706
 20
289.08099
 11
896.71101
 21
288.871
  0
LINE
  8
0-0
  6
CONTINUOUS
 62
    7
 10
896.71101
 20
288.871
 11
897.19506
 21
288.66402
  0
LINE
  8
0-0
  6
CONTINUOUS
 62
    7
 10
983.76801
 20
298.66402
 11
984.07205
 21
298.31399
  0
LINE
  8
0-0
  6
CONTINUOUS
 62
    7
 10
984.07205
 20
298.31399
 11
984.33811
 21
297.99504
  0
LINE
  8
0-0
  6
CONTINUOUS
 62
    7
 10
984.33811
 20
297.99504
 11
984.56805
 21
297.70003
  0
LINE
  8
0-0
  6
CONTINUOUS
 62
    7
 10
984.56805
 20
297.70003
 11
984.76507
 21
297.42302
  0
LINE
  8
0-0
  6
CONTINUOUS
 62
    7
 10
984.76507
 20
297.42302
 11
984.93011
 21
297.16002
  0
LINE
  8
0-0
  6
CONTINUOUS
 62
    7
 10
984.93011
 20
297.16002
 11
985.06707
 21
296.90701
  0
LINE
  8
0-0
  6
CONTINUOUS
 62
    7
 10
985.06707
 20
296.90701
 11
985.17607
 21
296.66103
  0
LINE
  8
0-0
  6
CONTINUOUS
 62
    7
 10
985.17607
 20
296.66103
 11
985.25896
 21
296.42005
  0
LINE
  8
0-0
  6
CONTINUOUS
 62
    7
 10
985.25896
 20
296.42005
 11
985.31711
 21
296.18201
  0
LINE
  8
0-0
  6
CONTINUOUS
 62
    7
 10
985.31711
 20
296.18201
 11
985.35212
 21
295.94701
  0
LINE
  8
0-0
  6
CONTINUOUS
 62
    7
 10
985.35212
 20
295.94701
 11
985.36406
 21
295.712
  0
LINE
  8
0-0
  6
CONTINUOUS
 62
    7
 10
985.36406
 20
295.712
 11
985.35404
 21
295.47802
  0
LINE
  8
0-0
  6
CONTINUOUS
 62
    7
 10
985.35404
 20
295.47802
 11
985.32404
 21
295.244
  0
LINE
  8
0-0
  6
CONTINUOUS
 62
    7
 10
985.32404
 20
295.244
 11
985.27399
 21
295.011
  0
LINE
  8
0-0
  6
CONTINUOUS
 62
    7
 10
985.27399
 20
295.011
 11
985.20508
 21
294.779
  0
LINE
  8
0-0
  6
CONTINUOUS
 62
    7
 10
985.20508
 20
294.779
 11
985.11706
 21
294.54699
  0
LINE
  8
0-0
  6
CONTINUOUS
 62
    7
 10
985.11706
 20
294.54699
 11
985.01103
 21
294.31502
  0
LINE
  8
0-0
  6
CONTINUOUS
 62
    7
 10
985.01103
 20
294.31502
 11
984.88904
 21
294.08499
  0
LINE
  8
0-0
  6
CONTINUOUS
 62
    7
 10
984.88904
 20
294.08499
 11
984.75103
 21
293.85701
  0
LINE
  8
0-0
  6
CONTINUOUS
 62
    7
 10
984.75103
 20
293.85701
 11
984.597
 21
293.63001
  0
LINE
  8
0-0
  6
CONTINUOUS
 62
    7
 10
984.597
 20
293.63001
 11
984.42806
 21
293.40602
  0
LINE
  8
0-0
  6
CONTINUOUS
 62
    7
 10
984.42806
 20
293.40602
 11
984.24607
 21
293.184
  0
LINE
  8
0-0
  6
CONTINUOUS
 62
    7
 10
984.24607
 20
293.184
 11
984.05003
 21
292.96499
  0
LINE
  8
0-0
  6
CONTINUOUS
 62
    7
 10
984.05003
 20
292.96499
 11
983.842
 21
292.74801
  0
LINE
  8
0-0
  6
CONTINUOUS
 62
    7
 10
983.842
 20
292.74801
 11
983.62308
 21
292.53503
  0
LINE
  8
0-0
  6
CONTINUOUS
 62
    7
 10
983.62308
 20
292.53503
 11
983.39203
 21
292.32402
  0
LINE
  8
0-0
  6
CONTINUOUS
 62
    7
 10
983.39203
 20
292.32402
 11
983.15108
 21
292.11701
  0
LINE
  8
0-0
  6
CONTINUOUS
 62
    7
 10
983.15108
 20
292.11701
 11
982.90006
 21
291.91201
  0
LINE
  8
0-0
  6
CONTINUOUS
 62
    7
 10
982.90006
 20
291.91201
 11
982.63901
 21
291.71
  0
LINE
  8
0-0
  6
CONTINUOUS
 62
    7
 10
982.63901
 20
291.71
 11
982.368
 21
291.50902
  0
LINE
  8
0-0
  6
CONTINUOUS
 62
    7
 10
982.368
 20
291.50902
 11
982.08808
 21
291.31002
  0
LINE
  8
0-0
  6
CONTINUOUS
 62
    7
 10
982.08808
 20
291.31002
 11
981.79709
 21
291.11302
  0
LINE
  8
0-0
  6
CONTINUOUS
 62
    7
 10
981.79709
 20
291.11302
 11
981.49608
 21
290.916
  0
LINE
  8
0-0
  6
CONTINUOUS
 62
    7
 10
981.49608
 20
290.916
 11
981.18406
 21
290.71901
  0
LINE
  8
0-0
  6
CONTINUOUS
 62
    7
 10
981.18406
 20
290.71901
 11
980.85905
 21
290.52099
  0
LINE
  8
0-0
  6
CONTINUOUS
 62
    7
 10
980.85905
 20
290.52099
 11
980.52204
 21
290.32103
  0
LINE
  8
0-0
  6
CONTINUOUS
 62
    7
 10
980.52204
 20
290.32103
 11
980.17005
 21
290.12002
  0
LINE
  8
0-0
  6
CONTINUOUS
 62
    7
 10
980.17005
 20
290.12002
 11
979.80106
 21
289.916
  0
LINE
  8
0-0
  6
CONTINUOUS
 62
    7
 10
979.80106
 20
289.916
 11
979.41604
 21
289.71001
  0
LINE
  8
0-0
  6
CONTINUOUS
 62
    7
 10
979.41604
 20
289.71001
 11
979.0121
 21
289.502
  0
LINE
  8
0-0
  6
CONTINUOUS
 62
    7
 10
979.0121
 20
289.502
 11
978.58805
 21
289.29199
  0
LINE
  8
0-0
  6
CONTINUOUS
 62
    7
 10
978.58805
 20
289.29199
 11
978.14303
 21
289.08099
  0
LINE
  8
0-0
  6
CONTINUOUS
 62
    7
 10
978.14303
 20
289.08099
 11
977.67901
 21
288.871
  0
LINE
  8
0-0
  6
CONTINUOUS
 62
    7
 10
977.67901
 20
288.871
 11
977.19502
 21
288.66402
  0
LINE
  8
0-0
  6
CONTINUOUS
 62
    7
 10
1336.249
 20
830.27205
 11
1336.249
 21
790.27198
  0
LINE
  8
0-0
  6
CONTINUOUS
 62
    7
 10
1336.249
 20
830.27205
 11
1376.2491
 21
830.27205
  0
LINE
  8
0-0
  6
CONTINUOUS
 62
    7
 10
1336.249
 20
790.27198
 11
1376.8361
 21
790.27198
  0
LINE
  8
0-0
  6
CONTINUOUS
 62
    7
 10
833.69507
 20
1095.272
 11
833.69507
 21
1083.272
  0
LINE
  8
0-0
  6
CONTINUOUS
 62
    7
 10
1040.695
 20
1095.272
 11
1040.695
 21
1084.272
  0
LINE
  8
0-0
  6
CONTINUOUS
 62
    7
 10
1348.249
 20
830.27205
 11
1348.249
 21
790.27198
  0
ARC
  8
0-0
  6
CONTINUOUS
 62
    7
 10
852.1951
 20
1082.2721
 40
8
 50
270
 51
0
  0
CIRCLE
  8
0-0
  6
CONTINUOUS
 62
    7
 10
1003.6951
 20
1073.7719
 40
3.0000001
  0
ARC
  8
0-0
  6
CONTINUOUS
 62
    7
 10
1003.6951
 20
1072.4969
 40
8.7240007
 50
193.0218
 51
346.97819
  0
CIRCLE
  8
0-0
  6
CONTINUOUS
 62
    7
 10
906.19501
 20
1073.7719
 40
3.0000001
  0
ARC
  8
0-0
  6
CONTINUOUS
 62
    7
 10
906.19501
 20
1072.4969
 40
8.7240007
 50
193.0218
 51
346.97819
  0
ARC
  8
0-0
  6
CONTINUOUS
 62
    7
 10
1021.062
 20
1084.139
 40
8.8750009
 50
182.37057
 51
267.6294
  0
ARC
  8
0-0
  6
CONTINUOUS
 62
    7
 10
1021.5911
 20
777.65106
 40
46.664005
 50
316.06365
 51
357.07847
  0
ARC
  8
0-0
  6
CONTINUOUS
 62
    7
 10
852.1951
 20
1082.2721
 40
13
 50
270
 51
344.3813
  0
ARC
  8
0-0
  6
CONTINUOUS
 62
    7
 10
1021.062
 20
1084.139
 40
13.875001
 50
230.27651
 51
268.10496
  0
ARC
  8
0-0
  6
CONTINUOUS
 62
    7
 10
890.38904
 20
300.554
 40
36.909003
 50
268.14575
 51
315.45707
  0
ARC
  8
0-0
  6
CONTINUOUS
 62
    7
 10
998.001
 20
300.554
 40
36.909003
 50
224.5429
 51
271.85423
  0
ARC
  8
0-0
  6
CONTINUOUS
 62
    7
 10
831.97809
 20
311.01201
 40
27.359001
 50
234.76937
 51
268.36083
  0
ARC
  8
0-0
  6
CONTINUOUS
 62
    7
 10
998.001
 20
300.554
 40
36.909003
 50
224.5429
 51
271.85423
  0
ARC
  8
0-0
  6
CONTINUOUS
 62
    7
 10
1046.924
 20
331.40201
 40
47.737999
 50
270.32504
 51
296.45991
  0
ARC
  8
0-0
  6
CONTINUOUS
 62
    7
 10
1070.487
 20
296.61401
 40
4.0610004
 50
94.126281
 51
144.88385
  0
ARC
  8
0-0
  6
CONTINUOUS
 62
    7
 10
1048.004
 20
311.623
 40
22.973
 50
267.98094
 51
326.51898
  0
ARC
  8
0-0
  6
CONTINUOUS
 62
    7
 10
814.28905
 20
296.47801
 40
4.187
 50
39.753768
 51
91.285842
  0
ARC
  8
0-0
  6
CONTINUOUS
 62
    7
 10
841.53205
 20
321.39499
 40
32.737001
 50
222.79051
 51
271.16014
  0
ARC
  8
0-0
  6
CONTINUOUS
 62
    7
 10
840.15406
 20
497.88402
 40
29.916999
 50
216.79034
 51
270.07936
  0
ARC
  8
0-0
  6
CONTINUOUS
 62
    7
 10
1400.2491
 20
765.23305
 40
7.0000004
 50
180
 51
235.54061
  0
CIRCLE
  8
ADD_LINE
  6
DASHED1
 62
    3
 10
807.19507
 20
479.96702
 40
3.0000001
  0
CIRCLE
  8
ADD_LINE
  6
DASHED1
 62
    3
 10
1110.1951
 20
479.96702
 40
3.0000001
  0
ARC
  8
0-0
  6
CONTINUOUS
 62
    7
 10
1048.3
 20
490.40905
 40
22.469002
 50
272.81814
 51
332.30841
  0
ARC
  8
0-0
  6
CONTINUOUS
 62
    7
 10
914.96607
 20
254.882
 40
33.825999
 50
87.07022
 51
87.070236
  0
ARC
  8
0-0
  6
CONTINUOUS
 62
    7
 10
1058.788
 20
462.17802
 40
9.2240012
 50
273.08825
 51
325.87852
  0
ARC
  8
0-0
  6
CONTINUOUS
 62
    7
 10
818.36005
 20
435.27701
 40
20.919002
 50
58.368225
 51
122.257
  0
ARC
  8
0-0
  6
CONTINUOUS
 62
    7
 10
892.41409
 20
327.23602
 40
43.833004
 50
276.26135
 51
298.3618
  0
ARC
  8
0-0
  6
CONTINUOUS
 62
    7
 10
995.97608
 20
327.23602
 40
43.833004
 50
241.63819
 51
263.73863
  0
ARC
  8
0-0
  6
CONTINUOUS
 62
    7
 10
937.19507
 20
426.71701
 40
81.250001
 50
30.510192
 51
149.48979
  0
ARC
  8
0-0
  6
CONTINUOUS
 62
    7
 10
937.19507
 20
426.71701
 40
69.250004
 50
47.737548
 51
132.26243
  0
ARC
  8
0-0
  6
CONTINUOUS
 62
    7
 10
937.19507
 20
247.414
 40
81.250001
 50
30.510192
 51
149.48979
  0
ARC
  8
0-0
  6
CONTINUOUS
 62
    7
 10
937.19507
 20
247.414
 40
69.250004
 50
47.737548
 51
132.26243
  0
TEXT
  8
ADD_LINE
 10
931.82012
 20
1296.421
 40
10
 41
1
 50
0
  1
338
  0
TEXT
  8
ADD_LINE
 10
1378.7491
 20
1296.421
 40
10
 41
1
 50
0
  1
35
  0
TEXT
  8
ADD_LINE
 10
784.69506
 20
597.24602
 40
10
 41
1
 50
0
  1
35
  0
TEXT
  8
ADD_LINE
 10
951.19503
 20
597.24602
 40
10
 41
1
 50
0
  1
303
  0
TEXT
  8
ADD_LINE
 10
1390.2491
 20
597.24602
 40
10
 41
1
 50
0
  1
20
  0
TEXT
  8
ADD_LINE
 10
784.69506
 20
395.19701
 40
10
 41
1
 50
0
  1
35
  0
TEXT
  8
ADD_LINE
 10
951.19503
 20
395.19701
 40
10
 41
1
 50
0
  1
303
  0
TEXT
  8
ADD_LINE
 10
951.19503
 20
169.394
 40
10
 41
1
 50
0
  1
303
  0
TEXT
  8
ADD_LINE
 10
465.641
 20
912.77202
 40
10
 41
1
 50
90
  1
350
  0
TEXT
  8
ADD_LINE
 10
558.884
 20
752.77204
 40
10
 41
1
 50
90
  1
25
  0
TEXT
  8
ADD_LINE
 10
558.884
 20
925.27206
 40
10
 41
1
 50
90
  1
325
  0
TEXT
  8
ADD_LINE
 10
558.884
 20
271.16402
 40
10
 41
1
 50
90
  1
25
  0
TEXT
  8
ADD_LINE
 10
1592.6681
 20
912.77202
 40
10
 41
1
 50
90
  1
350
  0
POINT
  8
ADD_LINE
 62
    7
 10
772.19508
 20
1293.9211
  0
POINT
  8
ADD_LINE
 62
    7
 10
1110.1951
 20
1293.9211
  0
POINT
  8
ADD_LINE
 62
    7
 10
1366.249
 20
1293.9211
  0
POINT
  8
ADD_LINE
 62
    7
 10
1401.2491
 20
1293.9211
  0
POINT
  8
ADD_LINE
 62
    7
 10
772.19508
 20
594.74601
  0
POINT
  8
ADD_LINE
 62
    7
 10
807.19507
 20
594.74601
  0
POINT
  8
ADD_LINE
 62
    7
 10
1110.1951
 20
594.74601
  0
POINT
  8
ADD_LINE
 62
    7
 10
1385.2491
 20
594.74601
  0
POINT
  8
ADD_LINE
 62
    7
 10
1405.2491
 20
594.74601
  0
POINT
  8
ADD_LINE
 62
    7
 10
772.19508
 20
392.69601
  0
POINT
  8
ADD_LINE
 62
    7
 10
807.19507
 20
392.69601
  0
POINT
  8
ADD_LINE
 62
    7
 10
1110.1951
 20
392.69601
  0
POINT
  8
ADD_LINE
 62
    7
 10
807.19507
 20
166.894
  0
POINT
  8
ADD_LINE
 62
    7
 10
1110.1951
 20
166.894
  0
POINT
  8
ADD_LINE
 62
    7
 10
468.14104
 20
745.27201
  0
POINT
  8
ADD_LINE
 62
    7
 10
468.14104
 20
1095.272
  0
POINT
  8
ADD_LINE
 62
    7
 10
561.38401
 20
745.27201
  0
POINT
  8
ADD_LINE
 62
    7
 10
561.38401
 20
770.27204
  0
POINT
  8
ADD_LINE
 62
    7
 10
561.38401
 20
1095.272
  0
POINT
  8
ADD_LINE
 62
    7
 10
561.38401
 20
288.66402
  0
POINT
  8
ADD_LINE
 62
    7
 10
561.38401
 20
263.66403
  0
POINT
  8
ADD_LINE
 62
    7
 10
1595.168
 20
1095.272
  0
POINT
  8
ADD_LINE
 62
    7
 10
1595.168
 20
745.27201
  0
ENDSEC
  0
EOF
