  0
SECTION
  2
HEADER
  9
$ACADVER
  1
AC1009
  9
$INSBASE
 10
0
 20
0
 30
0
  9
$EXTMIN
 10
0
 20
0
  9
$EXTMAX
 10
420
 20
297
  9
$LIMMIN
 10
0
 20
0
  9
$LIMMAX
 10
420
 20
297
  9
$LTSCALE
 40
1
  0
ENDSEC
  0
SECTION
  2
TABLES
  0
TABLE
  2
LTYPE
 70
     9
  0
LTYPE
  2
CONTINUOUS
 70
    64
  3
実線
 72
    65
 73
     0
 40
0.0
  0
LTYPE
  2
DASHED1
 70
    64
  3
--  --  --  --  --  --  --  --  
 72
    65
 73
     2
 40
2.5
 49
1.25
 49
-1.25
  0
LTYPE
  2
DASHED2
 70
    64
  3
----    ----    ----    ----    
 72
    65
 73
     2
 40
5.0
 49
2.5
 49
-2.5
  0
LTYPE
  2
DASHED3
 70
    64
  3
------  ------  ------  ------  
 72
    65
 73
     2
 40
5.0
 49
3.75
 49
-1.25
  0
LTYPE
  2
CENTER1
 70
    64
  3
----- - ----- - ----- - ----- - 
 72
    65
 73
     4
 40
10.0
 49
6.25
 49
-1.25
 49
1.25
 49
-1.25
  0
LTYPE
  2
CENTER2
 70
    64
  3
----------  --  ----------  --  
 72
    65
 73
     4
 40
20.0
 49
12.5
 49
-2.5
 49
2.5
 49
-2.5
  0
LTYPE
  2
PHANTOM1
 70
    64
  3
--- - - --- - - --- - - --- - - 
 72
    65
 73
     6
 40
10.0
 49
3.25
 49
-1.25
 49
1.25
 49
-1.25
 49
1.25
 49
-1.25
  0
LTYPE
  2
PHANTOM2
 70
    64
  3
--------  -  -  --------  -  -  
 72
    65
 73
     6
 40
20.0
 49
10.0
 49
-2.5
 49
1.25
 49
-2.5
 49
1.25
 49
-2.5
  0
LTYPE
  2
DOT
 70
    64
  3
-   -   -   -   -   -   -   -   
 72
    65
 73
     2
 40
2.5
 49
0.625
 49
-1.875
  0
LTYPE
  2
DUMMY
 70
    64
  3
ダミー
 72
    65
 73
     0
 40
0.0
  0
LTYPE
  2
RAND1
 70
    64
  3
ランダム線1
 72
    65
 73
     4
 40
10.0
 49
1.0
 49
-2.0
 49
3.0
 49
-4.0
  0
LTYPE
  2
RAND2
 70
    64
  3
ランダム線2
 72
    65
 73
     4
 40
14.0
 49
2.0
 49
-3.0
 49
4.0
 49
-5.0
  0
LTYPE
  2
RAND3
 70
    64
  3
ランダム線3
 72
    65
 73
     4
 40
18.0
 49
3.0
 49
-4.0
 49
5.0
 49
-6.0
  0
LTYPE
  2
RAND4
 70
    64
  3
ランダム線4
 72
    65
 73
     4
 40
22.0
 49
4.0
 49
-5.0
 49
6.0
 49
-7.0
  0
LTYPE
  2
RAND5
 70
    64
  3
ランダム線5
 72
    65
 73
     4
 40
26.0
 49
5.0
 49
-6.0
 49
7.0
 49
-8.0
  0
LTYPE
  2
LONG1
 70
    64
  3
----------  --  ----------  --  
 72
    65
 73
     4
 40
40.0
 49
32.5
 49
-2.5
 49
2.5
 49
-2.5
  0
LTYPE
  2
LONG2
 70
    64
  3
--------  -  -  --------  -  -  
 72
    65
 73
     6
 40
40.0
 49
30.0
 49
-2.5
 49
1.25
 49
-2.5
 49
1.25
 49
-2.5
  0
LTYPE
  2
LONG3
 70
    64
  3
+++++++++++++++..+++++++++++++++
 72
    65
 73
     2
 40
40.0
 49
37.5
 49
-2.5
  0
LTYPE
  2
LONG4
 70
    64
  3
+++++++++++++++..+++++++++++++++
 72
    65
 73
     2
 40
80.0
 49
75.0
 49
-5.0
  0
LTYPE
  2
LONG5
 70
    64
  3
----------  --  ----------  --  
 72
    65
 73
     4
 40
60.0
 49
37.5
 49
-7.5
 49
7.5
 49
-7.5
  0
LTYPE
  2
dashed
 70
   64
  3
-------   -------------   ------
 72
   65
 73
    2
 40
7.5
 49
6
 49
-1.5
  0
LTYPE
  2
dashed_spaced
 70
   64
  3
----        --------        ----
 72
   65
 73
    2
 40
12
 49
6
 49
-6
  0
LTYPE
  2
long_dashed_dotted
 70
   64
  3
------------- --- --------------
 72
   65
 73
    4
 40
15.25
 49
12
 49
-1.5
 49
0.25
 49
-1.5
  0
LTYPE
  2
long_dashed_double-dotted
 70
   64
  3
----------- --- --- ------------
 72
   65
 73
    6
 40
17
 49
12
 49
-1.5
 49
0.25
 49
-1.5
 49
0.25
 49
-1.5
  0
LTYPE
  2
long_dashed_triplicate-dotted
 70
   64
  3
--------- --- --- --- ----------
 72
   65
 73
    8
 40
18.75
 49
12
 49
-1.5
 49
0.25
 49
-1.5
 49
0.25
 49
-1.5
 49
0.25
 49
-1.5
  0
LTYPE
  2
dotted
 70
   64
  3
   -       -       -       -    
 72
   65
 73
    2
 40
1.75
 49
0.25
 49
-1.5
  0
LTYPE
  2
chain
 70
   64
  3
-------------- -- --------------
 72
   65
 73
    4
 40
18.5
 49
12
 49
-1.5
 49
3.5
 49
-1.5
  0
LTYPE
  2
chain_double_dash
 70
   64
  3
------------ -- -- -------------
 72
   65
 73
    6
 40
23.5
 49
12
 49
-1.5
 49
3.5
 49
-1.5
 49
3.5
 49
-1.5
  0
LTYPE
  2
dashed_dotted
 70
   64
  3
-----------     -     ----------
 72
   65
 73
    4
 40
9.25
 49
6
 49
-1.5
 49
0.25
 49
-1.5
  0
LTYPE
  2
double-dashed_dotted
 70
   64
  3
------   -----------   -   -----
 72
   65
 73
    6
 40
16.75
 49
6
 49
-1.5
 49
6
 49
-1.5
 49
0.25
 49
-1.5
  0
LTYPE
  2
dashed_double-dotted
 70
   64
  3
---------    -    -    ---------
 72
   65
 73
    6
 40
11
 49
6
 49
-1.5
 49
0.25
 49
-1.5
 49
0.25
 49
-1.5
  0
LTYPE
  2
double-dashed_double-dotted
 70
   64
  3
-----   ---------   -   -   ----
 72
   65
 73
    8
 40
18.5
 49
6
 49
-1.5
 49
6
 49
-1.5
 49
0.25
 49
-1.5
 49
0.25
 49
-1.5
  0
LTYPE
  2
dashed_triplicate-dotted
 70
   64
  3
-------    -    -    -    ------
 72
   65
 73
    8
 40
12.75
 49
6
 49
-1.5
 49
0.25
 49
-1.5
 49
0.25
 49
-1.5
 49
0.25
 49
-1.5
  0
LTYPE
  2
double-dashed_triplicate-dotted
 70
   64
  3
-----  ---------  -  -  -  -----
 72
   65
 73
   10
 40
20.25
 49
6
 49
-1.5
 49
6
 49
-1.5
 49
0.25
 49
-1.5
 49
0.25
 49
-1.5
 49
0.25
 49
-1.5
  0
LTYPE
  2
undefined
 70
   64
  3
--------------------------------
 72
   65
 73
    0
 40
0
  0
LTYPE
  2
DOT_17
 70
   64
  3
--             ---             -
 72
   65
 73
    2
 40
5
 49
1
 49
-4
  0
LTYPE
  2
DASHED
 70
   64
  3
---          ------          ---
 72
   65
 73
    2
 40
5
 49
2
 49
-3
  0
LTYPE
  2
DASHED2_19
 70
   64
  3
---          ------          ---
 72
   65
 73
    2
 40
10
 49
4
 49
-6
  0
LTYPE
  2
CENTER
 70
   64
  3
----------    ----    ----------
 72
   65
 73
    4
 40
9
 49
6
 49
-1
 49
1
 49
-1
  0
LTYPE
  2
CENTER2_21
 70
   64
  3
----------    ----    ----------
 72
   65
 73
    4
 40
18
 49
12
 49
-2
 49
2
 49
-2
  0
LTYPE
  2
PHANTOM
 70
   64
  3
---------   ---   ---   --------
 72
   65
 73
    6
 40
10
 49
5
 49
-1
 49
1
 49
-1
 49
1
 49
-1
  0
LTYPE
  2
PHANTOM2_23
 70
   64
  3
------    ----    ----    ------
 72
   65
 73
    6
 40
16
 49
6
 49
-2
 49
2
 49
-2
 49
2
 49
-2
  0
LTYPE
  2
HIDDEN
 70
   64
  3
--             ---             -
 72
   65
 73
    2
 40
2.5
 49
0.5
 49
-2
  0
ENDTAB
  0
TABLE
  2
STYLE
  5
3
100
AcDbSymbolTable
 70
     1
  0
STYLE
  5
10
100
AcDbSymbolTableRecord
100
AcDbTextStyleTableRecord
  2
STANDARD
 70
     0
 40
0.0
 41
1.0
 50
0.0
 71
     0
 42
0.2
  3
txt
  4
bigfont.shx
  0
STYLE
  5
26
100
AcDbSymbolTableRecord
100
AcDbTextStyleTableRecord
  2
TATEGAKI
 70
    68
 40
0.0
 41
1.0
 50
0.0
 71
     0
 42
1.0
  3
txt
  4
bigfont.shx
  0
ENDTAB
  0
TABLE
  2
LAYER
 70
   12
  0
LAYER
  2
_0-0_
 70
   64
 62
    7
  6
CONTINUOUS
  0
LAYER
  2
_1-0_
 70
   64
 62
    7
  6
CONTINUOUS
  0
LAYER
  2
_1-1_
 70
   64
 62
    7
  6
CONTINUOUS
  0
LAYER
  2
_1-2_
 70
   64
 62
    7
  6
CONTINUOUS
  0
LAYER
  2
_1-3_
 70
   64
 62
    7
  6
CONTINUOUS
  0
LAYER
  2
_1-4_
 70
   64
 62
    7
  6
CONTINUOUS
  0
LAYER
  2
_1-5_
 70
   64
 62
    7
  6
CONTINUOUS
  0
LAYER
  2
_1-6_
 70
   64
 62
    7
  6
CONTINUOUS
  0
LAYER
  2
_1-7_
 70
   64
 62
    7
  6
CONTINUOUS
  0
LAYER
  2
_1-8_
 70
   64
 62
    7
  6
CONTINUOUS
  0
LAYER
  2
_1-9_
 70
   64
 62
    7
  6
CONTINUOUS
  0
LAYER
  2
ADD_LINE
 70
   64
 62
    7
  6
CONTINUOUS
  0
ENDTAB
  0
ENDSEC
  0
SECTION
  2
BLOCKS
  0
ENDSEC
  0
SECTION
  2
ENTITIES
  0
LINE
  8
_1-0_
  6
CONTINUOUS
 62
    7
 10
330.74256690772808
 20
101.06755024677999
 11
181.99290507548565
 21
168.00490920608109
  0
LINE
  8
_0-0_
  6
CONTINUOUS
 62
    5
 10
6.7567526327597136
 20
280.13513513513516
 11
406.75677325274495
 21
280.13513513513516
  0
LINE
  8
_0-0_
  6
CONTINUOUS
 62
    5
 10
406.75677325274495
 20
10.13513513513513
 11
6.7567526327597136
 21
10.13513513513513
  0
LINE
  8
_0-0_
  6
CONTINUOUS
 62
    5
 10
406.75677325274495
 20
30.135133073136615
 11
6.7567402607685949
 21
30.135133073136615
  0
LINE
  8
_0-0_
  6
CONTINUOUS
 62
    5
 10
371.75678150073907
 20
10.13513513513513
 11
371.75678150073907
 21
30.135133073136615
  0
LINE
  8
_0-0_
  6
CONTINUOUS
 62
    5
 10
137.02703939901818
 20
30.135133073136615
 11
137.02703939901818
 21
10.13513513513513
  0
LINE
  8
_0-0_
  6
CONTINUOUS
 62
    5
 10
214.86486486486487
 20
30.135133073136615
 11
214.86486486486487
 21
10.13513513513513
  0
LINE
  8
_0-0_
  6
CONTINUOUS
 62
    5
 10
137.02703939901818
 20
20.135134104135886
 11
214.86486486486487
 21
20.135134104135886
  0
LINE
  8
_0-0_
  6
CONTINUOUS
 62
    5
 10
396.48648648648651
 20
25.945945945945951
 11
383.91891891891896
 21
13.378379924877265
  0
LINE
  8
_1-1_
  6
DASHED1
 62
    3
 10
33.243243243243228
 20
101.9448233939506
 11
181.99290507548565
 21
168.88218235325169
  0
LINE
  8
_1-0_
  6
CONTINUOUS
 62
    7
 10
330.74256690772808
 20
102.16414168074324
 11
181.99290507548565
 21
169.10151301203547
  0
LINE
  8
_1-0_
  6
CONTINUOUS
 62
    7
 10
33.243243243243228
 20
102.82209654112121
 11
181.99290507548565
 21
169.75944312843117
  0
LINE
  8
_1-0_
  6
CONTINUOUS
 62
    7
 10
33.243243243243228
 20
102.16414168074324
 11
181.99290507548565
 21
169.10151301203547
  0
LINE
  8
_1-0_
  6
CONTINUOUS
 62
    7
 10
33.243243243243228
 20
101.06755024677999
 11
181.99290507548565
 21
168.00490920608109
  0
LINE
  8
_1-0_
  6
DASHED1
 62
    7
 10
182.89290557036529
 20
167.5998997043919
 11
182.89290557036529
 21
147.31265506228885
  0
LINE
  8
_1-0_
  6
DASHED1
 62
    7
 10
181.09290458060602
 20
149.11265605204815
 11
181.09290458060602
 21
167.74061873152451
  0
LINE
  8
_1-0_
  6
CONTINUOUS
 62
    7
 10
41.450537604254635
 20
82.829119708086992
 11
181.99290507548565
 21
146.07319187473607
  0
LINE
  8
_1-0_
  6
CONTINUOUS
 62
    7
 10
322.53526017472552
 20
82.829119708086992
 11
181.99290507548565
 21
146.07319187473607
  0
LINE
  8
_1-0_
  6
CONTINUOUS
 62
    7
 10
41.450537604254635
 20
82.829119708086992
 11
33.243243243243228
 21
79.135839101430534
  0
LINE
  8
_1-0_
  6
CONTINUOUS
 62
    7
 10
322.53526017472552
 20
82.829119708086992
 11
330.74256690772808
 21
79.135826729439401
  0
LINE
  8
_1-0_
  6
DASHED1
 62
    7
 10
41.204319515743776
 20
83.376271015888946
 11
181.74669007997255
 21
146.62034318253802
  0
LINE
  8
_1-0_
  6
DASHED1
 62
    7
 10
322.78148754222974
 20
83.376271015888946
 11
182.23912007099875
 21
146.62034318253802
  0
LINE
  8
_1-0_
  6
DASHED1
 62
    7
 10
322.78148754222974
 20
83.376271015888946
 11
330.98879427523229
 21
79.682978037241341
  0
LINE
  8
_1-0_
  6
DASHED1
 62
    7
 10
41.204319515743776
 20
83.376271015888946
 11
32.99702515473237
 21
79.682990409232474
  0
LINE
  8
_1-0_
  6
DASHED2
 62
    7
 10
34.884703352644635
 20
97.419866613439623
 11
181.99290507548565
 21
163.61856821421031
  0
LINE
  8
_1-0_
  6
DASHED2
 62
    7
 10
329.10110061233109
 20
97.419866613439623
 11
181.99290507548565
 21
163.61856821421031
  0
LINE
  8
_1-0_
  6
DASHED2
 62
    7
 10
324.1767264701225
 20
86.47680334142737
 11
181.99290507548565
 21
150.45952049461573
  0
LINE
  8
_1-0_
  6
DASHED2
 62
    7
 10
39.809077494853256
 20
86.47680334142737
 11
181.99290507548565
 21
150.45952049461573
  0
LINE
  8
_1-0_
  6
DASHED2
 62
    7
 10
39.809077494853256
 20
86.47680334142737
 11
33.243243243243228
 21
83.522180093301316
  0
LINE
  8
_1-0_
  6
DASHED2
 62
    7
 10
34.884703352644635
 20
97.419866613439623
 11
33.243243243243228
 21
96.681209254909206
  0
LINE
  8
_1-0_
  6
DASHED2
 62
    7
 10
324.1767264701225
 20
86.47680334142737
 11
330.74256690772808
 21
83.522173907305742
  0
LINE
  8
_1-0_
  6
CONTINUOUS
 62
    3
 10
191.99291332347974
 20
100.52241557353253
 11
171.99289682749156
 21
100.52241557353253
  0
LINE
  8
ADD_LINE
  6
DOT
 62
    3
 10
181.99290507548565
 20
141.68874379750847
 11
181.99290507548565
 21
99.000555502401824
  0
LINE
  8
_1-0_
  6
CONTINUOUS
 62
    3
 10
171.99289682749156
 20
100.52241557353253
 11
171.99289682749156
 21
102.12241714065139
  0
LINE
  8
_1-0_
  6
CONTINUOUS
 62
    3
 10
171.99289682749156
 20
138.92241606841216
 11
171.99289682749156
 21
140.52241144953547
  0
LINE
  8
_1-0_
  6
CONTINUOUS
 62
    3
 10
191.99291332347974
 20
140.52241144953547
 11
191.99291332347974
 21
138.92241606841216
  0
LINE
  8
_1-0_
  6
CONTINUOUS
 62
    3
 10
191.99291332347974
 20
102.12241714065139
 11
191.99291332347974
 21
100.52241557353253
  0
LINE
  8
_1-0_
  6
CONTINUOUS
 62
    3
 10
180.39290969436234
 20
138.92241606841216
 11
171.99289682749156
 21
138.92241606841216
  0
LINE
  8
_1-0_
  6
CONTINUOUS
 62
    3
 10
183.59290045660896
 20
138.92241606841216
 11
191.99291332347974
 21
138.92241606841216
  0
LINE
  8
_1-0_
  6
CONTINUOUS
 62
    3
 10
182.59289715741133
 20
103.12241425385346
 11
182.59289715741133
 21
137.92241276921453
  0
LINE
  8
_1-0_
  6
CONTINUOUS
 62
    3
 10
183.59290045660896
 20
102.12241714065139
 11
191.99291332347974
 21
102.12241714065139
  0
LINE
  8
_1-0_
  6
CONTINUOUS
 62
    3
 10
180.39290969436234
 20
102.12241714065139
 11
171.99289682749156
 21
102.12241714065139
  0
LINE
  8
ADD_LINE
  6
DOT
 62
    3
 10
172.24016344225086
 20
140.52241144953547
 11
193.1906457849451
 21
140.52241144953547
  0
LINE
  8
_1-0_
  6
CONTINUOUS
 62
    3
 10
171.99289682749156
 20
140.52241144953547
 11
191.99291332347974
 21
140.52241144953547
  0
LINE
  8
_1-0_
  6
CONTINUOUS
 62
    3
 10
181.39291299355997
 20
103.12241425385346
 11
181.39291299355997
 21
137.92241276921453
  0
LINE
  8
_1-0_
  6
DASHED1
 62
    7
 10
181.09290458060602
 20
149.11265605204815
 11
181.09290458060602
 21
140.52241144953547
  0
LINE
  8
_1-0_
  6
DASHED1
 62
    7
 10
182.89290557036529
 20
147.31265506228885
 11
182.89290557036529
 21
140.52241144953547
  0
LINE
  8
_1-0_
  6
DASHED1
 62
    7
 10
33.489461331754114
 20
100.52039893897805
 11
181.99290507548565
 21
167.34695434570312
  0
LINE
  8
_1-0_
  6
DASHED1
 62
    7
 10
330.49633954022386
 20
100.52039893897805
 11
181.99290507548565
 21
167.34695434570312
  0
LINE
  8
_1-1_
  6
DASHED1
 62
    3
 10
227.5889876082137
 20
148.36394026472763
 11
181.99290507548565
 21
168.88218235325169
  0
LINE
  8
_1-3_
  6
DASHED1
 62
    3
 10
227.42483602987755
 20
147.99917685019005
 11
330.51734718116558
 21
101.60753198572108
  0
LINE
  8
_1-3_
  6
CONTINUOUS
 62
    7
 10
149.14337570602831
 20
120.04220086175043
 11
137.88820421373524
 21
145.05367794552365
  0
LINE
  8
_1-3_
  6
CONTINUOUS
 62
    7
 10
194.57384676546664
 20
140.4859140756968
 11
183.31867527317357
 21
165.49739115947003
  0
LINE
  8
_1-3_
  6
DASHED1
 62
    3
 10
136.56243401604729
 20
147.99983256572003
 11
181.99290507548565
 21
168.44354577966641
  0
LINE
  8
_1-3_
  6
DASHED1
 62
    3
 10
227.42483602987755
 20
147.99917685019005
 11
181.99290507548565
 21
168.44354577966641
  0
LINE
  8
_1-3_
  6
CONTINUOUS
 62
    7
 10
149.14337570602831
 20
120.04220086175043
 11
194.57384676546664
 21
140.4859140756968
  0
LINE
  8
_1-3_
  6
CONTINUOUS
 62
    7
 10
169.28430918100719
 20
140.64086089263091
 11
180.53862700591216
 21
165.65045743375211
  0
LINE
  8
_1-3_
  6
CONTINUOUS
 62
    7
 10
214.88037934174409
 20
120.12261880410685
 11
226.13470953864021
 21
145.13221534522805
  0
LINE
  8
_1-3_
  6
CONTINUOUS
 62
    7
 10
169.28430918100719
 20
140.64086089263091
 11
214.88037934174409
 21
120.12261880410685
  0
LINE
  8
_1-6_
  6
CONTINUOUS
 62
    3
 10
211.680908203125
 20
169.69684085330448
 11
212.94641443201016
 21
169.12308976456927
  0
LINE
  8
_1-6_
  6
CONTINUOUS
 62
    3
 10
212.94641443201016
 20
169.12308976456927
 11
211.63278115762247
 21
166.22573027739654
  0
LINE
  8
_1-6_
  6
CONTINUOUS
 62
    3
 10
212.94641443201016
 20
169.12308976456927
 11
211.63278115762247
 21
166.22573027739654
  0
LINE
  8
_1-6_
  6
CONTINUOUS
 62
    3
 10
212.01596646695523
 20
172.70964338972763
 11
205.51874109216641
 21
172.11443926836995
  0
LINE
  8
_1-6_
  6
CONTINUOUS
 62
    3
 10
259.95154303473396
 20
147.81191439241977
 11
261.21702451963682
 21
147.23816330368456
  0
LINE
  8
_1-6_
  6
CONTINUOUS
 62
    3
 10
205.51874109216641
 20
172.11443926836995
 11
204.36257852090372
 21
169.56433682828336
  0
LINE
  8
_1-6_
  6
CONTINUOUS
 62
    3
 10
209.50509561074747
 20
169.83352661132812
 11
204.36257852090372
 21
169.56433682828336
  0
LINE
  8
_1-6_
  6
CONTINUOUS
 62
    3
 10
261.21702451963682
 20
147.23816330368456
 11
259.90341598923141
 21
144.34080381651182
  0
LINE
  8
_1-6_
  6
CONTINUOUS
 62
    3
 10
261.21702451963682
 20
147.23816330368456
 11
259.90341598923141
 21
144.34080381651182
  0
LINE
  8
_1-6_
  6
CONTINUOUS
 62
    3
 10
260.28650232263516
 20
150.82460558092274
 11
253.78930169182857
 21
150.22940145956505
  0
LINE
  8
_1-6_
  6
CONTINUOUS
 62
    3
 10
308.22205414643162
 20
125.926888955606
 11
309.48753563133448
 21
125.35313786687078
  0
LINE
  8
_1-6_
  6
CONTINUOUS
 62
    3
 10
253.78930169182857
 20
150.22940145956505
 11
252.63311437658362
 21
147.67929901947846
  0
LINE
  8
_1-6_
  6
CONTINUOUS
 62
    3
 10
257.7756314664274
 20
147.94850117451438
 11
252.63311437658362
 21
147.67929901947846
  0
LINE
  8
_1-6_
  6
CONTINUOUS
 62
    3
 10
309.48753563133448
 20
125.35313786687078
 11
308.17392710092906
 21
122.45579075168919
  0
LINE
  8
_1-6_
  6
CONTINUOUS
 62
    3
 10
309.48753563133448
 20
125.35313786687078
 11
308.17392710092906
 21
122.45579075168919
  0
LINE
  8
_1-6_
  6
CONTINUOUS
 62
    3
 10
307.9248046875
 20
121.90631350955448
 11
307.90884481894005
 21
121.87109045080237
  0
LINE
  8
_1-6_
  6
CONTINUOUS
 62
    3
 10
308.55703817831505
 20
128.93960488809122
 11
302.05983754750844
 21
128.34437602275128
  0
LINE
  8
_1-6_
  6
CONTINUOUS
 62
    3
 10
302.05983754750844
 20
128.34437602275128
 11
300.90367497624578
 21
125.7942735826647
  0
LINE
  8
_1-6_
  6
CONTINUOUS
 62
    3
 10
306.04616732210729
 20
126.06345099371833
 11
300.90367497624578
 21
125.7942735826647
  0
LINE
  8
ADD_LINE
  6
DOT
 62
    4
 10
326.2808557458826
 20
110.77502276446369
 11
335.55537043391047
 21
106.57011702254012
  0
LINE
  8
_1-6_
  6
CONTINUOUS
 62
    3
 10
188.22399654903927
 20
170.46449815904774
 11
189.31241009686445
 21
172.83841107342695
  0
LINE
  8
_1-6_
  6
CONTINUOUS
 62
    3
 10
57.789434484533359
 20
127.97698974609375
 11
59.059215236354532
 21
128.541164913693
  0
LINE
  8
_1-6_
  6
CONTINUOUS
 62
    3
 10
59.059215236354532
 20
128.541164913693
 11
60.350906784470027
 21
125.63396969357053
  0
LINE
  8
_1-6_
  6
CONTINUOUS
 62
    3
 10
59.059215236354532
 20
128.541164913693
 11
60.350906784470027
 21
125.63396969357053
  0
LINE
  8
_1-6_
  6
CONTINUOUS
 62
    3
 10
55.761114584433074
 20
130.22964477539062
 11
51.887465812064505
 21
124.97959033862965
  0
LINE
  8
_1-6_
  6
CONTINUOUS
 62
    3
 10
106.22384973474452
 20
149.49685586465372
 11
107.49363667256124
 21
150.06103103225297
  0
LINE
  8
_1-6_
  6
CONTINUOUS
 62
    3
 10
51.887465812064505
 20
124.97959033862965
 11
53.02434972814612
 21
122.42083987674198
  0
LINE
  8
_1-6_
  6
CONTINUOUS
 62
    3
 10
56.241178770323074
 20
126.44202155035896
 11
53.02434972814612
 21
122.42083987674198
  0
LINE
  8
_1-6_
  6
CONTINUOUS
 62
    3
 10
107.49363667256124
 20
150.06103103225297
 11
108.78532203468117
 21
147.1538358121305
  0
LINE
  8
_1-6_
  6
CONTINUOUS
 62
    3
 10
107.49363667256124
 20
150.06103103225297
 11
108.78532203468117
 21
147.1538358121305
  0
LINE
  8
_1-6_
  6
CONTINUOUS
 62
    3
 10
109.03028745908996
 20
146.6024903993349
 11
109.04599988782729
 21
146.56715599266261
  0
LINE
  8
_1-6_
  6
CONTINUOUS
 62
    3
 10
104.19552364864866
 20
151.74952326594172
 11
100.3219088992557
 21
146.49946882918076
  0
LINE
  8
_1-6_
  6
CONTINUOUS
 62
    3
 10
154.65830210092906
 20
171.0167219832137
 11
155.92810141073693
 21
171.58090952280406
  0
LINE
  8
_1-6_
  6
CONTINUOUS
 62
    3
 10
100.3219088992557
 20
146.49946882918076
 11
101.45878972233953
 21
143.94071836729307
  0
LINE
  8
_1-6_
  6
CONTINUOUS
 62
    3
 10
104.67561876451647
 20
147.96188766891893
 11
101.45878972233953
 21
143.94071836729307
  0
LINE
  8
ADD_LINE
  6
DOT
 62
    4
 10
129.54741606841216
 20
152.9189733556799
 11
138.85341747387037
 21
157.05371753589529
  0
LINE
  8
_1-6_
  6
CONTINUOUS
 62
    3
 10
155.92810141073693
 20
171.58090952280406
 11
157.21978677285685
 21
168.67372667467274
  0
LINE
  8
_1-6_
  6
CONTINUOUS
 62
    3
 10
155.92810141073693
 20
171.58090952280406
 11
157.21978677285685
 21
168.67372667467274
  0
LINE
  8
_1-6_
  6
CONTINUOUS
 62
    3
 10
152.62995127085094
 20
173.26938938450169
 11
148.75633033546242
 21
168.01934731973185
  0
LINE
  8
_1-6_
  6
CONTINUOUS
 62
    3
 10
148.75633033546242
 20
168.01934731973185
 11
149.89320497255068
 21
165.46058448585305
  0
LINE
  8
_1-6_
  6
CONTINUOUS
 62
    3
 10
153.11003401472763
 20
169.48175378747891
 11
149.89320497255068
 21
165.46058448585305
  0
LINE
  8
_1-6_
  6
CONTINUOUS
 62
    3
 10
171.36253150733742
 20
173.81416527000636
 11
172.52474398226352
 21
171.19840467298354
  0
LINE
  8
_1-6_
  6
CONTINUOUS
 62
    7
 10
322.86188074060391
 20
109.87744717984587
 11
188.22399654903927
 21
170.46449815904774
  0
LINE
  8
_1-6_
  6
CONTINUOUS
 62
    7
 10
42.62893882957664
 20
110.5547147183805
 11
175.37293717667865
 21
170.28953346046242
  0
LINE
  8
_1-6_
  6
CONTINUOUS
 62
    7
 10
175.37293717667865
 20
170.28953346046242
 11
176.68611268739443
 21
167.37138902818836
  0
LINE
  8
_1-0_
  6
CONTINUOUS
 62
    7
 10
330.74256690772808
 20
102.82209654112121
 11
187.87802618903083
 21
167.11113182274073
  0
LINE
  8
_1-0_
  6
CONTINUOUS
 62
    7
 10
187.87802618903083
 20
167.11113182274073
 11
181.99290507548565
 21
169.75944312843117
  0
LINE
  8
_1-6_
  6
CONTINUOUS
 62
    7
 10
188.22399654903927
 20
170.46449815904774
 11
186.91083341031461
 21
167.54637847075591
  0
LINE
  8
_1-2_
  6
CONTINUOUS
 62
    3
 10
155.10725691511826
 20
186.16182069520693
 11
155.57789982976141
 21
180.78236760319891
  0
LINE
  8
_1-2_
  6
CONTINUOUS
 62
    3
 10
154.17465622360643
 20
180.0468279864337
 11
154.64529913824958
 21
174.66736252243456
  0
LINE
  8
_1-2_
  6
CONTINUOUS
 62
    3
 10
174.28287815403294
 20
185.41982289907097
 11
174.59664422112544
 21
181.83351671373524
  0
LINE
  8
_1-3_
  6
CONTINUOUS
 62
    7
 10
199.78325921135982
 20
188.05967176282729
 11
209.48906151024073
 21
204.87060959274706
  0
LINE
  8
_1-3_
  6
CONTINUOUS
 62
    7
 10
209.48906151024073
 20
204.87060959274706
 11
201.22486836201438
 21
180.85163838154563
  0
LINE
  8
_1-3_
  6
CONTINUOUS
 62
    7
 10
208.13796584670609
 20
240.64542203336151
 11
213.24324324324326
 21
240.64542203336151
  0
LINE
  8
_1-3_
  6
CONTINUOUS
 62
    7
 10
209.48906151024073
 20
204.87060959274706
 11
213.81643759237755
 21
204.87060959274706
  0
LINE
  8
ADD_LINE
  6
DOT
 62
    7
 10
154.17465622360643
 20
180.04681561444258
 11
153.7124015189506
 21
180.04681561444258
  0
LINE
  8
_1-3_
  6
CONTINUOUS
 62
    7
 10
212.40439750052789
 20
227.05238960884714
 11
214.93686985325169
 21
227.05238960884714
  0
LINE
  8
_1-0_
  6
CONTINUOUS
 62
    7
 10
182.22269006677578
 20
186.54447400892104
 11
162.95201481999578
 21
239.49022447740711
  0
LINE
  8
_1-0_
  6
CONTINUOUS
 62
    7
 10
162.95201481999578
 20
239.49022447740711
 11
160.26505341400971
 21
239.49022447740711
  0
LINE
  8
_1-0_
  6
CONTINUOUS
 62
    7
 10
210.8148193359375
 20
234.7960188582137
 11
213.26516641152872
 21
234.7960188582137
  0
LINE
  8
_1-0_
  6
CONTINUOUS
 62
    7
 10
177.47101654877534
 20
191.90467628272805
 11
165.42594291068414
 21
224.9982431772593
  0
LINE
  8
_1-0_
  6
CONTINUOUS
 62
    7
 10
165.42594291068414
 20
224.9982431772593
 11
175.99291002428211
 21
185.69236549171242
  0
LINE
  8
_1-0_
  6
CONTINUOUS
 62
    7
 10
165.42594291068414
 20
224.9982431772593
 11
161.76771834089951
 21
224.9982431772593
  0
LINE
  8
_1-2_
  6
CONTINUOUS
 62
    3
 10
175.21547884554477
 20
191.53481560784419
 11
175.52924491263727
 21
187.94850942250847
  0
LINE
  8
_1-2_
  6
CONTINUOUS
 62
    3
 10
155.73673145191091
 20
192.00401099952492
 11
156.20737436655406
 21
186.6245579075169
  0
LINE
  8
_1-2_
  6
CONTINUOUS
 62
    3
 10
175.84495338233742
 20
197.37699354017104
 11
176.1587194494299
 21
193.79068735483531
  0
LINE
  8
_1-2_
  6
CONTINUOUS
 62
    3
 10
208.87855323585305
 20
186.16182069520693
 11
208.40792269320102
 21
180.78236760319891
  0
LINE
  8
_1-2_
  6
CONTINUOUS
 62
    3
 10
209.81115392736487
 20
180.0468279864337
 11
209.34052338471284
 21
174.66736252243456
  0
LINE
  8
_1-2_
  6
CONTINUOUS
 62
    3
 10
189.70293199693836
 20
185.41982289907097
 11
189.38916592984586
 21
181.83351671373524
  0
LINE
  8
ADD_LINE
  6
DOT
 62
    7
 10
209.81115392736487
 20
180.04681561444258
 11
210.27342100401182
 21
180.04681561444258
  0
LINE
  8
_1-2_
  6
CONTINUOUS
 62
    3
 10
188.77033130542654
 20
191.53481560784419
 11
188.45656523833404
 21
187.94850942250847
  0
LINE
  8
_1-2_
  6
CONTINUOUS
 62
    3
 10
208.24906632706927
 20
192.00401099952492
 11
207.77843578441724
 21
186.6245579075169
  0
LINE
  8
_1-2_
  6
CONTINUOUS
 62
    3
 10
188.14085676863388
 20
197.37699354017104
 11
187.82709070154141
 21
193.79068735483531
  0
LINE
  8
_1-0_
  6
CONTINUOUS
 62
    7
 10
184.02427467139992
 20
195.93872482712206
 11
210.8148193359375
 21
234.7960188582137
  0
LINE
  8
_1-0_
  6
CONTINUOUS
 62
    3
 10
181.99291744747677
 20
205.38539577174834
 11
182.89290557036529
 21
196.19630968248524
  0
LINE
  8
_1-0_
  6
CONTINUOUS
 62
    3
 10
184.51780576963682
 20
196.4749269227724
 11
181.99291744747677
 21
205.38544525971284
  0
LINE
  8
_1-3_
  6
CONTINUOUS
 62
    7
 10
183.8983154296875
 20
198.66115673168287
 11
208.13796584670609
 21
240.64542203336151
  0
LINE
  8
_1-0_
  6
CONTINUOUS
 62
    7
 10
181.09290458060602
 20
167.59991207638302
 11
181.09290458060602
 21
196.75439783044766
  0
LINE
  8
_1-0_
  6
CONTINUOUS
 62
    7
 10
182.89290557036529
 20
196.75439783044766
 11
181.09290458060602
 21
196.75439783044766
  0
LINE
  8
_1-0_
  6
CONTINUOUS
 62
    7
 10
182.89290557036529
 20
167.5998997043919
 11
182.89290557036529
 21
196.75439783044766
  0
LINE
  8
_1-7_
  6
CONTINUOUS
 62
    3
 10
283.71954840582771
 20
120.9987784720756
 11
276.71502190667229
 21
104.41756377349029
  0
LINE
  8
_1-7_
  6
CONTINUOUS
 62
    3
 10
284.08803578969594
 20
120.84311407965583
 11
277.08350929054058
 21
104.26189938107053
  0
LINE
  8
_1-7_
  6
CONTINUOUS
 62
    3
 10
285.02986598659209
 20
121.53081120671453
 11
292.39931673616979
 21
118.41768419420397
  0
LINE
  8
_1-7_
  6
CONTINUOUS
 62
    3
 10
284.87422633815459
 20
121.16233619483742
 11
292.24365234375
 21
118.04920918232686
  0
LINE
  8
_1-7_
  6
CONTINUOUS
 62
    3
 10
277.2470670133024
 20
103.10724000673036
 11
284.61649301889781
 21
99.994119180215378
  0
LINE
  8
_1-7_
  6
CONTINUOUS
 62
    3
 10
277.40273140572214
 20
103.47571501860747
 11
284.77215741131761
 21
100.36258800609693
  0
LINE
  8
_1-7_
  6
CONTINUOUS
 62
    3
 10
292.93133709881761
 20
117.10736661343962
 11
291.763916015625
 21
114.34383495433912
  0
LINE
  8
_1-7_
  6
CONTINUOUS
 62
    3
 10
292.56287445893162
 20
117.26301863386826
 11
291.39545337573901
 21
114.49948697476775
  0
LINE
  8
_1-7_
  6
CONTINUOUS
 62
    3
 10
291.39545337573901
 20
114.49948697476775
 11
291.763916015625
 21
114.34383495433912
  0
LINE
  8
_1-7_
  6
CONTINUOUS
 62
    3
 10
285.92681059966219
 20
100.52615810084988
 11
287.09423168285474
 21
103.28968975995039
  0
LINE
  8
_1-7_
  6
CONTINUOUS
 62
    3
 10
285.5583479597762
 20
100.68181012127852
 11
286.72576904296875
 21
103.44534796637458
  0
LINE
  8
_1-7_
  6
CONTINUOUS
 62
    3
 10
286.72576904296875
 20
103.44534796637458
 11
287.09423168285474
 21
103.28968975995039
  0
LINE
  8
_1-7_
  6
CONTINUOUS
 62
    3
 10
80.266249373152448
 20
120.9987784720756
 11
87.270782058303425
 21
104.41756377349029
  0
LINE
  8
_1-7_
  6
CONTINUOUS
 62
    3
 10
79.897780547270912
 20
120.84311407965583
 11
86.902313232421875
 21
104.26189938107053
  0
LINE
  8
_1-7_
  6
CONTINUOUS
 62
    3
 10
78.9559317923881
 20
121.53081120671453
 11
71.586505786792657
 21
118.41768419420397
  0
LINE
  8
_1-7_
  6
CONTINUOUS
 62
    3
 10
79.111589998812292
 20
121.16233619483742
 11
71.742163993216849
 21
118.04920918232686
  0
LINE
  8
_1-7_
  6
CONTINUOUS
 62
    3
 10
86.738743137668919
 20
103.10724000673036
 11
79.36931713207349
 21
99.994119180215378
  0
LINE
  8
_1-7_
  6
CONTINUOUS
 62
    3
 10
86.583084931244727
 20
103.47571501860747
 11
79.21365892564927
 21
100.36258800609693
  0
LINE
  8
_1-7_
  6
CONTINUOUS
 62
    3
 10
71.054466866158151
 20
117.10736661343962
 11
72.22188794935073
 21
114.34383495433912
  0
LINE
  8
_1-7_
  6
CONTINUOUS
 62
    3
 10
71.42294187803526
 20
117.26301863386826
 11
72.590362961227839
 21
114.49948697476775
  0
LINE
  8
_1-7_
  6
CONTINUOUS
 62
    3
 10
72.590362961227839
 20
114.49948697476775
 11
72.22188794935073
 21
114.34383495433912
  0
LINE
  8
_1-7_
  6
CONTINUOUS
 62
    3
 10
78.058999551309114
 20
100.52615810084988
 11
76.891578468116563
 21
103.28968975995039
  0
LINE
  8
_1-7_
  6
CONTINUOUS
 62
    3
 10
78.427468377190678
 20
100.68181012127852
 11
77.260047293998099
 21
103.44534796637458
  0
LINE
  8
_1-7_
  6
CONTINUOUS
 62
    3
 10
77.260047293998099
 20
103.44534796637458
 11
76.891578468116563
 21
103.28968975995039
  0
LINE
  8
_1-4_
  6
CONTINUOUS
 62
    7
 10
114.44394910657729
 20
151.16258363466005
 11
99.372222487990925
 21
177.26757152660474
  0
LINE
  8
_1-4_
  6
CONTINUOUS
 62
    7
 10
99.372222487990925
 20
177.26757152660474
 11
91.741252589870143
 21
177.26757152660474
  0
LINE
  8
_1-7_
  6
CONTINUOUS
 62
    7
 10
294.58188443570526
 20
192.69799309807857
 11
300.32956509976776
 21
192.69799309807857
  0
LINE
  8
_1-7_
  6
CONTINUOUS
 62
    7
 10
300.32956509976776
 20
185.65251530827703
 11
292.32038343274917
 21
185.65251530827703
  0
LINE
  8
_1-7_
  6
CONTINUOUS
 62
    7
 10
300.32956509976776
 20
175.5667444177576
 11
289.0829797693201
 21
175.5667444177576
  0
LINE
  8
_1-7_
  6
CONTINUOUS
 62
    7
 10
300.32956509976776
 20
168.70282559781461
 11
286.87975084459458
 21
168.70282559781461
  0
LINE
  8
_1-7_
  6
CONTINUOUS
 62
    7
 10
300.32956509976776
 20
161.8388944058805
 11
284.67649717588682
 21
161.8388944058805
  0
LINE
  8
_1-7_
  6
CONTINUOUS
 62
    7
 10
300.32956509976776
 20
155.95553011507602
 11
282.78801170555323
 21
155.95553011507602
  0
LINE
  8
_1-7_
  6
CONTINUOUS
 62
    7
 10
273.56887404983109
 20
127.23434860641892
 11
294.58188443570526
 21
192.69799309807857
  0
LINE
  8
_1-2_
  6
CONTINUOUS
 62
    3
 10
181.99290507548565
 20
205.06299405484586
 11
182.01858932907518
 21
205.18830995301943
  0
LINE
  8
_1-2_
  6
CONTINUOUS
 62
    3
 10
182.01858932907518
 20
205.18830995301943
 11
182.11428668047932
 21
205.28400730442357
  0
LINE
  8
_1-2_
  6
CONTINUOUS
 62
    3
 10
182.11428668047932
 20
205.28400730442357
 11
182.20997165989232
 21
205.3079347352724
  0
LINE
  8
_1-2_
  6
CONTINUOUS
 62
    3
 10
182.20997165989232
 20
205.3079347352724
 11
182.30566901129646
 21
205.3079347352724
  0
LINE
  8
_1-2_
  6
CONTINUOUS
 62
    3
 10
182.30566901129646
 20
205.3079347352724
 11
182.4013663627006
 21
205.3079347352724
  0
LINE
  8
_1-2_
  6
CONTINUOUS
 62
    3
 10
182.4013663627006
 20
205.3079347352724
 11
182.30566901129646
 21
205.18830995301943
  0
LINE
  8
_1-2_
  6
CONTINUOUS
 62
    3
 10
182.30566901129646
 20
205.18830995301943
 11
182.20997165989232
 21
205.14046746331294
  0
LINE
  8
_1-2_
  6
CONTINUOUS
 62
    3
 10
182.20997165989232
 20
205.14046746331294
 11
182.11428668047932
 21
205.11654003246412
  0
LINE
  8
_1-2_
  6
CONTINUOUS
 62
    3
 10
182.11428668047932
 20
205.11654003246412
 11
181.99290507548565
 21
205.06299405484586
  0
LINE
  8
_1-2_
  6
CONTINUOUS
 62
    3
 10
181.99291744747677
 20
205.06299405484586
 11
181.94681940851987
 21
205.18830995301943
  0
LINE
  8
_1-2_
  6
CONTINUOUS
 62
    3
 10
181.94681940851987
 20
205.18830995301943
 11
181.85112205711573
 21
205.21223738386826
  0
LINE
  8
_1-2_
  6
CONTINUOUS
 62
    3
 10
181.85112205711573
 20
205.21223738386826
 11
181.75542470571159
 21
205.21223738386826
  0
LINE
  8
_1-2_
  6
CONTINUOUS
 62
    3
 10
181.75542470571159
 20
205.21223738386826
 11
181.65972735430745
 21
205.21223738386826
  0
LINE
  8
_1-2_
  6
CONTINUOUS
 62
    3
 10
181.65972735430745
 20
205.21223738386826
 11
181.56403000290331
 21
205.21223738386826
  0
LINE
  8
_1-2_
  6
CONTINUOUS
 62
    3
 10
181.56403000290331
 20
205.21223738386826
 11
181.46834502349029
 21
205.23616481471709
  0
LINE
  8
_1-2_
  6
CONTINUOUS
 62
    3
 10
181.46834502349029
 20
205.23616481471709
 11
181.37264767208615
 21
205.23616481471709
  0
LINE
  8
_1-2_
  6
CONTINUOUS
 62
    3
 10
181.37264767208615
 20
205.23616481471709
 11
181.46834502349029
 21
205.18830995301943
  0
LINE
  8
_1-2_
  6
CONTINUOUS
 62
    3
 10
181.46834502349029
 20
205.18830995301943
 11
181.56403000290331
 21
205.16439489416175
  0
LINE
  8
_1-2_
  6
CONTINUOUS
 62
    3
 10
181.56403000290331
 20
205.16439489416175
 11
181.65972735430745
 21
205.14046746331294
  0
LINE
  8
_1-2_
  6
CONTINUOUS
 62
    3
 10
181.65972735430745
 20
205.14046746331294
 11
181.77935213656039
 21
205.11654003246412
  0
LINE
  8
_1-2_
  6
CONTINUOUS
 62
    3
 10
181.77935213656039
 20
205.11654003246412
 11
181.87504948796453
 21
205.11654003246412
  0
LINE
  8
_1-2_
  6
CONTINUOUS
 62
    3
 10
181.87504948796453
 20
205.11654003246412
 11
181.99466189822635
 21
205.09262497360643
  0
LINE
  8
_1-2_
  6
CONTINUOUS
 62
    3
 10
181.99466189822635
 20
205.09262497360643
 11
181.99291744747677
 21
205.06299405484586
  0
ARC
  8
_1-0_
  6
CONTINUOUS
 62
    3
 10
180.39290969436234
 20
137.92241276921453
 40
0.9999999162313101
 50
0
 51
90
  0
ARC
  8
_1-0_
  6
CONTINUOUS
 62
    3
 10
183.59290045660896
 20
137.92241276921453
 40
0.9999999162313101
 50
90
 51
180
  0
ARC
  8
_1-0_
  6
CONTINUOUS
 62
    3
 10
183.59290045660896
 20
103.12241425385346
 40
0.9999999162313101
 50
180
 51
270
  0
ARC
  8
_1-0_
  6
CONTINUOUS
 62
    3
 10
180.39290969436234
 20
103.12241425385346
 40
0.9999999162313101
 50
270
 51
0
  0
ARC
  8
_1-6_
  6
CONTINUOUS
 62
    3
 10
210.72170773067992
 20
170.09946256070523
 40
1.0402513194728542
 50
284.693115234375
 51
337.22573852539062
  0
ARC
  8
_1-6_
  6
CONTINUOUS
 62
    3
 10
212.68063931851773
 20
169.71998884871201
 40
3.0627306731971538
 50
18.301818847656239
 51
102.53201293945312
  0
ARC
  8
_1-6_
  6
CONTINUOUS
 62
    3
 10
258.99229307432432
 20
148.21453609982052
 40
1.0402513194728542
 50
284.693115234375
 51
337.22573852539062
  0
ARC
  8
_1-6_
  6
CONTINUOUS
 62
    3
 10
255.92302477037586
 20
193.36217106999578
 40
46.274049088761615
 50
209.34938049316403
 51
274.13064575195312
  0
ARC
  8
_1-6_
  6
CONTINUOUS
 62
    3
 10
210.47634640255492
 20
165.31026479360222
 40
4.6263270764737516
 50
22.734313964843739
 51
102.11843872070312
  0
ARC
  8
_1-6_
  6
CONTINUOUS
 62
    3
 10
255.97105283994935
 20
192.72482794684333
 40
48.543530025997683
 50
211.86442565917969
 51
274.64628601074219
  0
ARC
  8
_1-6_
  6
CONTINUOUS
 62
    3
 10
260.95117517419766
 20
147.83495103990711
 40
3.0627306731971538
 50
18.301818847656239
 51
102.53201293945312
  0
ARC
  8
_1-6_
  6
CONTINUOUS
 62
    3
 10
307.26285367398651
 20
126.32951066300676
 40
1.0402513194728542
 50
284.693115234375
 51
337.22573852539062
  0
ARC
  8
_1-6_
  6
CONTINUOUS
 62
    3
 10
304.19358537003802
 20
171.47712088919977
 40
46.274049088761615
 50
209.34938049316403
 51
274.13064575195312
  0
ARC
  8
_1-6_
  6
CONTINUOUS
 62
    3
 10
258.74688225823479
 20
143.42523935678844
 40
4.6263270764737516
 50
22.734313964843739
 51
102.11843872070312
  0
ARC
  8
_1-6_
  6
CONTINUOUS
 62
    3
 10
304.24161343961151
 20
170.83980251002956
 40
48.543530025997683
 50
211.86442565917969
 51
274.64628601074219
  0
ARC
  8
_1-6_
  6
CONTINUOUS
 62
    3
 10
309.22173577385979
 20
125.94992560309333
 40
3.0627306731971538
 50
18.301818847656239
 51
102.53201293945312
  0
ARC
  8
_1-6_
  6
CONTINUOUS
 62
    3
 10
307.01741811391469
 20
121.54018917599241
 40
4.6263270764737516
 50
22.734313964843739
 51
102.11843872070312
  0
ARC
  8
_1-6_
  6
CONTINUOUS
 62
    3
 10
209.79833654455237
 20
226.80591480152029
 40
57.724895992794558
 50
249.2133483886719
 51
271.178466796875
  0
ARC
  8
_1-6_
  6
CONTINUOUS
 62
    3
 10
211.85614508551521
 20
234.21673748944258
 40
67.991378371779987
 50
249.66087341308594
 51
269.81178283691406
  0
ARC
  8
_1-6_
  6
CONTINUOUS
 62
    3
 10
56.851056073163022
 20
127.52788646801099
 40
1.0402513194728542
 50
333.03787231445312
 51
25.570495605468768
  0
ARC
  8
_1-6_
  6
CONTINUOUS
 62
    3
 10
58.436631898622267
 20
128.73919100374789
 40
3.0627306731971538
 50
66.646575927734375
 51
150.87677001953125
  0
ARC
  8
_1-6_
  6
CONTINUOUS
 62
    3
 10
105.28549606735642
 20
149.04776495856208
 40
1.0402513194728542
 50
333.03787231445312
 51
25.570495605468768
  0
ARC
  8
_1-6_
  6
CONTINUOUS
 62
    3
 10
69.513139466981613
 20
176.76177978515625
 40
46.274049088761615
 50
257.69413757324219
 51
322.47540283203125
  0
ARC
  8
_1-6_
  6
CONTINUOUS
 62
    3
 10
60.266300923115494
 20
124.16131921716639
 40
4.6263270764737516
 50
71.079071044921889
 51
150.46319580078128
  0
ARC
  8
_1-6_
  6
CONTINUOUS
 62
    3
 10
70.021238584776199
 20
176.37405395507812
 40
48.543530025997683
 50
260.20918273925781
 51
322.99104309082031
  0
ARC
  8
_1-6_
  6
CONTINUOUS
 62
    3
 10
106.87107807881124
 20
150.25906949429898
 40
3.0627306731971538
 50
66.646575927734375
 51
150.87677001953125
  0
ARC
  8
_1-6_
  6
CONTINUOUS
 62
    3
 10
153.71994843354096
 20
170.56763107712206
 40
1.0402513194728542
 50
333.03787231445312
 51
25.570495605468768
  0
ARC
  8
_1-6_
  6
CONTINUOUS
 62
    3
 10
117.94756090318835
 20
198.28164590371622
 40
46.274049088761615
 50
257.69413757324219
 51
322.47540283203125
  0
ARC
  8
_1-6_
  6
CONTINUOUS
 62
    3
 10
108.70074710330448
 20
145.68118533572635
 40
4.6263270764737516
 50
71.079071044921889
 51
150.46319580078128
  0
ARC
  8
_1-6_
  6
CONTINUOUS
 62
    3
 10
118.4556785789696
 20
197.89393244562925
 40
48.543530025997683
 50
260.20918273925781
 51
322.99104309082031
  0
ARC
  8
_1-6_
  6
CONTINUOUS
 62
    3
 10
155.3054933290224
 20
171.77893561285896
 40
3.0627306731971538
 50
66.646575927734375
 51
150.87677001953125
  0
ARC
  8
_1-6_
  6
CONTINUOUS
 62
    3
 10
157.13516235351562
 20
167.20106382627745
 40
4.6263270764737516
 50
71.079071044921889
 51
150.46319580078128
  0
ARC
  8
_1-6_
  6
CONTINUOUS
 62
    3
 10
166.89009382918076
 20
219.41379856418919
 40
48.543530025997683
 50
260.20918273925781
 51
276.66558837890625
  0
ARC
  8
_1-6_
  6
CONTINUOUS
 62
    3
 10
166.35099668760557
 20
220.26434821051521
 40
46.719762441274284
 50
257.85218811035156
 51
276.15785217285156
  0
ARC
  8
_1-6_
  6
CONTINUOUS
 62
    3
 10
352.51214929529141
 20
148.95476470122466
 40
48.543530025997683
 50
211.86442565917969
 51
232.352783203125
  0
ARC
  8
_1-6_
  6
CONTINUOUS
 62
    3
 10
352.46412122571792
 20
149.59210782437711
 40
46.274049088761615
 50
209.34938049316403
 51
230.22937011718747
  0
ARC
  8
_1-6_
  6
CONTINUOUS
 62
    3
 10
21.586795497585001
 20
154.85417546452703
 40
48.543530025997683
 50
295.68794250488281
 51
322.99104309082031
  0
ARC
  8
_1-6_
  6
CONTINUOUS
 62
    3
 10
21.078676275304844
 20
155.24188892261404
 40
46.274049088761615
 50
297.75613403320312
 51
322.47540283203131
  0
ARC
  8
_1-2_
  6
CONTINUOUS
 62
    3
 10
179.15597039300044
 20
146.49484170449747
 40
41.612016832506335
 50
95
 51
124.5146484375
  0
ARC
  8
_1-2_
  6
CONTINUOUS
 62
    3
 10
180.4594710066512
 20
131.59574766416807
 40
60.168024011560391
 50
95
 51
114.92028808593749
  0
ARC
  8
_1-2_
  6
CONTINUOUS
 62
    3
 10
178.22336970148862
 20
140.37983662373313
 40
41.612016832506335
 50
95
 51
124.5146484375
  0
ARC
  8
_1-2_
  6
CONTINUOUS
 62
    3
 10
179.52687031513938
 20
125.48074258340372
 40
60.168024011560391
 50
95
 51
114.92028808593749
  0
ARC
  8
_1-0_
  6
CONTINUOUS
 62
    3
 10
182.05503721494932
 20
149.48763873126057
 40
42.776932587494727
 50
77.950653076171875
 51
102.15516662597658
  0
ARC
  8
_1-0_
  6
CONTINUOUS
 62
    3
 10
181.96448661185602
 20
234.77468954550255
 40
47.954805734995254
 50
259.28425598144531
 51
280.84205627441406
  0
ARC
  8
_1-0_
  6
CONTINUOUS
 62
    3
 10
182.06879486908784
 20
122.90060094884925
 40
63.085036406645905
 50
80.891220092773438
 51
99.205169677734375
  0
ARC
  8
_1-0_
  6
CONTINUOUS
 62
    3
 10
181.92843462969807
 20
268.79410202438771
 40
87.839268864812084
 50
263.49494934082031
 51
276.62057495117187
  0
ARC
  8
_1-2_
  6
CONTINUOUS
 62
    3
 10
179.78544492979307
 20
152.33703200881547
 40
41.612016832506335
 50
95
 51
124.5146484375
  0
ARC
  8
_1-2_
  6
CONTINUOUS
 62
    3
 10
181.08894554344386
 20
137.43793796848607
 40
60.168024011560391
 50
95
 51
114.92028808593749
  0
ARC
  8
_1-2_
  6
CONTINUOUS
 62
    3
 10
184.82983975797086
 20
146.49484170449747
 40
41.612016832506335
 50
55.485351562500036
 51
85.000000000000028
  0
ARC
  8
_1-2_
  6
CONTINUOUS
 62
    3
 10
183.5263391443201
 20
131.59574766416807
 40
60.168024011560391
 50
65.079711914062472
 51
84.999999999999972
  0
ARC
  8
_1-2_
  6
CONTINUOUS
 62
    3
 10
185.76244044948268
 20
140.37983662373313
 40
41.612016832506335
 50
55.485351562500036
 51
85.000000000000028
  0
ARC
  8
_1-2_
  6
CONTINUOUS
 62
    3
 10
184.45893983583193
 20
125.48074258340372
 40
60.168024011560391
 50
65.079711914062472
 51
84.999999999999972
  0
ARC
  8
_1-2_
  6
CONTINUOUS
 62
    3
 10
184.20036522117823
 20
152.33703200881547
 40
41.612016832506335
 50
55.485351562500036
 51
85.000000000000028
  0
ARC
  8
_1-2_
  6
CONTINUOUS
 62
    3
 10
182.89686460752745
 20
137.43793796848607
 40
60.168024011560391
 50
65.079711914062472
 51
84.999999999999972
  0
ARC
  8
_1-7_
  6
CONTINUOUS
 62
    3
 10
284.64074212151604
 20
120.60962986301732
 40
0.6000000077324945
 50
67.098953247070327
 51
157.09895324707034
  0
ARC
  8
_1-7_
  6
CONTINUOUS
 62
    3
 10
284.64074212151604
 20
120.60962986301732
 40
1.0000000128874909
 50
67.098953247070327
 51
157.09895324707034
  0
ARC
  8
_1-7_
  6
CONTINUOUS
 62
    3
 10
292.01016812711151
 20
117.49650285050676
 40
0.6000000077324945
 50
337.09895324707031
 51
67.098953247070327
  0
ARC
  8
_1-7_
  6
CONTINUOUS
 62
    3
 10
292.01016812711151
 20
117.49650285050676
 40
1.0000000128874909
 50
337.09895324707031
 51
67.098953247070327
  0
ARC
  8
_1-7_
  6
CONTINUOUS
 62
    3
 10
277.63621562236068
 20
104.02841516443202
 40
0.6000000077324945
 50
157.09895324707034
 51
247.09895324707034
  0
ARC
  8
_1-7_
  6
CONTINUOUS
 62
    3
 10
277.63621562236068
 20
104.02841516443202
 40
1.0000000128874909
 50
157.09895324707034
 51
247.09895324707034
  0
ARC
  8
_1-7_
  6
CONTINUOUS
 62
    3
 10
285.00564162795609
 20
100.91529433791702
 40
0.6000000077324945
 50
247.09895324707031
 51
337.09895324707031
  0
ARC
  8
_1-7_
  6
CONTINUOUS
 62
    3
 10
285.00564162795609
 20
100.91529433791702
 40
1.0000000128874909
 50
247.09895324707031
 51
337.09895324707031
  0
ARC
  8
_1-7_
  6
CONTINUOUS
 62
    3
 10
79.345074215450808
 20
120.60962986301732
 40
0.6000000077324945
 50
22.901031494140664
 51
112.90103149414067
  0
ARC
  8
_1-7_
  6
CONTINUOUS
 62
    3
 10
79.345074215450808
 20
120.60962986301732
 40
1.0000000128874909
 50
22.901031494140664
 51
112.90103149414067
  0
ARC
  8
_1-7_
  6
CONTINUOUS
 62
    3
 10
71.975648209855365
 20
117.49650285050676
 40
0.6000000077324945
 50
112.90103149414064
 51
202.90103149414062
  0
ARC
  8
_1-7_
  6
CONTINUOUS
 62
    3
 10
71.975648209855365
 20
117.49650285050676
 40
1.0000000128874909
 50
112.90103149414064
 51
202.90103149414062
  0
ARC
  8
_1-7_
  6
CONTINUOUS
 62
    3
 10
86.349600714606211
 20
104.02841516443202
 40
0.6000000077324945
 50
292.90103149414068
 51
22.901031494140664
  0
ARC
  8
_1-7_
  6
CONTINUOUS
 62
    3
 10
86.349600714606211
 20
104.02841516443202
 40
1.0000000128874909
 50
292.90103149414068
 51
22.901031494140664
  0
ARC
  8
_1-7_
  6
CONTINUOUS
 62
    3
 10
78.980174709010782
 20
100.91529433791702
 40
0.6000000077324945
 50
202.90103149414065
 51
292.90103149414068
  0
ARC
  8
_1-7_
  6
CONTINUOUS
 62
    3
 10
78.980174709010782
 20
100.91529433791702
 40
1.0000000128874909
 50
202.90103149414065
 51
292.90103149414068
  0
TEXT
  8
_0-0_
 62
    7
 10
141.89189395389042
 20
14.594594594594582
 40
2.5
 41
1
 50
0
  1
縮尺
  0
TEXT
  8
_0-0_
 62
    7
 10
377.10214563318203
 20
22.865493362014362
 40
2.5
 41
1
 50
0
  1
ＮＯ
  0
TEXT
  8
_0-0_
 62
    7
 10
14.594594336844779
 20
24.324324324324323
 40
2.5
 41
1
 50
0
  1
和形
  0
TEXT
  8
_0-0_
 62
    7
 10
383.23801896378802
 20
18.523427086907475
 40
3
 41
1
 50
0
  1
Ｊ
  0
TEXT
  8
_1-0_
 62
    7
 10
169.90681828679266
 20
13.3181144095756
 40
2.5
 41
1
 50
0
  1
1/5
  0
TEXT
  8
_1-3_
 62
    7
 10
39.721903414339636
 20
15.395235628695104
 40
2.5
 41
1
 50
0
  1
棟　　2
  0
TEXT
  8
_1-0_
 62
    7
 10
25.556194717819636
 20
20.211577544341225
 40
2.5
 41
1
 50
0
  1
鉄骨
  0
TEXT
  8
_1-3_
 62
    7
 10
169.94357477938073
 20
129.95058183154413
 40
2.5
 41
1
 50
24.227719460851677
  1
250
  0
TEXT
  8
_1-3_
 62
    7
 10
190.57766819286257
 20
131.60713020788791
 40
2.5
 41
1
 50
-24.227719460851677
  1
250
  0
TEXT
  8
_1-3_
 62
    7
 10
215.05531929634714
 20
204.03208552180112
 40
2.5
 41
1
 50
0
  1
のし瓦
  0
TEXT
  8
_1-3_
 62
    7
 10
120.60106844515414
 20
210.38120579075169
 40
2.5
 41
1
 50
0
  1
葺き土
  0
TEXT
  8
_1-0_
 62
    7
 10
134.33475803684544
 20
238.16481306746201
 40
2.5
 41
1
 50
0
  1
鉄筋　９Φ　＠1000
  0
TEXT
  8
_1-0_
 62
    7
 10
135.88437260808172
 20
234.46608259871201
 40
2.5
 41
1
 50
0
  1
鉄骨下地に溶接
  0
TEXT
  8
_1-0_
 62
    7
 10
214.59876807960305
 20
233.99178994668497
 40
2.5
 41
1
 50
0
  1
横鉄筋　９φ
  0
TEXT
  8
_1-0_
 62
    7
 10
215.04332258894635
 20
239.54849655563768
 40
2.5
 41
1
 50
0
  1
被膜銅線　１.２φ
  0
TEXT
  8
_1-0_
 62
    7
 10
148.05592511151289
 20
223.81986050992401
 40
2.5
 41
1
 50
0
  1
銅線緊結
  0
TEXT
  8
_1-5_
 62
    7
 10
85.401233982395496
 20
176.34678608662375
 40
2.5
 41
1
 50
0
  1
桟瓦
  0
TEXT
  8
_1-7_
 62
    7
 10
303.63855310388516
 20
184.64751372466216
 40
2.5
 41
1
 50
0
  1
瓦桟　
  0
TEXT
  8
_1-7_
 62
    7
 10
302.96782622466219
 20
191.07428060995568
 40
2.5
 41
1
 50
0
  1
桟瓦
  0
TEXT
  8
_1-7_
 62
    7
 10
303.64011197476776
 20
160.44021606445312
 40
2.5
 41
1
 50
0
  1
野地板
  0
TEXT
  8
_1-7_
 62
    7
 10
317.64461208034209
 20
160.44021606445312
 40
2.5
 41
1
 50
0
  1
ｔ＝12
  0
TEXT
  8
_1-0_
 62
    7
 10
303.52532051705026
 20
154.65580295872044
 40
2.5
 41
1
 50
0
  1
垂木  Ｃ-100x50x20x2.3
  0
TEXT
  8
_1-0_
 62
    7
 10
394.3483383591111
 20
15.776374919994453
 40
2.5
 41
1
 50
0
  1
44
  0
POINT
  8
_1-3_
 62
    7
 10
149.14337570602831
 20
120.04220086175043
  0
POINT
  8
_1-3_
 62
    7
 10
194.57384676546664
 20
140.4859140756968
  0
POINT
  8
_1-3_
 62
    7
 10
169.28430918100719
 20
140.64086089263091
  0
POINT
  8
_1-3_
 62
    7
 10
214.88037934174409
 20
120.12261880410685
  0
LINE
  8
ADD_LINE
  6
DOT
 62
    4
 10
181.99290507548565
 20
218.71982324725934
 11
181.99290507548565
 21
242.69565332538434
  0
LINE
  8
_1-3_
  6
CONTINUOUS
 62
    7
 10
196.64138723254166
 20
199.75006888589877
 11
212.40439750052789
 21
227.05238960884714
  0
TEXT
  8
_1-0_
 62
    7
 10
216.59919120169974
 20
225.99010570629224
 40
2.5
 41
1
 50
0
  1
紐伏間
  0
TEXT
  8
_1-7_
 62
    7
 10
303.64011197476776
 20
174.4402127652555
 40
2.5
 41
1
 50
0
  1
縦桟
  0
TEXT
  8
_1-7_
 62
    7
 10
303.64012847075594
 20
167.44021441485432
 40
2.5
 41
1
 50
0
  1
ルーフィング
  0
LINE
  8
_1-3_
  6
CONTINUOUS
 62
    7
 10
137.07740704394379
 20
211.36562038112334
 11
130.54054054054055
 21
211.36562038112334
  0
LINE
  8
_1-3_
  6
CONTINUOUS
 62
    7
 10
137.07740704394379
 20
211.36562038112334
 11
152.41780873891472
 21
169.21823037637247
  0
TEXT
  8
_1-7_
 62
    7
 10
311.62361874537976
 20
181.53902620882602
 40
2.5
 41
1
 50
0
  1
※　地域により瓦桟木の大きさは、異なります
  0
TEXT
  8
_1-7_
 62
    7
 10
311.20943335026783
 20
184.72310659047722
 40
2.5
 41
1
 50
0
  1
15×21　（樹脂桟木）
  0
TEXT
  8
_1-3_
 62
    7
 10
126.22015669539169
 20
60.302853970914271
 40
2.5
 41
1
 50
0
  1
棟部分のルーフィングは、両方向へそれぞれ250ｍｍ以上重ね合わせること。
  0
TEXT
  8
_1-3_
 62
    7
 10
126.30794834446263
 20
56.191529969911329
 40
2.5
 41
1
 50
0
  1
隅棟部分のルーフィングは、重ね貼りの上に両方向へそれぞれ250ｍｍ以上増し貼りをすること。
  0
LINE
  8
ADD_LINE
  6
DOT
 62
    4
 10
172.52474398226352
 20
171.19840467298354
 11
173.32847423471196
 21
169.36952483646462
  0
LINE
  8
ADD_LINE
  6
DOT
 62
    4
 10
162.50271882870618
 20
173.70334564302522
 11
164.1440411384549
 21
179.53762578608155
  0
LINE
  8
ADD_LINE
  6
DOT
 62
    4
 10
165.38935924155362
 20
183.96426072398714
 11
165.94956856834261
 21
185.95559303685891
  0
LINE
  8
ADD_LINE
  6
DOT
 62
    4
 10
167.16519729355048
 20
190.27669346343811
 11
167.69313424159725
 21
192.15330967372202
  0
LINE
  8
ADD_LINE
  6
DOT
 62
    4
 10
168.8746492996666
 20
196.35314891375009
 11
169.15200287021617
 21
197.33903597545145
  0
LINE
  8
ADD_LINE
  6
DOT
 62
    4
 10
181.99290507548565
 20
159.33802966967258
 11
181.99290507548565
 21
232.01081530782031
  0
SOLID
  8
_1-8_
  6
CONTINUOUS
 62
    8
 10
164.1440411384549
 20
179.53762578608155
 11
162.50271882870618
 21
173.70334564302522
 12
164.16651974898605
 22
173.60598384203411
 13
164.16651974898605
 23
173.60598384203411
  0
SOLID
  8
_1-8_
  6
CONTINUOUS
 62
    8
 10
164.1440411384549
 20
179.53762578608155
 11
164.16651974898605
 21
173.60598384203411
 12
166.12042266794924
 22
173.55832767327891
 13
166.12042266794924
 23
173.55832767327891
  0
SOLID
  8
_1-8_
  6
CONTINUOUS
 62
    8
 10
164.1440411384549
 20
179.53762578608155
 11
166.12042266794924
 21
173.55832767327891
 12
167.88370091189165
 22
173.60598384203411
 13
167.88370091189165
 23
173.60598384203411
  0
SOLID
  8
_1-8_
  6
CONTINUOUS
 62
    8
 10
164.1440411384549
 20
179.53762578608155
 11
167.88370091189165
 21
173.60598384203411
 12
169.45635448081322
 22
173.60598384203411
 13
169.45635448081322
 23
173.60598384203411
  0
SOLID
  8
_1-8_
  6
CONTINUOUS
 62
    8
 10
164.1440411384549
 20
179.53762578608155
 11
169.45635448081322
 21
173.60598384203411
 12
171.36253267219951
 22
173.81415219753563
 13
171.36253267219951
 23
173.81415219753563
  0
SOLID
  8
_1-8_
  6
CONTINUOUS
 62
    8
 10
171.36253267219951
 20
173.81415219753563
 11
174.59664346722349
 21
181.83350716918039
 12
171.97705382443115
 22
181.52035353852682
 13
171.97705382443115
 23
181.52035353852682
  0
SOLID
  8
_1-8_
  6
CONTINUOUS
 62
    8
 10
171.36253267219951
 20
173.81415219753563
 11
171.97705382443115
 21
181.52035353852682
 12
171.36253150733742
 22
173.81416527000636
 13
171.36253150733742
 23
173.81416527000636
  0
SOLID
  8
_1-8_
  6
CONTINUOUS
 62
    8
 10
171.36253267219951
 20
173.81415219753563
 11
171.36253150733742
 21
173.81416527000636
 12
169.36104214330283
 22
181.04034616784526
 13
169.36104214330283
 23
181.04034616784526
  0
SOLID
  8
_1-8_
  6
CONTINUOUS
 62
    8
 10
171.36253267219951
 20
173.81415219753563
 11
169.36104214330283
 21
181.04034616784526
 12
167.02588987429806
 22
180.46847214278287
 13
167.02588987429806
 23
180.46847214278287
  0
SOLID
  8
_1-8_
  6
CONTINUOUS
 62
    8
 10
171.36253267219951
 20
173.81415219753563
 11
167.02588987429806
 21
180.46847214278287
 12
164.1440411384549
 22
179.53762578608155
 13
164.1440411384549
 23
179.53762578608155
  0
SOLID
  8
_1-8_
  6
CONTINUOUS
 62
    8
 10
169.36187069738114
 20
181.0373547509995
 11
171.36253150733742
 21
173.81416527000636
 12
169.36104214330283
 22
181.04034616784526
 13
171.97705382443115
 23
181.52035353852682
  0
SOLID
  8
_1-8_
  6
CONTINUOUS
 62
    8
 10
171.36253267219951
 20
173.81415219753563
 11
173.32847423471196
 21
169.36952483646462
 12
171.36253267219951
 22
173.81415219753563
 13
174.59664346722349
 23
181.83350716918039
  0
SOLID
  8
_1-8_
  6
CONTINUOUS
 62
    8
 10
174.59664346722349
 20
181.83350716918039
 11
173.32847423471196
 21
169.36952483646462
 12
175.37293717667865
 22
170.28953346046242
 13
175.37293717667865
 23
170.28953346046242
  0
SOLID
  8
_1-8_
  6
CONTINUOUS
 62
    8
 10
174.59664346722349
 20
181.83350716918039
 11
175.37293717667865
 21
170.28953346046242
 12
174.59664422112544
 22
181.83351671373524
 13
174.59664422112544
 23
181.83351671373524
  0
SOLID
  8
_1-8_
  6
CONTINUOUS
 62
    8
 10
175.37293717667865
 20
170.28953346046242
 11
176.68611268739443
 21
167.37138902818836
 12
175.37293717667865
 22
170.28953346046242
 13
181.09290458060602
 23
169.35444291322094
  0
SOLID
  8
_1-8_
  6
CONTINUOUS
 62
    8
 10
174.28288149275289
 20
185.41980909837702
 11
175.37293717667865
 21
170.28953346046242
 12
174.28288149275289
 22
185.41980909837702
 13
181.09290458060602
 23
169.35444291322094
  0
SOLID
  8
_1-8_
  6
CONTINUOUS
 62
    8
 10
174.28289143414997
 20
185.41967110902468
 11
181.09290458657784
 21
169.35444291590824
 12
174.28289143414997
 22
185.41967110902468
 13
181.09290458060602
 23
185.97808866493293
  0
SOLID
  8
_1-8_
  6
CONTINUOUS
 62
    8
 10
165.94956856834261
 20
185.95559303685891
 11
165.38935924155362
 21
183.96426072398714
 12
167.0671202248443
 22
184.34000806625684
 13
167.0671202248443
 23
184.34000806625684
  0
SOLID
  8
_1-8_
  6
CONTINUOUS
 62
    8
 10
165.94956856834261
 20
185.95559303685891
 11
167.0671202248443
 21
184.34000806625684
 12
168.58521824829916
 22
184.67087558418933
 13
168.58521824829916
 23
184.67087558418933
  0
SOLID
  8
_1-8_
  6
CONTINUOUS
 62
    8
 10
165.94956856834261
 20
185.95559303685891
 11
168.58521824829916
 21
184.67087558418933
 12
169.73352316347658
 22
184.86550353591431
 13
169.73352316347658
 23
184.86550353591431
  0
SOLID
  8
_1-8_
  6
CONTINUOUS
 62
    8
 10
165.94956856834261
 20
185.95559303685891
 11
169.73352316347658
 21
184.86550353591431
 12
171.58248870486392
 22
185.1185198731568
 13
171.58248870486392
 23
185.1185198731568
  0
SOLID
  8
_1-8_
  6
CONTINUOUS
 62
    8
 10
165.94956856834261
 20
185.95559303685891
 11
171.58248870486392
 21
185.1185198731568
 12
172.67240523452381
 22
185.27422223453678
 13
172.67240523452381
 23
185.27422223453678
  0
SOLID
  8
_1-8_
  6
CONTINUOUS
 62
    8
 10
165.94956856834261
 20
185.95559303685891
 11
172.67240523452381
 21
185.27422223453678
 12
174.28289143414997
 22
185.41967110902468
 13
174.28289143414997
 23
185.41967110902468
  0
SOLID
  8
_1-8_
  6
CONTINUOUS
 62
    8
 10
165.94956856834261
 20
185.95559303685891
 11
174.28289143414997
 21
185.41967110902468
 12
165.98960859466507
 22
185.95793672821745
 13
165.94956856834261
 23
185.95559303685891
  0
SOLID
  8
_1-8_
  6
CONTINUOUS
 62
    8
 10
174.28289143414997
 20
185.41967110902468
 11
173.04793282249238
 21
187.65613203784409
 12
165.94956856834261
 22
185.95559303685891
 13
167.34938732376366
 23
186.40443123627966
  0
SOLID
  8
_1-8_
  6
CONTINUOUS
 62
    8
 10
173.04793282249238
 20
187.65613203784409
 11
171.97529971662618
 21
187.46988301658692
 12
167.34938732376366
 22
186.40443123627966
 13
168.47577119637515
 23
186.71900691241441
  0
SOLID
  8
_1-8_
  6
CONTINUOUS
 62
    8
 10
171.97529971662618
 20
187.46988301658692
 11
170.5972707956297
 21
187.20917484234434
 12
168.47577119637515
 22
186.71900691241441
 13
169.46008863460324
 23
186.97269697381341
  0
SOLID
  8
_1-8_
  6
CONTINUOUS
 62
    8
 10
173.04793282249238
 20
187.65613203784409
 11
174.28197672530882
 21
185.41972993460163
 12
173.04793282249238
 22
187.65613203784409
 13
173.49419359933279
 23
187.71806719992694
  0
SOLID
  8
_1-8_
  6
CONTINUOUS
 62
    8
 10
174.28197672530882
 20
185.41972993460163
 11
175.52924415873531
 21
187.94851224994477
 12
173.49419359933279
 22
187.71806719992694
 13
174.39906466013065
 23
187.83117608252667
  0
SOLID
  8
_1-8_
  6
CONTINUOUS
 62
    8
 10
175.52924415873531
 20
187.94851224994477
 11
174.28289143414997
 21
185.41967110902468
 12
175.52924415873511
 22
187.94851224994474
 13
181.09290458060602
 23
185.97808866493293
  0
SOLID
  8
_1-8_
  6
CONTINUOUS
 62
    8
 10
167.69313424159725
 20
192.15330967372199
 11
167.16519729355048
 21
190.27669346343811
 12
168.29876643302481
 22
190.50702396311195
 13
168.29876643302481
 23
190.50702396311195
  0
SOLID
  8
_1-8_
  6
CONTINUOUS
 62
    8
 10
167.69313424159725
 20
192.15330967372199
 11
168.29876643302481
 21
190.50702396311195
 12
169.49661013708433
 22
190.76742476834229
 13
169.49661013708433
 23
190.76742476834229
  0
SOLID
  8
_1-8_
  6
CONTINUOUS
 62
    8
 10
169.49661013708433
 20
190.76742476834229
 11
170.82465424375903
 21
190.97574541252655
 12
172.36101899461795
 22
191.23614621775687
 13
172.36101899461795
 23
191.23614621775687
  0
SOLID
  8
_1-8_
  6
CONTINUOUS
 62
    8
 10
172.36101899461795
 20
191.23614621775687
 11
173.04792998172221
 21
191.30555332398285
 12
167.75192474204113
 22
192.12150895553998
 13
167.75192474204113
 23
192.12150895553998
  0
SOLID
  8
_1-8_
  6
CONTINUOUS
 62
    8
 10
167.75192474204113
 20
192.12150895553998
 11
167.69313424159725
 21
192.15330967372199
 12
169.49661013708433
 22
190.76742476834229
 13
169.49661013708433
 23
190.76742476834229
  0
SOLID
  8
_1-8_
  6
CONTINUOUS
 62
    8
 10
167.75192474204113
 20
192.12150895553998
 11
169.49661013708433
 21
190.76742476834229
 12
172.36101899461795
 22
191.23614621775687
 13
172.36101899461795
 23
191.23614621775687
  0
SOLID
  8
_1-8_
  6
CONTINUOUS
 62
    8
 10
167.75192474204113
 20
192.12150895553998
 11
173.04792998172221
 21
191.30555332398285
 12
176.1587194494299
 22
193.79068735483531
 13
176.1587194494299
 23
193.79068735483531
  0
SOLID
  8
_1-8_
  6
CONTINUOUS
 62
    8
 10
167.75192474204113
 20
192.12150895553998
 11
176.1587194494299
 21
193.79068735483531
 12
174.54838575855271
 22
193.63183362587591
 13
174.54838575855271
 23
193.63183362587591
  0
SOLID
  8
_1-8_
  6
CONTINUOUS
 62
    8
 10
167.75192474204113
 20
192.12150895553998
 11
174.54838575855271
 21
193.63183362587591
 12
173.53282261815443
 22
193.44955306221468
 13
173.53282261815443
 23
193.44955306221468
  0
SOLID
  8
_1-8_
  6
CONTINUOUS
 62
    8
 10
167.75192474204113
 20
192.12150895553998
 11
173.53282261815443
 21
193.44955306221468
 12
172.04853802834157
 22
193.18915225698436
 13
172.04853802834157
 23
193.18915225698436
  0
SOLID
  8
_1-8_
  6
CONTINUOUS
 62
    8
 10
167.75192474204113
 20
192.12150895553998
 11
172.04853802834157
 21
193.18915225698436
 12
170.4861331969596
 22
192.87667129070795
 13
170.4861331969596
 23
192.87667129070795
  0
SOLID
  8
_1-8_
  6
CONTINUOUS
 62
    8
 10
167.75192474204113
 20
192.12150895553998
 11
170.4861331969596
 21
192.87667129070795
 12
169.13204900976189
 22
192.56419032443156
 13
169.13204900976189
 23
192.56419032443156
  0
SOLID
  8
_1-8_
  6
CONTINUOUS
 62
    8
 10
167.75192474204113
 20
192.12150895553998
 11
169.13204900976189
 21
192.56419032443156
 12
167.69313424159725
 22
192.15330967372202
 13
167.69313424159725
 23
192.15330967372202
  0
SOLID
  8
_1-8_
  6
CONTINUOUS
 62
    8
 10
167.75192474204113
 20
192.12150895553998
 11
167.69313424159725
 21
192.15330967372202
 12
167.67380450047204
 22
192.14754903606303
 13
167.67380450047204
 23
192.14754903606303
  0
SOLID
  8
_1-8_
  6
CONTINUOUS
 62
    8
 10
176.15871812400604
 20
193.79070250426105
 11
173.04792998172221
 21
191.30555332398285
 12
174.44178189203561
 22
191.46208654651116
 13
174.44178189203561
 23
191.46208654651116
  0
SOLID
  8
_1-8_
  6
CONTINUOUS
 62
    8
 10
176.15871812400604
 20
193.79070250426105
 11
174.44178189203561
 21
191.46208654651116
 12
175.21548218426472
 22
191.53481417914136
 13
175.21548218426472
 23
191.53481417914136
  0
SOLID
  8
_1-8_
  6
CONTINUOUS
 62
    8
 10
176.15871812400604
 20
193.79070250426105
 11
175.21548218426472
 21
191.53481417914136
 12
176.1587194494299
 22
193.79068735483531
 13
176.1587194494299
 23
193.79068735483531
  0
SOLID
  8
_1-8_
  6
CONTINUOUS
 62
    8
 10
169.15200287021617
 20
197.33903597545142
 11
168.8746492996666
 21
196.35314891375009
 12
170.84618896890601
 22
196.77799092286665
 13
170.84618896890601
 23
196.77799092286665
  0
SOLID
  8
_1-8_
  6
CONTINUOUS
 62
    8
 10
169.15200287021617
 20
197.33903597545142
 11
170.84618896890601
 21
196.77799092286665
 12
172.23786016980628
 22
196.97217760206203
 13
172.23786016980628
 23
196.97217760206203
  0
SOLID
  8
_1-8_
  6
CONTINUOUS
 62
    8
 10
169.15200287021617
 20
197.33903597545142
 11
172.23786016980628
 21
196.97217760206203
 12
173.75898915683683
 22
197.19872872779001
 13
173.75898915683683
 23
197.19872872779001
  0
SOLID
  8
_1-8_
  6
CONTINUOUS
 62
    8
 10
169.15200287021617
 20
197.33903597545142
 11
173.75898915683683
 21
197.19872872779001
 12
174.92410923200916
 22
197.32818651392026
 13
174.92410923200916
 23
197.32818651392026
  0
SOLID
  8
_1-8_
  6
CONTINUOUS
 62
    8
 10
169.15200287021617
 20
197.33903597545142
 11
174.92410923200916
 21
197.32818651392026
 12
175.84495338233742
 22
197.37699354017104
 13
175.84495338233742
 23
197.37699354017104
  0
SOLID
  8
_1-8_
  6
CONTINUOUS
 62
    8
 10
169.15200287021617
 20
197.33903597545142
 11
175.84495338233742
 21
197.37699354017104
 12
169.92872649162101
 22
197.55326691371286
 13
170.8967470674223
 23
197.77452875961029
  0
SOLID
  8
_1-8_
  6
CONTINUOUS
 62
    8
 10
175.84495338233742
 20
197.37699354017104
 11
172.64222895928896
 21
198.15587168871957
 12
170.8967470674223
 22
197.77452875961029
 13
171.89242537396075
 23
197.99579060550775
  0
SOLID
  8
_1-8_
  6
CONTINUOUS
 62
    8
 10
175.84495672105737
 20
197.37700448345936
 11
177.73471043851055
 21
198.87509794725372
 12
176.76018598370436
 22
198.77942630972782
 13
176.76018598370436
 23
198.77942630972782
  0
SOLID
  8
_1-8_
  6
CONTINUOUS
 62
    8
 10
175.84495672105737
 20
197.37700448345936
 11
176.76018598370436
 21
198.77942630972782
 12
175.55246507484753
 22
198.64113765604193
 13
175.55246507484753
 23
198.64113765604193
  0
SOLID
  8
_1-8_
  6
CONTINUOUS
 62
    8
 10
175.84495672105737
 20
197.37700448345936
 11
175.55246507484753
 21
198.64113765604193
 12
174.38162114030692
 22
198.45675278446072
 13
174.38162114030692
 23
198.45675278446072
  0
SOLID
  8
_1-8_
  6
CONTINUOUS
 62
    8
 10
175.84495672105737
 20
197.37700448345936
 11
174.38162114030692
 21
198.45675278446072
 12
172.70371880891804
 22
198.15251774635175
 13
172.70371880891804
 23
198.15251774635175
  0
SOLID
  8
_1-8_
  6
CONTINUOUS
 62
    8
 10
175.84495672105737
 20
197.37700448345936
 11
172.70371880891804
 21
198.15251774635175
 12
172.64222895928964
 22
198.15587168871974
 13
172.64222895928964
 23
198.15587168871974
  0
SOLID
  8
_1-8_
  6
CONTINUOUS
 62
    8
 10
177.73471043851185
 20
198.87509794725383
 11
175.8449567210574
 21
197.37700448345936
 12
177.73471043851055
 22
198.87509794725372
 13
176.1587194494299
 23
193.79068735483531
  0
SOLID
  8
_1-8_
  6
CONTINUOUS
 62
    8
 10
176.1587194494299
 20
193.79068735483531
 11
175.21548218426472
 21
191.53481417914136
 12
181.09290458060602
 22
185.97808866493293
 13
175.52924415873511
 23
187.94851224994474
  0
SOLID
  8
_1-8_
  6
CONTINUOUS
 62
    8
 10
176.1587194494299
 20
193.79068735483531
 11
181.09290458060602
 21
185.97808866493293
 12
177.73471043851185
 22
198.87509794725383
 13
181.09290458060602
 23
196.75439783044766
  0
SOLID
  8
_1-8_
  6
CONTINUOUS
 62
    8
 10
177.73471043851009
 20
198.87509794725494
 11
181.09290458060602
 21
196.75439783044766
 12
177.73471043851055
 22
198.87509794725372
 13
179.39559733411437
 23
198.99926210135499
  0
SOLID
  8
_1-8_
  6
CONTINUOUS
 62
    8
 10
181.09290458060602
 20
196.75439783044766
 11
181.99290507548565
 21
199.06152210949278
 12
179.39559733411437
 22
198.99926210135499
 13
180.7752945385156
 23
199.03605402680569
  0
SOLID
  8
_1-8_
  6
CONTINUOUS
 62
    8
 10
181.99290507548565
 20
199.06152210949278
 11
181.09290458060602
 21
196.75439783044766
 12
181.99290507548565
 22
199.06152210949278
 13
181.99290507548565
 23
196.75439783044766
  0
SOLID
  8
_1-8_
  6
CONTINUOUS
 62
    8
 10
199.84176901251641
 20
179.53762578608155
 11
201.48309132226512
 21
173.70334564302522
 12
199.81929040198526
 22
173.60598384203411
 13
199.81929040198526
 23
173.60598384203411
  0
SOLID
  8
_1-8_
  6
CONTINUOUS
 62
    8
 10
199.84176901251641
 20
179.53762578608155
 11
199.81929040198526
 21
173.60598384203411
 12
197.86538748302206
 22
173.55832767327891
 13
197.86538748302206
 23
173.55832767327891
  0
SOLID
  8
_1-8_
  6
CONTINUOUS
 62
    8
 10
199.84176901251641
 20
179.53762578608155
 11
197.86538748302206
 21
173.55832767327891
 12
196.10210923907965
 22
173.60598384203411
 13
196.10210923907965
 23
173.60598384203411
  0
SOLID
  8
_1-8_
  6
CONTINUOUS
 62
    8
 10
199.84176901251641
 20
179.53762578608155
 11
196.10210923907965
 21
173.60598384203411
 12
194.52945567015809
 22
173.60598384203411
 13
194.52945567015809
 23
173.60598384203411
  0
SOLID
  8
_1-8_
  6
CONTINUOUS
 62
    8
 10
199.84176901251641
 20
179.53762578608155
 11
194.52945567015809
 21
173.60598384203411
 12
192.6232774787718
 22
173.81415219753563
 13
192.6232774787718
 23
173.81415219753563
  0
SOLID
  8
_1-8_
  6
CONTINUOUS
 62
    8
 10
192.6232774787718
 20
173.81415219753563
 11
189.38916668374782
 21
181.83350716918039
 12
192.00875632654015
 22
181.52035353852682
 13
192.00875632654015
 23
181.52035353852682
  0
SOLID
  8
_1-8_
  6
CONTINUOUS
 62
    8
 10
192.6232774787718
 20
173.81415219753563
 11
192.00875632654015
 21
181.52035353852682
 12
192.62327864363388
 22
173.81416527000636
 13
192.62327864363388
 23
173.81416527000636
  0
SOLID
  8
_1-8_
  6
CONTINUOUS
 62
    8
 10
192.6232774787718
 20
173.81415219753563
 11
192.62327864363388
 21
173.81416527000636
 12
194.62476800766848
 22
181.04034616784526
 13
194.62476800766848
 23
181.04034616784526
  0
SOLID
  8
_1-8_
  6
CONTINUOUS
 62
    8
 10
192.6232774787718
 20
173.81415219753563
 11
194.62476800766848
 21
181.04034616784526
 12
196.95992027667324
 22
180.46847214278287
 13
196.95992027667324
 23
180.46847214278287
  0
SOLID
  8
_1-8_
  6
CONTINUOUS
 62
    8
 10
192.6232774787718
 20
173.81415219753563
 11
196.95992027667324
 21
180.46847214278287
 12
199.84176901251641
 22
179.53762578608155
 13
199.84176901251641
 23
179.53762578608155
  0
SOLID
  8
_1-8_
  6
CONTINUOUS
 62
    8
 10
194.62393945359017
 20
181.0373547509995
 11
192.62327864363388
 21
173.81416527000636
 12
194.62476800766848
 22
181.04034616784526
 13
192.00875632654015
 23
181.52035353852682
  0
SOLID
  8
_1-8_
  6
CONTINUOUS
 62
    8
 10
189.70291871682133
 20
185.41967110902468
 11
182.89290556439346
 21
169.35444291590824
 12
189.70291871682133
 22
185.41967110902468
 13
182.89290557036529
 23
185.97808866493293
  0
SOLID
  8
_1-8_
  6
CONTINUOUS
 62
    8
 10
198.03624158262869
 20
185.95559303685891
 11
198.59645090941768
 21
183.96426072398714
 12
196.918689926127
 22
184.34000806625684
 13
196.918689926127
 23
184.34000806625684
  0
SOLID
  8
_1-8_
  6
CONTINUOUS
 62
    8
 10
198.03624158262869
 20
185.95559303685891
 11
196.918689926127
 21
184.34000806625684
 12
195.40059190267215
 22
184.67087558418933
 13
195.40059190267215
 23
184.67087558418933
  0
SOLID
  8
_1-8_
  6
CONTINUOUS
 62
    8
 10
198.03624158262869
 20
185.95559303685891
 11
195.40059190267215
 21
184.67087558418933
 12
194.25228698749473
 22
184.86550353591431
 13
194.25228698749473
 23
184.86550353591431
  0
SOLID
  8
_1-8_
  6
CONTINUOUS
 62
    8
 10
198.03624158262869
 20
185.95559303685891
 11
194.25228698749473
 21
184.86550353591431
 12
192.40332144610738
 22
185.1185198731568
 13
192.40332144610738
 23
185.1185198731568
  0
SOLID
  8
_1-8_
  6
CONTINUOUS
 62
    8
 10
198.03624158262869
 20
185.95559303685891
 11
192.40332144610738
 21
185.1185198731568
 12
191.3134049164475
 22
185.27422223453678
 13
191.3134049164475
 23
185.27422223453678
  0
SOLID
  8
_1-8_
  6
CONTINUOUS
 62
    8
 10
198.03624158262869
 20
185.95559303685891
 11
191.3134049164475
 21
185.27422223453678
 12
189.70291871682133
 22
185.41967110902468
 13
189.70291871682133
 23
185.41967110902468
  0
SOLID
  8
_1-8_
  6
CONTINUOUS
 62
    8
 10
198.03624158262869
 20
185.95559303685891
 11
189.70291871682133
 21
185.41967110902468
 12
197.99620155630623
 22
185.95793672821745
 13
198.03624158262869
 23
185.95559303685891
  0
SOLID
  8
_1-8_
  6
CONTINUOUS
 62
    8
 10
189.70291871682133
 20
185.41967110902468
 11
190.93787732847892
 21
187.65613203784409
 12
198.03624158262869
 22
185.95559303685891
 13
196.63642282720764
 23
186.40443123627966
  0
SOLID
  8
_1-8_
  6
CONTINUOUS
 62
    8
 10
190.93787732847892
 20
187.65613203784409
 11
192.01051043434512
 21
187.46988301658692
 12
196.63642282720764
 22
186.40443123627966
 13
195.51003895459615
 23
186.71900691241441
  0
SOLID
  8
_1-8_
  6
CONTINUOUS
 62
    8
 10
192.01051043434512
 20
187.46988301658692
 11
193.38853935534161
 21
187.20917484234434
 12
195.51003895459615
 22
186.71900691241441
 13
194.52572151636807
 23
186.97269697381341
  0
SOLID
  8
_1-8_
  6
CONTINUOUS
 62
    8
 10
190.93787732847892
 20
187.65613203784409
 11
189.70383342566248
 21
185.41972993460163
 12
190.93787732847892
 22
187.65613203784409
 13
190.49161655163851
 23
187.71806719992694
  0
SOLID
  8
_1-8_
  6
CONTINUOUS
 62
    8
 10
189.70383342566248
 20
185.41972993460163
 11
188.45656599223599
 21
187.94851224994477
 12
190.49161655163851
 22
187.71806719992694
 13
189.58674549084066
 23
187.83117608252667
  0
SOLID
  8
_1-8_
  6
CONTINUOUS
 62
    8
 10
188.45656599223599
 20
187.94851224994477
 11
189.70291871682133
 21
185.41967110902468
 12
188.45656599223619
 22
187.94851224994474
 13
182.89290557036529
 23
185.97808866493293
  0
SOLID
  8
_1-8_
  6
CONTINUOUS
 62
    8
 10
196.29267590937405
 20
192.15330967372199
 11
196.82061285742083
 21
190.27669346343811
 12
195.68704371794649
 22
190.50702396311195
 13
195.68704371794649
 23
190.50702396311195
  0
SOLID
  8
_1-8_
  6
CONTINUOUS
 62
    8
 10
196.29267590937405
 20
192.15330967372199
 11
195.68704371794649
 21
190.50702396311195
 12
194.48920001388697
 22
190.76742476834229
 13
194.48920001388697
 23
190.76742476834229
  0
SOLID
  8
_1-8_
  6
CONTINUOUS
 62
    8
 10
194.48920001388697
 20
190.76742476834229
 11
193.16115590721228
 21
190.97574541252655
 12
191.62479115635335
 22
191.23614621775687
 13
191.62479115635335
 23
191.23614621775687
  0
SOLID
  8
_1-8_
  6
CONTINUOUS
 62
    8
 10
191.62479115635335
 20
191.23614621775687
 11
190.9378801692491
 21
191.30555332398285
 12
196.23388540893018
 22
192.12150895553998
 13
196.23388540893018
 23
192.12150895553998
  0
SOLID
  8
_1-8_
  6
CONTINUOUS
 62
    8
 10
196.23388540893018
 20
192.12150895553998
 11
196.29267590937405
 21
192.15330967372199
 12
194.48920001388697
 22
190.76742476834229
 13
194.48920001388697
 23
190.76742476834229
  0
SOLID
  8
_1-8_
  6
CONTINUOUS
 62
    8
 10
196.23388540893018
 20
192.12150895553998
 11
194.48920001388697
 21
190.76742476834229
 12
191.62479115635335
 22
191.23614621775687
 13
191.62479115635335
 23
191.23614621775687
  0
SOLID
  8
_1-8_
  6
CONTINUOUS
 62
    8
 10
196.23388540893018
 20
192.12150895553998
 11
190.9378801692491
 21
191.30555332398285
 12
187.82709070154141
 22
193.79068735483531
 13
187.82709070154141
 23
193.79068735483531
  0
SOLID
  8
_1-8_
  6
CONTINUOUS
 62
    8
 10
196.23388540893018
 20
192.12150895553998
 11
187.82709070154141
 21
193.79068735483531
 12
189.43742439241859
 22
193.63183362587591
 13
189.43742439241859
 23
193.63183362587591
  0
SOLID
  8
_1-8_
  6
CONTINUOUS
 62
    8
 10
196.23388540893018
 20
192.12150895553998
 11
189.43742439241859
 21
193.63183362587591
 12
190.45298753281688
 22
193.44955306221468
 13
190.45298753281688
 23
193.44955306221468
  0
SOLID
  8
_1-8_
  6
CONTINUOUS
 62
    8
 10
196.23388540893018
 20
192.12150895553998
 11
190.45298753281688
 21
193.44955306221468
 12
191.93727212262974
 22
193.18915225698436
 13
191.93727212262974
 23
193.18915225698436
  0
SOLID
  8
_1-8_
  6
CONTINUOUS
 62
    8
 10
196.23388540893018
 20
192.12150895553998
 11
191.93727212262974
 21
193.18915225698436
 12
193.4996769540117
 22
192.87667129070795
 13
193.4996769540117
 23
192.87667129070795
  0
SOLID
  8
_1-8_
  6
CONTINUOUS
 62
    8
 10
196.23388540893018
 20
192.12150895553998
 11
193.4996769540117
 21
192.87667129070795
 12
194.85376114120942
 22
192.56419032443156
 13
194.85376114120942
 23
192.56419032443156
  0
SOLID
  8
_1-8_
  6
CONTINUOUS
 62
    8
 10
196.23388540893018
 20
192.12150895553998
 11
194.85376114120942
 21
192.56419032443156
 12
196.29267590937405
 22
192.15330967372202
 13
196.29267590937405
 23
192.15330967372202
  0
SOLID
  8
_1-8_
  6
CONTINUOUS
 62
    8
 10
196.23388540893018
 20
192.12150895553998
 11
196.29267590937405
 21
192.15330967372202
 12
196.31200565049926
 22
192.14754903606303
 13
196.31200565049926
 23
192.14754903606303
  0
SOLID
  8
_1-8_
  6
CONTINUOUS
 62
    8
 10
187.82709202696526
 20
193.79070250426105
 11
190.9378801692491
 21
191.30555332398285
 12
189.5440282589357
 22
191.46208654651116
 13
189.5440282589357
 23
191.46208654651116
  0
SOLID
  8
_1-8_
  6
CONTINUOUS
 62
    8
 10
187.82709202696526
 20
193.79070250426105
 11
189.5440282589357
 21
191.46208654651116
 12
188.77032796670659
 22
191.53481417914136
 13
188.77032796670659
 23
191.53481417914136
  0
SOLID
  8
_1-8_
  6
CONTINUOUS
 62
    8
 10
187.82709202696526
 20
193.79070250426105
 11
188.77032796670659
 21
191.53481417914136
 12
187.82709070154141
 22
193.79068735483531
 13
187.82709070154141
 23
193.79068735483531
  0
SOLID
  8
_1-8_
  6
CONTINUOUS
 62
    8
 10
194.83380728075514
 20
197.33903597545142
 11
195.1111608513047
 21
196.35314891375009
 12
193.1396211820653
 22
196.77799092286665
 13
193.1396211820653
 23
196.77799092286665
  0
SOLID
  8
_1-8_
  6
CONTINUOUS
 62
    8
 10
194.83380728075514
 20
197.33903597545142
 11
193.1396211820653
 21
196.77799092286665
 12
191.74794998116502
 22
196.97217760206203
 13
191.74794998116502
 23
196.97217760206203
  0
SOLID
  8
_1-8_
  6
CONTINUOUS
 62
    8
 10
194.83380728075514
 20
197.33903597545142
 11
191.74794998116502
 21
196.97217760206203
 12
190.22682099413447
 22
197.19872872779001
 13
190.22682099413447
 23
197.19872872779001
  0
SOLID
  8
_1-8_
  6
CONTINUOUS
 62
    8
 10
194.83380728075514
 20
197.33903597545142
 11
190.22682099413447
 21
197.19872872779001
 12
189.06170091896215
 22
197.32818651392026
 13
189.06170091896215
 23
197.32818651392026
  0
SOLID
  8
_1-8_
  6
CONTINUOUS
 62
    8
 10
194.83380728075514
 20
197.33903597545142
 11
189.06170091896215
 21
197.32818651392026
 12
188.14085676863388
 22
197.37699354017104
 13
188.14085676863388
 23
197.37699354017104
  0
SOLID
  8
_1-8_
  6
CONTINUOUS
 62
    8
 10
194.83380728075514
 20
197.33903597545142
 11
188.14085676863388
 21
197.37699354017104
 12
194.0570836593503
 22
197.55326691371286
 13
193.08906308354901
 23
197.77452875961029
  0
SOLID
  8
_1-8_
  6
CONTINUOUS
 62
    8
 10
188.14085676863388
 20
197.37699354017104
 11
191.34358119168235
 21
198.15587168871957
 12
193.08906308354901
 22
197.77452875961029
 13
192.09338477701056
 23
197.99579060550775
  0
SOLID
  8
_1-8_
  6
CONTINUOUS
 62
    8
 10
188.14085342991393
 20
197.37700448345936
 11
186.25109971246076
 21
198.87509794725372
 12
187.22562416726694
 22
198.77942630972782
 13
187.22562416726694
 23
198.77942630972782
  0
SOLID
  8
_1-8_
  6
CONTINUOUS
 62
    8
 10
188.14085342991393
 20
197.37700448345936
 11
187.22562416726694
 21
198.77942630972782
 12
188.43334507612377
 22
198.64113765604193
 13
188.43334507612377
 23
198.64113765604193
  0
SOLID
  8
_1-8_
  6
CONTINUOUS
 62
    8
 10
188.14085342991393
 20
197.37700448345936
 11
188.43334507612377
 21
198.64113765604193
 12
189.60418901066438
 22
198.45675278446072
 13
189.60418901066438
 23
198.45675278446072
  0
SOLID
  8
_1-8_
  6
CONTINUOUS
 62
    8
 10
188.14085342991393
 20
197.37700448345936
 11
189.60418901066438
 21
198.45675278446072
 12
191.28209134205326
 22
198.15251774635175
 13
191.28209134205326
 23
198.15251774635175
  0
SOLID
  8
_1-8_
  6
CONTINUOUS
 62
    8
 10
188.14085342991393
 20
197.37700448345936
 11
191.28209134205326
 21
198.15251774635175
 12
191.34358119168166
 22
198.15587168871974
 13
191.34358119168166
 23
198.15587168871974
  0
SOLID
  8
_1-8_
  6
CONTINUOUS
 62
    8
 10
186.25109971245945
 20
198.87509794725383
 11
188.1408534299139
 21
197.37700448345936
 12
186.25109971246076
 22
198.87509794725372
 13
187.82709070154141
 23
193.79068735483531
  0
SOLID
  8
_1-8_
  6
CONTINUOUS
 62
    8
 10
187.82709070154141
 20
193.79068735483531
 11
188.77032796670659
 21
191.53481417914136
 12
182.89290557036529
 22
185.97808866493293
 13
188.45656599223619
 23
187.94851224994474
  0
SOLID
  8
_1-8_
  6
CONTINUOUS
 62
    8
 10
187.82709070154141
 20
193.79068735483531
 11
182.89290557036529
 21
185.97808866493293
 12
186.25109971245945
 22
198.87509794725383
 13
182.89290557036529
 23
196.75439783044766
  0
SOLID
  8
_1-8_
  6
CONTINUOUS
 62
    8
 10
186.25109971246121
 20
198.87509794725494
 11
182.89290557036529
 21
196.75439783044766
 12
186.25109971246076
 22
198.87509794725372
 13
184.59021281685693
 23
198.99926210135499
  0
SOLID
  8
_1-8_
  6
CONTINUOUS
 62
    8
 10
182.89290557036529
 20
196.75439783044766
 11
181.99290507548565
 21
199.06152210949278
 12
184.59021281685693
 22
198.99926210135499
 13
183.21051561245571
 23
199.03605402680569
  0
SOLID
  8
_1-8_
  6
CONTINUOUS
 62
    8
 10
181.99290507548565
 20
199.06152210949278
 11
182.89290557036529
 21
196.75439783044766
 12
181.99290507548565
 22
199.06152210949278
 13
181.99290507548565
 23
196.75439783044766
  0
CIRCLE
  8
_1-9_
  6
CONTINUOUS
 62
    3
 10
183.77230670001057
 20
196.0048531197213
 40
0.899999914942561
  0
LINE
  8
_1-9_
  6
CONTINUOUS
 62
    3
 10
183.92781234139397
 20
195.11838944737133
 11
184.65877037235873
 21
195.84934747833609
  0
LINE
  8
_1-9_
  6
CONTINUOUS
 62
    3
 10
183.6410553334033
 20
195.11447515185569
 11
184.6626846678771
 21
196.13610448632949
  0
LINE
  8
_1-9_
  6
CONTINUOUS
 62
    3
 10
183.42028905770553
 20
195.17655158863113
 11
184.60060823109848
 21
196.35687076202407
  0
LINE
  8
_1-9_
  6
CONTINUOUS
 62
    3
 10
183.24002406776503
 20
195.27912931116566
 11
184.49803050856667
 21
196.5371357519673
  0
LINE
  8
_1-9_
  6
CONTINUOUS
 62
    3
 10
183.09278173202506
 20
195.41472968790072
 11
184.36243013182934
 21
196.684378087705
  0
LINE
  8
_1-9_
  6
CONTINUOUS
 62
    3
 10
182.9776137266615
 20
195.58240439501219
 11
184.19475542471787
 21
196.79954609306856
  0
LINE
  8
_1-9_
  6
CONTINUOUS
 62
    3
 10
182.89913038338705
 20
195.78676376421276
 11
183.99039605551729
 21
196.87802943634301
  0
LINE
  8
_1-9_
  6
CONTINUOUS
 62
    3
 10
182.87314201977165
 20
196.04361811307058
 11
183.73354170665948
 21
196.90401779995841
  0
LINE
  8
_1-9_
  6
CONTINUOUS
 62
    3
 10
182.98184102784694
 20
196.4351598336209
 11
183.34199998611143
 21
196.79531879188539
  0
LINE
  8
ADD_LINE
  6
DOT
 62
    4
 10
199.84176901251641
 20
179.53762578608155
 11
202.67169696267095
 21
169.52263080305431
  0
SOLID
  8
ADD_LINE
  6
DOT
 62
    8
 10
189.70291871682133
 20
185.41967110902468
 11
182.89290557036529
 21
169.35444292999614
 12
189.70291871682133
 22
185.41967110902468
 13
186.91083341031461
 23
167.54637847075591
  0
SOLID
  8
ADD_LINE
  6
DOT
 62
    8
 10
189.70383342566248
 20
185.41972993460163
 11
186.91083341031461
 21
167.54637847075591
 12
189.70383342566248
 22
185.41972993460163
 13
188.22397079831313
 23
170.46449932203501
  0
SOLID
  8
ADD_LINE
  6
DOT
 62
    8
 10
189.38916668374782
 20
181.83350716918039
 11
188.22410223682479
 21
170.46445059954183
 12
189.38916668374782
 22
181.83350716918042
 13
189.31241009686445
 23
172.83841107342695
  0
SOLID
  8
ADD_LINE
  6
DOT
 62
    8
 10
189.38916592984586
 20
181.83351671373524
 11
189.31239650291855
 21
172.83842571791058
 12
192.17641990691334
 22
171.93902422920922
 13
190.50222434281235
 23
172.4250810058837
  0
SOLID
  8
ADD_LINE
  6
DOT
 62
    8
 10
189.38916866741135
 20
181.83350699563229
 11
192.17641990691334
 21
171.93902422920922
 12
189.38916866741135
 22
181.83350699563229
 13
192.62327864363388
 23
173.81416527000636
  0
SOLID
  8
ADD_LINE
  6
DOT
 62
    8
 10
192.13265772347086
 20
171.85257819127969
 11
195.31525577477052
 21
170.93051707361343
 12
198.25990256989823
 22
170.2464072121191
 13
198.25990256989823
 23
170.2464072121191
  0
SOLID
  8
ADD_LINE
  6
DOT
 62
    8
 10
192.13265772347086
 20
171.85257819127969
 11
198.25990256989823
 21
170.2464072121191
 12
200.25274434033821
 22
169.87460837435046
 13
200.25274434033821
 23
169.87460837435046
  0
SOLID
  8
ADD_LINE
  6
DOT
 62
    8
 10
192.13265772347086
 20
171.85257819127969
 11
200.25274434033821
 21
169.87460837435046
 12
201.82917141247731
 22
169.6366571181785
 13
201.82917141247731
 23
169.6366571181785
  0
SOLID
  8
ADD_LINE
  6
DOT
 62
    8
 10
192.13265772347086
 20
171.85257819127969
 11
201.82917141247731
 21
169.6366571181785
 12
202.67169696267095
 22
169.52263080305428
 13
202.67169696267095
 23
169.52263080305428
  0
SOLID
  8
ADD_LINE
  6
DOT
 62
    8
 10
192.13265772347086
 20
171.85257819127969
 11
202.67169696267095
 21
169.52263080305428
 12
192.6232774787718
 22
173.81415219753563
 13
192.6232774787718
 23
173.81415219753563
  0
SOLID
  8
ADD_LINE
  6
DOT
 62
    8
 10
192.13265772347086
 20
171.85257819127969
 11
192.6232774787718
 21
173.81415219753563
 12
192.62327864363388
 22
173.81416527000636
 13
192.62327864363388
 23
173.81416527000636
  0
SOLID
  8
ADD_LINE
  6
DOT
 62
    8
 10
192.623236167904
 20
173.81398703026795
 11
202.67169696267101
 21
169.52263080305428
 12
192.62327864363388
 22
173.81416527000636
 13
201.48309132226512
 23
173.70334564302522
  0
LINE
  8
ADD_LINE
  6
DOT
 62
    3
 10
196.79289946684966
 20
195.99508335852414
 11
167.19291068412161
 21
195.99508335852414
  0
LINE
  8
ADD_LINE
  6
DOT
 62
    3
 10
181.99290507548565
 20
200.16964060620151
 11
181.99290507548565
 21
191.09186532115083
  0
CIRCLE
  8
ADD_LINE
  6
DOT
 62
    3
 10
181.99290507548565
 20
195.99508335852414
 40
0.5999999594044042
  0
LINE
  8
ADD_LINE
  6
DOT
 62
    3
 10
181.99290507548565
 20
211.86645113712984
 11
181.99290507548565
 21
200.16964060620151
  0
ARC
  8
_1-0_
  6
CONTINUOUS
 62
    3
 10
181.99290507548565
 20
193.60303310514576
 40
11.992055789844413
 50
17.429763793945316
 51
162.57022094726562
  0
ARC
  8
_1-0_
  6
CONTINUOUS
 62
    3
 10
181.99290507548565
 20
193.60303310514576
 40
14.992055635194522
 50
9.1810455322265891
 51
170.81895446777347
  0
LINE
  8
_1-0_
  6
CONTINUOUS
 62
    3
 10
170.55146088471284
 20
197.1950675223755
 11
167.19291068412161
 21
195.99508335852414
  0
LINE
  8
_1-0_
  6
CONTINUOUS
 62
    3
 10
196.79289946684966
 20
195.99508335852414
 11
193.43434926625844
 21
197.1950675223755
  0
ENDSEC
  0
EOF
