  0
SECTION
  2
HEADER
  9
$ACADVER
  1
AC1009
  9
$INSBASE
 10
0
 20
0
 30
0
  9
$EXTMIN
 10
0
 20
0
  9
$EXTMAX
 10
420
 20
297
  9
$LIMMIN
 10
0
 20
0
  9
$LIMMAX
 10
420
 20
297
  9
$LTSCALE
 40
1
  0
ENDSEC
  0
SECTION
  2
TABLES
  0
TABLE
  2
LTYPE
 70
     9
  0
LTYPE
  2
CONTINUOUS
 70
    64
  3
実線
 72
    65
 73
     0
 40
0.0
  0
LTYPE
  2
DASHED1
 70
    64
  3
--  --  --  --  --  --  --  --  
 72
    65
 73
     2
 40
2.5
 49
1.25
 49
-1.25
  0
LTYPE
  2
DASHED2
 70
    64
  3
----    ----    ----    ----    
 72
    65
 73
     2
 40
5.0
 49
2.5
 49
-2.5
  0
LTYPE
  2
DASHED3
 70
    64
  3
------  ------  ------  ------  
 72
    65
 73
     2
 40
5.0
 49
3.75
 49
-1.25
  0
LTYPE
  2
CENTER1
 70
    64
  3
----- - ----- - ----- - ----- - 
 72
    65
 73
     4
 40
10.0
 49
6.25
 49
-1.25
 49
1.25
 49
-1.25
  0
LTYPE
  2
CENTER2
 70
    64
  3
----------  --  ----------  --  
 72
    65
 73
     4
 40
20.0
 49
12.5
 49
-2.5
 49
2.5
 49
-2.5
  0
LTYPE
  2
PHANTOM1
 70
    64
  3
--- - - --- - - --- - - --- - - 
 72
    65
 73
     6
 40
10.0
 49
3.25
 49
-1.25
 49
1.25
 49
-1.25
 49
1.25
 49
-1.25
  0
LTYPE
  2
PHANTOM2
 70
    64
  3
--------  -  -  --------  -  -  
 72
    65
 73
     6
 40
20.0
 49
10.0
 49
-2.5
 49
1.25
 49
-2.5
 49
1.25
 49
-2.5
  0
LTYPE
  2
DOT
 70
    64
  3
-   -   -   -   -   -   -   -   
 72
    65
 73
     2
 40
2.5
 49
0.625
 49
-1.875
  0
LTYPE
  2
DUMMY
 70
    64
  3
ダミー
 72
    65
 73
     0
 40
0.0
  0
LTYPE
  2
RAND1
 70
    64
  3
ランダム線1
 72
    65
 73
     4
 40
10.0
 49
1.0
 49
-2.0
 49
3.0
 49
-4.0
  0
LTYPE
  2
RAND2
 70
    64
  3
ランダム線2
 72
    65
 73
     4
 40
14.0
 49
2.0
 49
-3.0
 49
4.0
 49
-5.0
  0
LTYPE
  2
RAND3
 70
    64
  3
ランダム線3
 72
    65
 73
     4
 40
18.0
 49
3.0
 49
-4.0
 49
5.0
 49
-6.0
  0
LTYPE
  2
RAND4
 70
    64
  3
ランダム線4
 72
    65
 73
     4
 40
22.0
 49
4.0
 49
-5.0
 49
6.0
 49
-7.0
  0
LTYPE
  2
RAND5
 70
    64
  3
ランダム線5
 72
    65
 73
     4
 40
26.0
 49
5.0
 49
-6.0
 49
7.0
 49
-8.0
  0
LTYPE
  2
LONG1
 70
    64
  3
----------  --  ----------  --  
 72
    65
 73
     4
 40
40.0
 49
32.5
 49
-2.5
 49
2.5
 49
-2.5
  0
LTYPE
  2
LONG2
 70
    64
  3
--------  -  -  --------  -  -  
 72
    65
 73
     6
 40
40.0
 49
30.0
 49
-2.5
 49
1.25
 49
-2.5
 49
1.25
 49
-2.5
  0
LTYPE
  2
LONG3
 70
    64
  3
+++++++++++++++..+++++++++++++++
 72
    65
 73
     2
 40
40.0
 49
37.5
 49
-2.5
  0
LTYPE
  2
LONG4
 70
    64
  3
+++++++++++++++..+++++++++++++++
 72
    65
 73
     2
 40
80.0
 49
75.0
 49
-5.0
  0
LTYPE
  2
LONG5
 70
    64
  3
----------  --  ----------  --  
 72
    65
 73
     4
 40
60.0
 49
37.5
 49
-7.5
 49
7.5
 49
-7.5
  0
LTYPE
  2
dashed
 70
   64
  3
-------   -------------   ------
 72
   65
 73
    2
 40
7.5
 49
6
 49
-1.5
  0
LTYPE
  2
dashed_spaced
 70
   64
  3
----        --------        ----
 72
   65
 73
    2
 40
12
 49
6
 49
-6
  0
LTYPE
  2
long_dashed_dotted
 70
   64
  3
------------- --- --------------
 72
   65
 73
    4
 40
15.25
 49
12
 49
-1.5
 49
0.25
 49
-1.5
  0
LTYPE
  2
long_dashed_double-dotted
 70
   64
  3
----------- --- --- ------------
 72
   65
 73
    6
 40
17
 49
12
 49
-1.5
 49
0.25
 49
-1.5
 49
0.25
 49
-1.5
  0
LTYPE
  2
long_dashed_triplicate-dotted
 70
   64
  3
--------- --- --- --- ----------
 72
   65
 73
    8
 40
18.75
 49
12
 49
-1.5
 49
0.25
 49
-1.5
 49
0.25
 49
-1.5
 49
0.25
 49
-1.5
  0
LTYPE
  2
dotted
 70
   64
  3
   -       -       -       -    
 72
   65
 73
    2
 40
1.75
 49
0.25
 49
-1.5
  0
LTYPE
  2
chain
 70
   64
  3
-------------- -- --------------
 72
   65
 73
    4
 40
18.5
 49
12
 49
-1.5
 49
3.5
 49
-1.5
  0
LTYPE
  2
chain_double_dash
 70
   64
  3
------------ -- -- -------------
 72
   65
 73
    6
 40
23.5
 49
12
 49
-1.5
 49
3.5
 49
-1.5
 49
3.5
 49
-1.5
  0
LTYPE
  2
dashed_dotted
 70
   64
  3
-----------     -     ----------
 72
   65
 73
    4
 40
9.25
 49
6
 49
-1.5
 49
0.25
 49
-1.5
  0
LTYPE
  2
double-dashed_dotted
 70
   64
  3
------   -----------   -   -----
 72
   65
 73
    6
 40
16.75
 49
6
 49
-1.5
 49
6
 49
-1.5
 49
0.25
 49
-1.5
  0
LTYPE
  2
dashed_double-dotted
 70
   64
  3
---------    -    -    ---------
 72
   65
 73
    6
 40
11
 49
6
 49
-1.5
 49
0.25
 49
-1.5
 49
0.25
 49
-1.5
  0
LTYPE
  2
double-dashed_double-dotted
 70
   64
  3
-----   ---------   -   -   ----
 72
   65
 73
    8
 40
18.5
 49
6
 49
-1.5
 49
6
 49
-1.5
 49
0.25
 49
-1.5
 49
0.25
 49
-1.5
  0
LTYPE
  2
dashed_triplicate-dotted
 70
   64
  3
-------    -    -    -    ------
 72
   65
 73
    8
 40
12.75
 49
6
 49
-1.5
 49
0.25
 49
-1.5
 49
0.25
 49
-1.5
 49
0.25
 49
-1.5
  0
LTYPE
  2
double-dashed_triplicate-dotted
 70
   64
  3
-----  ---------  -  -  -  -----
 72
   65
 73
   10
 40
20.25
 49
6
 49
-1.5
 49
6
 49
-1.5
 49
0.25
 49
-1.5
 49
0.25
 49
-1.5
 49
0.25
 49
-1.5
  0
LTYPE
  2
undefined
 70
   64
  3
--------------------------------
 72
   65
 73
    0
 40
0
  0
LTYPE
  2
DOT_17
 70
   64
  3
--             ---             -
 72
   65
 73
    2
 40
5
 49
1
 49
-4
  0
LTYPE
  2
DASHED
 70
   64
  3
---          ------          ---
 72
   65
 73
    2
 40
5
 49
2
 49
-3
  0
LTYPE
  2
DASHED2_19
 70
   64
  3
---          ------          ---
 72
   65
 73
    2
 40
10
 49
4
 49
-6
  0
LTYPE
  2
CENTER
 70
   64
  3
----------    ----    ----------
 72
   65
 73
    4
 40
9
 49
6
 49
-1
 49
1
 49
-1
  0
LTYPE
  2
CENTER2_21
 70
   64
  3
----------    ----    ----------
 72
   65
 73
    4
 40
18
 49
12
 49
-2
 49
2
 49
-2
  0
LTYPE
  2
PHANTOM
 70
   64
  3
---------   ---   ---   --------
 72
   65
 73
    6
 40
10
 49
5
 49
-1
 49
1
 49
-1
 49
1
 49
-1
  0
LTYPE
  2
PHANTOM2_23
 70
   64
  3
------    ----    ----    ------
 72
   65
 73
    6
 40
16
 49
6
 49
-2
 49
2
 49
-2
 49
2
 49
-2
  0
LTYPE
  2
HIDDEN
 70
   64
  3
--             ---             -
 72
   65
 73
    2
 40
2.5
 49
0.5
 49
-2
  0
ENDTAB
  0
TABLE
  2
STYLE
  5
3
100
AcDbSymbolTable
 70
     1
  0
STYLE
  5
10
100
AcDbSymbolTableRecord
100
AcDbTextStyleTableRecord
  2
STANDARD
 70
     0
 40
0.0
 41
1.0
 50
0.0
 71
     0
 42
0.2
  3
txt
  4
bigfont.shx
  0
STYLE
  5
26
100
AcDbSymbolTableRecord
100
AcDbTextStyleTableRecord
  2
TATEGAKI
 70
    68
 40
0.0
 41
1.0
 50
0.0
 71
     0
 42
1.0
  3
txt
  4
bigfont.shx
  0
ENDTAB
  0
TABLE
  2
LAYER
 70
    9
  0
LAYER
  2
_0-0_
 70
   64
 62
    7
  6
CONTINUOUS
  0
LAYER
  2
_1-0_
 70
   64
 62
    7
  6
CONTINUOUS
  0
LAYER
  2
_1-1_
 70
   64
 62
    7
  6
CONTINUOUS
  0
LAYER
  2
_1-4_
 70
   64
 62
    7
  6
CONTINUOUS
  0
LAYER
  2
_1-5_
 70
   64
 62
    7
  6
CONTINUOUS
  0
LAYER
  2
_1-a_
 70
   64
 62
    7
  6
CONTINUOUS
  0
LAYER
  2
_1-b_
 70
   64
 62
    7
  6
CONTINUOUS
  0
LAYER
  2
_1-c_
 70
   64
 62
    7
  6
CONTINUOUS
  0
LAYER
  2
ADD_LINE
 70
   64
 62
    7
  6
CONTINUOUS
  0
ENDTAB
  0
ENDSEC
  0
SECTION
  2
BLOCKS
  0
ENDSEC
  0
SECTION
  2
ENTITIES
  0
LINE
  8
_0-0_
  6
CONTINUOUS
 62
    5
 10
6.7567526327597136
 20
280.13513513513516
 11
406.75677325274495
 21
280.13513513513516
  0
LINE
  8
_0-0_
  6
CONTINUOUS
 62
    5
 10
406.75677325274495
 20
10.13513513513513
 11
6.7567526327597136
 21
10.13513513513513
  0
LINE
  8
_0-0_
  6
CONTINUOUS
 62
    5
 10
406.75677325274495
 20
30.135133073136615
 11
6.7567402607685949
 21
30.135133073136615
  0
LINE
  8
_0-0_
  6
CONTINUOUS
 62
    5
 10
371.75678150073907
 20
10.13513513513513
 11
371.75678150073907
 21
30.135133073136615
  0
LINE
  8
_0-0_
  6
CONTINUOUS
 62
    5
 10
137.02703939901818
 20
30.135133073136615
 11
137.02703939901818
 21
10.13513513513513
  0
LINE
  8
_0-0_
  6
CONTINUOUS
 62
    5
 10
214.86486486486487
 20
30.135133073136615
 11
214.86486486486487
 21
10.13513513513513
  0
LINE
  8
_0-0_
  6
CONTINUOUS
 62
    5
 10
137.02703939901818
 20
20.135134104135886
 11
214.86486486486487
 21
20.135134104135886
  0
LINE
  8
_0-0_
  6
CONTINUOUS
 62
    5
 10
396.48648648648651
 20
25.945945945945951
 11
383.91891891891896
 21
13.378379924877265
  0
LINE
  8
_1-1_
  6
CONTINUOUS
 62
    7
 10
124.53001692488388
 20
118.15789712441935
 11
123.29891720333616
 21
120.8936660354202
  0
LINE
  8
_1-1_
  6
CONTINUOUS
 62
    7
 10
123.29891720333616
 20
120.8936660354202
 11
127.67614003774283
 21
122.86342311549832
  0
LINE
  8
_1-1_
  6
CONTINUOUS
 62
    7
 10
127.67614003774283
 20
122.86342311549832
 11
128.90723975929055
 21
120.12765420449747
  0
LINE
  8
_1-1_
  6
CONTINUOUS
 62
    7
 10
128.90723975929055
 20
120.12765420449747
 11
124.53001692488388
 21
118.15789712441935
  0
LINE
  8
ADD_LINE
  6
DOT
 62
    3
 10
68.382865287162161
 20
106.79075911238387
 11
66.525346910631356
 21
113.98142221811656
  0
LINE
  8
_1-a_
  6
CONTINUOUS
 62
    3
 10
71.755024677998335
 20
104.93164474899704
 11
73.157983728357266
 21
99.500662313925261
  0
LINE
  8
_1-a_
  6
CONTINUOUS
 62
    3
 10
127.67614003774283
 20
122.86342311549832
 11
71.755024677998335
 21
104.93164474899704
  0
LINE
  8
_1-a_
  6
CONTINUOUS
 62
    3
 10
68.382865287162161
 20
106.79075911238387
 11
66.378652211782082
 21
114.54930898305533
  0
LINE
  8
ADD_LINE
  6
DOT
 62
    3
 10
68.382865287162161
 20
106.79075911238387
 11
70.888131631387239
 21
97.092553216057865
  0
LINE
  8
_1-a_
  6
CONTINUOUS
 62
    3
 10
68.382865287162161
 20
106.79075911238387
 11
70.888131631387239
 21
97.092553216057865
  0
LINE
  8
_1-a_
  6
CONTINUOUS
 62
    3
 10
63.707959974134297
 20
113.69291975691513
 11
66.378652211782082
 21
114.54930898305533
  0
LINE
  8
_1-a_
  6
CONTINUOUS
 62
    3
 10
63.707959974134297
 20
113.69291975691513
 11
68.217427021748335
 21
96.236163989917657
  0
LINE
  8
_1-a_
  6
CONTINUOUS
 62
    3
 10
68.217427021748335
 20
96.236163989917657
 11
70.888131631387239
 21
97.092553216057865
  0
LINE
  8
_1-a_
  6
CONTINUOUS
 62
    3
 10
70.487291490709481
 20
98.644273087785052
 11
73.157983728357266
 21
99.500662313925261
  0
LINE
  8
ADD_LINE
  6
DOT
 62
    3
 10
63.543189796241563
 20
106.33433161555111
 11
64.973070299303231
 21
100.79909041121199
  0
LINE
  8
_1-a_
  6
CONTINUOUS
 62
    3
 10
126.51980425860431
 20
125.43306092958193
 11
68.382865287162161
 21
106.79075911238387
  0
LINE
  8
_1-a_
  6
CONTINUOUS
 62
    3
 10
126.51980425860431
 20
125.43306092958193
 11
127.37693580421242
 21
122.76006750158362
  0
LINE
  8
_1-a_
  6
CONTINUOUS
 62
    3
 10
68.382865287162161
 20
106.79075911238387
 11
70.888131631387239
 21
97.092553216057865
  0
LINE
  8
_1-1_
  6
CONTINUOUS
 62
    7
 10
167.39031817461995
 20
137.44502711940456
 11
166.15921845307221
 21
140.18079603040542
  0
LINE
  8
_1-1_
  6
CONTINUOUS
 62
    7
 10
166.15921845307221
 20
140.18079603040542
 11
170.53644128747891
 21
142.15055311048354
  0
LINE
  8
_1-1_
  6
CONTINUOUS
 62
    7
 10
170.53644128747891
 20
142.15055311048354
 11
171.76754100902662
 21
139.41478419948268
  0
LINE
  8
_1-1_
  6
CONTINUOUS
 62
    7
 10
171.76754100902662
 20
139.41478419948268
 11
167.39031817461995
 21
137.44502711940456
  0
LINE
  8
_1-1_
  6
CONTINUOUS
 62
    7
 10
210.25063179634714
 20
156.73216948638091
 11
209.01951970280828
 21
159.46793839738177
  0
LINE
  8
_1-1_
  6
CONTINUOUS
 62
    7
 10
209.01951970280828
 20
159.46793839738177
 11
213.39675490920609
 21
161.4376954774599
  0
LINE
  8
_1-1_
  6
CONTINUOUS
 62
    7
 10
213.39675490920609
 20
161.4376954774599
 11
214.62784225876268
 21
158.70192656645904
  0
LINE
  8
_1-1_
  6
CONTINUOUS
 62
    7
 10
214.62784225876268
 20
158.70192656645904
 11
210.25063179634714
 21
156.73216948638091
  0
LINE
  8
_1-1_
  6
CONTINUOUS
 62
    7
 10
253.11094541807435
 20
176.01931185335727
 11
251.8798333245355
 21
178.75508076435813
  0
LINE
  8
_1-1_
  6
CONTINUOUS
 62
    7
 10
251.8798333245355
 20
178.75508076435813
 11
256.25706853093328
 21
180.72483784443625
  0
LINE
  8
_1-1_
  6
CONTINUOUS
 62
    7
 10
256.25706853093328
 20
180.72483784443625
 11
257.4881558804899
 21
177.98906893343539
  0
LINE
  8
_1-1_
  6
CONTINUOUS
 62
    7
 10
257.4881558804899
 20
177.98906893343539
 11
253.11094541807435
 21
176.01931185335727
  0
LINE
  8
_1-1_
  6
CONTINUOUS
 62
    7
 10
295.97125903980151
 20
195.30647896431589
 11
294.74014694626271
 21
198.04222313133448
  0
LINE
  8
_1-1_
  6
CONTINUOUS
 62
    7
 10
294.74014694626271
 20
198.04222313133448
 11
299.11738215266047
 21
200.01199258340372
  0
LINE
  8
_1-1_
  6
CONTINUOUS
 62
    7
 10
300.34846950221709
 20
197.27622367240289
 11
295.97125903980151
 21
195.30647896431589
  0
LINE
  8
_1-1_
  6
CONTINUOUS
 62
    7
 10
294.74014694626271
 20
198.04222313133448
 11
300.34849424619932
 21
197.27619892842063
  0
LINE
  8
_1-1_
  6
CONTINUOUS
 62
    7
 10
251.8798333245355
 20
178.75508076435813
 11
257.4881558804899
 21
177.98906893343539
  0
LINE
  8
_1-1_
  6
CONTINUOUS
 62
    7
 10
209.01951970280828
 20
159.46793839738177
 11
214.62784225876268
 21
158.70192656645904
  0
LINE
  8
_1-1_
  6
CONTINUOUS
 62
    7
 10
166.15921845307221
 20
140.18079603040542
 11
171.76754100902662
 21
139.41478419948268
  0
LINE
  8
_1-1_
  6
CONTINUOUS
 62
    7
 10
123.29891720333616
 20
120.8936660354202
 11
128.90723975929055
 21
120.12765420449747
  0
LINE
  8
_1-b_
  6
CONTINUOUS
 62
    3
 10
115.02014984955659
 20
121.74556422877957
 11
170.71428865999789
 21
142.24496377480997
  0
LINE
  8
_1-b_
  6
CONTINUOUS
 62
    3
 10
171.40512827280406
 20
140.36807086016682
 11
173.09433808197846
 21
140.98981290250211
  0
LINE
  8
_1-b_
  6
CONTINUOUS
 62
    3
 10
170.71428865999789
 20
142.24496377480997
 11
171.40512827280406
 21
140.36807086016682
  0
LINE
  8
_1-b_
  6
CONTINUOUS
 62
    3
 10
115.73643864812078
 20
124.99285311312289
 11
169.93481610272383
 21
144.94171142578125
  0
LINE
  8
_1-b_
  6
CONTINUOUS
 62
    3
 10
114.78758116026184
 20
122.93865719357053
 11
115.20491316511826
 21
121.80481369430954
  0
LINE
  8
_1-1_
  6
CONTINUOUS
 62
    7
 10
166.15923082506336
 20
140.18080840239654
 11
170.53645365947003
 21
142.15056548247466
  0
LINE
  8
_1-1_
  6
CONTINUOUS
 62
    7
 10
210.25063179634714
 20
156.73216948638091
 11
209.01954444679055
 21
159.46793839738177
  0
LINE
  8
_1-1_
  6
CONTINUOUS
 62
    7
 10
209.01954444679055
 20
159.46793839738177
 11
213.39675490920609
 21
161.4376954774599
  0
LINE
  8
_1-1_
  6
CONTINUOUS
 62
    7
 10
213.39675490920609
 20
161.4376954774599
 11
214.62786700274495
 21
158.70192656645904
  0
LINE
  8
_1-1_
  6
CONTINUOUS
 62
    7
 10
214.62786700274495
 20
158.70192656645904
 11
210.25063179634714
 21
156.73216948638091
  0
LINE
  8
_1-1_
  6
CONTINUOUS
 62
    7
 10
209.01954444679055
 20
159.46793839738177
 11
214.62786700274495
 21
158.70192656645904
  0
LINE
  8
_1-b_
  6
CONTINUOUS
 62
    3
 10
157.8804634712838
 20
141.03270659575591
 11
213.57461465371622
 21
161.53210614178633
  0
LINE
  8
_1-b_
  6
CONTINUOUS
 62
    3
 10
214.26544189453125
 20
159.65521322714318
 11
215.95463933171453
 21
160.27695526947846
  0
LINE
  8
_1-b_
  6
CONTINUOUS
 62
    3
 10
213.57461465371622
 20
161.53210614178633
 11
214.26544189453125
 21
159.65521322714318
  0
LINE
  8
_1-b_
  6
CONTINUOUS
 62
    3
 10
158.59675226984797
 20
144.27999548009925
 11
212.79512972445102
 21
164.2288537927576
  0
LINE
  8
_1-b_
  6
CONTINUOUS
 62
    3
 10
157.64789478198904
 20
142.22579956054687
 11
158.06522678684544
 21
141.09195606128591
  0
LINE
  8
_1-1_
  6
CONTINUOUS
 62
    7
 10
209.01954444679055
 20
159.46795076937289
 11
213.39675490920609
 21
161.43770784945102
  0
LINE
  8
_1-1_
  6
CONTINUOUS
 62
    7
 10
253.11094541807435
 20
176.01931185335727
 11
251.8798333245355
 21
178.75508076435813
  0
LINE
  8
_1-1_
  6
CONTINUOUS
 62
    7
 10
251.8798333245355
 20
178.75508076435813
 11
256.25706853093328
 21
180.72483784443625
  0
LINE
  8
_1-1_
  6
CONTINUOUS
 62
    7
 10
256.25706853093328
 20
180.72483784443625
 11
257.4881558804899
 21
177.98906893343539
  0
LINE
  8
_1-1_
  6
CONTINUOUS
 62
    7
 10
257.4881558804899
 20
177.98906893343539
 11
253.11094541807435
 21
176.01931185335727
  0
LINE
  8
_1-1_
  6
CONTINUOUS
 62
    7
 10
251.8798333245355
 20
178.75508076435813
 11
257.4881558804899
 21
177.98906893343539
  0
LINE
  8
_1-b_
  6
CONTINUOUS
 62
    3
 10
200.74077709301099
 20
160.31984896273227
 11
256.43490353146115
 21
180.81924850876268
  0
LINE
  8
_1-b_
  6
CONTINUOUS
 62
    3
 10
257.12575551625844
 20
178.94235559411953
 11
258.81497769742401
 21
179.56409763645482
  0
LINE
  8
_1-b_
  6
CONTINUOUS
 62
    3
 10
256.43490353146115
 20
180.81924850876268
 11
257.12575551625844
 21
178.94235559411953
  0
LINE
  8
_1-b_
  6
CONTINUOUS
 62
    3
 10
201.45706589157518
 20
163.5671378470756
 11
255.65544334617823
 21
183.51599615973396
  0
LINE
  8
_1-b_
  6
CONTINUOUS
 62
    3
 10
200.50820840371622
 20
161.51294192752323
 11
200.92554040857266
 21
160.37909842826227
  0
LINE
  8
_1-1_
  6
CONTINUOUS
 62
    7
 10
251.8798333245355
 20
178.75508076435813
 11
256.25706853093328
 21
180.72483784443625
  0
LINE
  8
_1-1_
  6
CONTINUOUS
 62
    7
 10
256.25706853093328
 20
180.72483784443625
 11
257.4881558804899
 21
177.98906893343539
  0
LINE
  8
_1-1_
  6
CONTINUOUS
 62
    7
 10
295.97125903980151
 20
195.30645422033362
 11
294.74014694626271
 21
198.04222313133448
  0
LINE
  8
_1-1_
  6
CONTINUOUS
 62
    7
 10
294.74014694626271
 20
198.04222313133448
 11
299.11738215266047
 21
200.01199258340372
  0
LINE
  8
_1-1_
  6
CONTINUOUS
 62
    7
 10
300.34846950221709
 20
197.27619892842063
 11
295.97125903980151
 21
195.30645422033362
  0
LINE
  8
_1-1_
  6
CONTINUOUS
 62
    7
 10
294.74014694626271
 20
198.04222313133448
 11
300.34846950221709
 21
197.27619892842063
  0
LINE
  8
_1-1_
  6
CONTINUOUS
 62
    7
 10
251.8798333245355
 20
178.75508076435813
 11
257.4881558804899
 21
177.98906893343539
  0
LINE
  8
_1-1_
  6
CONTINUOUS
 62
    7
 10
251.87985806851776
 20
178.75508076435813
 11
256.25706853093328
 21
180.72483784443625
  0
LINE
  8
_1-1_
  6
CONTINUOUS
 62
    7
 10
256.25706853093328
 20
180.72483784443625
 11
257.48818062447214
 21
177.98906893343539
  0
LINE
  8
_1-1_
  6
CONTINUOUS
 62
    7
 10
251.87985806851776
 20
178.75508076435813
 11
257.48818062447214
 21
177.98906893343539
  0
LINE
  8
_1-b_
  6
CONTINUOUS
 62
    3
 10
257.12575551625844
 20
178.94235559411953
 11
258.81495295344172
 21
179.56409763645482
  0
LINE
  8
_1-b_
  6
CONTINUOUS
 62
    3
 10
256.43492827544344
 20
180.81924850876268
 11
257.12575551625844
 21
178.94235559411953
  0
LINE
  8
ADD_LINE
  6
DOT
 62
    3
 10
256.25706853093328
 20
180.72485021642737
 11
256.25706853093328
 21
181.1836407635663
  0
LINE
  8
ADD_LINE
  6
DOT
 62
    3
 10
256.25706853093328
 20
180.72485021642737
 11
256.25706853093328
 21
180.34181337098818
  0
LINE
  8
_1-1_
  6
CONTINUOUS
 62
    7
 10
251.87985806851776
 20
178.75509313634925
 11
256.25706853093328
 21
180.72485021642737
  0
LINE
  8
_1-1_
  6
CONTINUOUS
 62
    7
 10
295.97125903980151
 20
195.30645422033362
 11
294.74014694626271
 21
198.04222313133448
  0
LINE
  8
_1-1_
  6
CONTINUOUS
 62
    7
 10
294.74014694626271
 20
198.04222313133448
 11
299.11738215266047
 21
200.01199258340372
  0
LINE
  8
_1-1_
  6
CONTINUOUS
 62
    7
 10
299.11738215266047
 20
200.01199258340372
 11
300.34846950221709
 21
197.27619892842063
  0
LINE
  8
_1-1_
  6
CONTINUOUS
 62
    7
 10
300.34846950221709
 20
197.27619892842063
 11
295.97125903980151
 21
195.30645422033362
  0
LINE
  8
_1-1_
  6
CONTINUOUS
 62
    7
 10
294.74014694626271
 20
198.04222313133448
 11
300.34846950221709
 21
197.27619892842063
  0
LINE
  8
_1-b_
  6
CONTINUOUS
 62
    3
 10
244.31737951330237
 20
182.85428021405195
 11
298.51575696790542
 21
202.80313852671031
  0
LINE
  8
_1-b_
  6
CONTINUOUS
 62
    3
 10
243.36852202544344
 20
180.80008429449958
 11
243.78585403029984
 21
179.66624079523862
  0
LINE
  8
_1-b_
  6
CONTINUOUS
 62
    3
 10
299.97936351879224
 20
198.24438146642737
 11
301.66856095597552
 21
198.86609876478042
  0
LINE
  8
_1-b_
  6
CONTINUOUS
 62
    3
 10
286.22213002797719
 20
200.10211016680745
 11
286.63946203283365
 21
198.96824192356419
  0
LINE
  8
_1-0_
  6
CONTINUOUS
 62
    7
 10
107.52452953441724
 20
108.75087841137037
 11
324.17962151604729
 21
206.24569454708617
  0
LINE
  8
_1-b_
  6
CONTINUOUS
 62
    3
 10
286.45469871727198
 20
198.90900483002534
 11
321.65142987225511
 21
211.86391469594597
  0
LINE
  8
_1-b_
  6
CONTINUOUS
 62
    3
 10
287.17098751583615
 20
202.15630608635982
 11
320.49957275390625
 21
214.42358068517737
  0
LINE
  8
_1-b_
  6
CONTINUOUS
 62
    3
 10
298.33792196737755
 20
203.28289959881758
 11
298.50905134871203
 21
202.81800966005068
  0
LINE
  8
_1-b_
  6
CONTINUOUS
 62
    3
 10
298.33901070259714
 20
203.2832955025338
 11
298.51575696790542
 21
202.80313852671031
  0
LINE
  8
_1-b_
  6
CONTINUOUS
 62
    3
 10
298.33794671135979
 20
203.28287485483531
 11
298.50905134871203
 21
202.81800966005068
  0
LINE
  8
_1-b_
  6
CONTINUOUS
 62
    3
 10
255.48433870882602
 20
183.98086135451859
 11
255.65544334617823
 21
183.51599615973396
  0
LINE
  8
_1-b_
  6
CONTINUOUS
 62
    3
 10
256.98582829655828
 20
184.53354294235643
 11
258.81495295344172
 21
179.56409763645482
  0
LINE
  8
_1-b_
  6
CONTINUOUS
 62
    3
 10
255.48433870882602
 20
183.98086135451859
 11
255.65544334617823
 21
183.51599615973396
  0
LINE
  8
_1-b_
  6
CONTINUOUS
 62
    3
 10
256.98585304054058
 20
184.53354294235643
 11
258.81497769742401
 21
179.56409763645482
  0
LINE
  8
_1-b_
  6
CONTINUOUS
 62
    3
 10
212.62402508709883
 20
164.69373135953336
 11
212.79512972445102
 21
164.2288537927576
  0
LINE
  8
_1-b_
  6
CONTINUOUS
 62
    3
 10
214.12551467483109
 20
165.24638820338893
 11
215.95463933171453
 21
160.27695526947846
  0
LINE
  8
_1-b_
  6
CONTINUOUS
 62
    3
 10
169.7636990933805
 20
145.406588992557
 11
169.93481610272383
 21
144.94171142578125
  0
LINE
  8
_1-b_
  6
CONTINUOUS
 62
    3
 10
171.26522579708615
 20
145.95924583641261
 11
173.09433808197846
 21
140.98981290250211
  0
LINE
  8
_1-c_
  6
CONTINUOUS
 62
    7
 10
112.30058824693835
 20
129.6955088022593
 11
114.78758116026184
 21
122.93866956556167
  0
LINE
  8
_1-c_
  6
CONTINUOUS
 62
    7
 10
155.16090186866555
 20
148.98265116923565
 11
157.64789478198904
 21
142.22581193253802
  0
LINE
  8
_1-c_
  6
CONTINUOUS
 62
    7
 10
198.02121549039273
 20
168.26979353621201
 11
200.50820840371622
 21
161.51295429951438
  0
LINE
  8
_1-c_
  6
CONTINUOUS
 62
    7
 10
240.88152911211995
 20
187.55691115920609
 11
243.36852202544344
 21
180.80008429449958
  0
LINE
  8
_1-c_
  6
CONTINUOUS
 62
    7
 10
283.73513711465375
 20
206.85894940350508
 11
286.22213002797719
 21
200.10208542282518
  0
LINE
  8
_1-c_
  6
CONTINUOUS
 62
    7
 10
284.68396985853042
 20
208.91314532305745
 11
318.01257984058276
 21
221.180419921875
  0
LINE
  8
_1-c_
  6
CONTINUOUS
 62
    7
 10
241.83036185599664
 20
189.61110707875847
 11
284.32636982685813
 21
205.25266905088682
  0
LINE
  8
_1-c_
  6
CONTINUOUS
 62
    7
 10
112.71569329339106
 20
128.56772757865289
 11
67.305586531355573
 21
114.00643838418497
  0
LINE
  8
_1-c_
  6
CONTINUOUS
 62
    7
 10
198.97006060626057
 20
170.32397708377323
 11
241.46712019636826
 21
185.96592258762669
  0
LINE
  8
_1-c_
  6
CONTINUOUS
 62
    7
 10
156.10974698453336
 20
151.03683471679687
 11
198.60681894663219
 21
166.67878022065034
  0
LINE
  8
_1-c_
  6
CONTINUOUS
 62
    7
 10
113.24943336280617
 20
131.74969234982052
 11
155.746505324905
 21
147.39163785367398
  0
LINE
  8
_1-4_
  6
CONTINUOUS
 62
    7
 10
102.38769118850296
 20
149.81769871067357
 11
84.121683481577278
 21
190.40880357896961
  0
LINE
  8
_1-4_
  6
CONTINUOUS
 62
    7
 10
84.121683481577278
 20
190.40880357896961
 11
126.98199710330448
 21
209.69594594594597
  0
LINE
  8
_1-4_
  6
CONTINUOUS
 62
    7
 10
102.38767881651184
 20
149.81769871067357
 11
84.121683481577278
 21
190.40880357896961
  0
LINE
  8
_1-4_
  6
CONTINUOUS
 62
    7
 10
145.24799243823904
 20
169.10484107764992
 11
126.98199710330448
 21
209.69594594594597
  0
LINE
  8
_1-4_
  6
CONTINUOUS
 62
    7
 10
126.98199710330448
 20
209.69594594594597
 11
170.01866108662375
 21
229.06246700802367
  0
LINE
  8
_1-4_
  6
CONTINUOUS
 62
    7
 10
188.28465642155828
 20
188.47134976773648
 11
170.01866108662375
 21
229.06244226404141
  0
LINE
  8
_1-4_
  6
CONTINUOUS
 62
    7
 10
170.01866108662375
 20
229.06246700802367
 11
212.70263671875
 21
248.27023067989867
  0
LINE
  8
_1-4_
  6
CONTINUOUS
 62
    7
 10
230.96861968169341
 20
207.67913818359375
 11
212.70261197476773
 21
248.27025542388094
  0
LINE
  8
_1-4_
  6
CONTINUOUS
 62
    7
 10
212.70263671875
 20
248.27023067989867
 11
255.73875633445948
 21
267.63647955817146
  0
LINE
  8
_1-4_
  6
CONTINUOUS
 62
    7
 10
274.00476404138516
 20
227.04538706186656
 11
255.73875633445948
 21
267.63647955817146
  0
LINE
  8
_1-a_
  6
CONTINUOUS
 62
    7
 10
39.552909232474661
 20
170.35285331107477
 11
84.121695853568411
 21
190.40880357896961
  0
LINE
  8
_1-a_
  6
CONTINUOUS
 62
    7
 10
57.818916939400339
 20
129.76174844277872
 11
39.552909232474661
 21
170.35285331107477
  0
LINE
  8
_1-a_
  6
CONTINUOUS
 62
    7
 10
102.38769118850296
 20
149.81769871067357
 11
84.121695853568411
 21
190.40880357896961
  0
LINE
  8
_1-4_
  6
CONTINUOUS
 62
    7
 10
98.108108108108112
 20
120.81081081081082
 11
78.121106946790547
 21
155.42931221626901
  0
LINE
  8
_1-4_
  6
CONTINUOUS
 62
    7
 10
78.121106946790547
 20
155.42931221626901
 11
73.783783783783804
 21
155.42931221626901
  0
LINE
  8
_1-4_
  6
CONTINUOUS
 62
    7
 10
231.8918918918919
 20
180
 11
216.82015908730997
 21
206.10498789194469
  0
LINE
  8
_1-4_
  6
CONTINUOUS
 62
    7
 10
216.82015908730997
 20
206.10498789194469
 11
209.18918918918919
 21
206.10498789194469
  0
LINE
  8
_1-0_
  6
CONTINUOUS
 62
    7
 10
105.15321473817568
 20
107.68378180426521
 11
106.38430208773227
 21
104.94803763724663
  0
LINE
  8
_1-0_
  6
CONTINUOUS
 62
    7
 10
89.751731253959036
 20
98.055786957611915
 11
90.160291517103047
 21
97.647232880463477
  0
LINE
  8
_1-4_
  6
CONTINUOUS
 62
    7
 10
86.341119714685391
 20
62.819385013064817
 11
97.675372974292657
 21
67.919800217087214
  0
LINE
  8
_1-4_
  6
CONTINUOUS
 62
    7
 10
81.600358292863177
 20
73.354407645560599
 11
86.341119714685391
 21
62.819385013064817
  0
LINE
  8
_1-4_
  6
CONTINUOUS
 62
    7
 10
92.934611552470443
 20
78.454822849582982
 11
97.675372974292657
 21
67.919800217087214
  0
LINE
  8
_1-4_
  6
CONTINUOUS
 62
    7
 10
99.015568913640209
 20
68.522891482791394
 11
97.675372974292657
 21
67.919800217087214
  0
LINE
  8
_1-4_
  6
CONTINUOUS
 62
    7
 10
92.529484516865509
 20
108.62673785235431
 11
71.57541429674302
 21
144.92024602116766
  0
LINE
  8
_1-4_
  6
CONTINUOUS
 62
    7
 10
71.57541429674302
 20
144.92024602116766
 11
65.675675675675677
 21
144.92024602116766
  0
LINE
  8
_1-4_
  6
CONTINUOUS
 62
    7
 10
233.0858137800887
 20
120.81081081081082
 11
243.24324324324326
 21
120.81081081081082
  0
LINE
  8
_1-4_
  6
CONTINUOUS
 62
    7
 10
244.68329352301521
 20
114.30789432010135
 11
236.84029244087839
 21
114.30789432010135
  0
LINE
  8
_1-4_
  6
CONTINUOUS
 62
    7
 10
245.12470142261404
 20
107.46608424831082
 11
240.79039702544341
 21
107.46608424831082
  0
LINE
  8
_1-4_
  6
CONTINUOUS
 62
    7
 10
246.8903330210093
 20
101.06569444811022
 11
244.48566333667654
 21
101.06569444811022
  0
LINE
  8
_1-4_
  6
CONTINUOUS
 62
    7
 10
211.27503266205659
 20
158.58819085198482
 11
244.48566333667654
 21
101.06569444811022
  0
LINE
  8
_1-4_
  6
CONTINUOUS
 62
    7
 10
244.48566333667654
 20
101.06569444811022
 11
248.11652106207771
 21
94.776881449931381
  0
LINE
  8
_1-4_
  6
CONTINUOUS
 62
    7
 10
248.11652106207771
 20
94.776881449931381
 11
249.77355132231844
 21
94.775644250818203
  0
LINE
  8
_1-4_
  6
CONTINUOUS
 62
    7
 10
67.436754381334481
 20
74.532561431059975
 11
62.608962187895912
 21
85.519081321922513
  0
LINE
  8
_1-4_
  6
CONTINUOUS
 62
    7
 10
86.456067884290547
 20
82.89019404230892
 11
67.436754381334481
 21
74.532561431059975
  0
LINE
  8
_1-4_
  6
CONTINUOUS
 62
    7
 10
81.628275690851979
 20
93.876713933171459
 11
62.608962187895912
 21
85.519081321922513
  0
LINE
  8
_1-4_
  6
CONTINUOUS
 62
    7
 10
62.608962187895912
 20
85.519081321922513
 11
60.207138061523438
 21
90.98486616804793
  0
LINE
  8
_1-4_
  6
CONTINUOUS
 62
    7
 10
79.226451564479532
 20
99.342498779296875
 11
60.207138061523438
 21
90.98486616804793
  0
LINE
  8
_1-4_
  6
CONTINUOUS
 62
    7
 10
60.207138061523438
 20
90.98486616804793
 11
57.58718335950698
 21
96.947052414352839
  0
LINE
  8
_1-4_
  6
CONTINUOUS
 62
    7
 10
63.010631251979532
 20
99.330269066063138
 11
57.58718335950698
 21
96.947052414352839
  0
LINE
  8
_1-0_
  6
CONTINUOUS
 62
    7
 10
89.969076208166186
 20
97.56118568214211
 11
325.41073360958615
 21
203.50992563608531
  0
LINE
  8
_1-0_
  6
CONTINUOUS
 62
    7
 10
105.29369869747678
 20
82.525554347682643
 11
333.61801559860646
 21
185.27149509739232
  0
LINE
  8
_1-0_
  6
CONTINUOUS
 62
    7
 10
106.9351526208826
 20
78.877870714342279
 11
335.25945715002115
 21
181.62379909206081
  0
LINE
  8
_1-0_
  6
CONTINUOUS
 62
    7
 10
107.67380997941301
 20
77.236410604940886
 11
335.99808976456927
 21
179.98233279666385
  0
LINE
  8
_1-0_
  6
CONTINUOUS
 62
    7
 10
106.93516499287374
 20
78.877876900337839
 11
105.28482797983531
 21
78.135229574667449
  0
LINE
  8
_1-0_
  6
CONTINUOUS
 62
    7
 10
105.28482797983531
 20
78.135229574667449
 11
106.02348533836572
 21
76.493757093274922
  0
LINE
  8
_1-0_
  6
CONTINUOUS
 62
    7
 10
107.67382235140414
 20
77.236410604940886
 11
106.02348533836572
 21
76.493757093274922
  0
LINE
  8
_1-0_
  6
CONTINUOUS
 62
    7
 10
105.81734322212839
 20
73.111242345861484
 11
108.90490970096073
 21
74.500647879935599
  0
LINE
  8
_1-0_
  6
CONTINUOUS
 62
    7
 10
103.94734150654561
 20
73.820547155431797
 11
92.709187688054271
 21
98.794233992293073
  0
LINE
  8
_1-0_
  6
CONTINUOUS
 62
    7
 10
105.81734322212839
 20
73.111242345861484
 11
103.94734150654561
 21
73.820547155431797
  0
LINE
  8
_1-0_
  6
CONTINUOUS
 62
    7
 10
97.086410522460938
 20
100.76398488637564
 11
106.9351526208826
 21
78.877876900337839
  0
LINE
  8
_1-0_
  6
CONTINUOUS
 62
    7
 10
107.67382235140414
 20
77.236410604940886
 11
108.90490970096073
 21
74.500647879935599
  0
LINE
  8
_1-1_
  6
CONTINUOUS
 62
    3
 10
107.29992840741133
 20
100.97373343802788
 11
107.84707971521327
 21
101.21994843354096
  0
LINE
  8
_1-1_
  6
CONTINUOUS
 62
    3
 10
112.22430254961994
 20
90.030670166015625
 11
112.77146622941301
 21
90.276891347524284
  0
LINE
  8
_1-1_
  6
CONTINUOUS
 62
    3
 10
104.99276238518793
 20
103.66389918971707
 11
98.791703920106642
 21
100.87342133393159
  0
LINE
  8
_1-1_
  6
CONTINUOUS
 62
    3
 10
106.31504368137669
 20
103.16235104122678
 11
107.29992840741133
 21
100.97373343802788
  0
LINE
  8
_1-1_
  6
CONTINUOUS
 62
    3
 10
106.61599236565668
 20
103.95571734454181
 11
107.84707971521327
 21
101.21994843354096
  0
LINE
  8
_1-1_
  6
CONTINUOUS
 62
    3
 10
105.29369869747678
 20
104.45727786502323
 11
97.998325244800469
 21
101.17435764622044
  0
LINE
  8
_1-1_
  6
CONTINUOUS
 62
    3
 10
113.20918727565457
 20
87.842052562816733
 11
112.22430254961994
 21
90.030670166015625
  0
LINE
  8
_1-1_
  6
CONTINUOUS
 62
    3
 10
114.0025535789696
 20
87.541122436523438
 11
112.77146622941301
 21
90.276891347524284
  0
LINE
  8
_1-1_
  6
CONTINUOUS
 62
    3
 10
106.50656210409629
 20
83.729293410842487
 11
112.70762675517315
 21
86.519771266627956
  0
LINE
  8
_1-1_
  6
CONTINUOUS
 62
    3
 10
105.18426843591639
 20
84.230847745328347
 11
98.290143399625222
 21
99.551140037742826
  0
LINE
  8
_1-1_
  6
CONTINUOUS
 62
    3
 10
104.88333212362754
 20
83.437475256017734
 11
97.49676472431905
 21
99.852070164036107
  0
LINE
  8
_1-1_
  6
CONTINUOUS
 62
    3
 10
106.20562579180744
 20
82.935920921531888
 11
113.50099305848818
 21
86.218841140334675
  0
LINE
  8
ADD_LINE
  6
DOT
 62
    3
 10
104.88333212362754
 20
83.437475256017734
 11
105.77651565139358
 21
81.452624346758867
  0
LINE
  8
ADD_LINE
  6
DOT
 62
    3
 10
106.20562579180744
 20
82.935920921531888
 11
104.45440756308066
 21
82.147874574403517
  0
LINE
  8
ADD_LINE
  6
DOT
 62
    3
 10
97.49676472431905
 20
99.852070164036107
 11
96.806494223104949
 21
101.38600529851141
  0
LINE
  8
ADD_LINE
  6
DOT
 62
    3
 10
97.998325244800469
 20
101.17435764622044
 11
95.620645059121628
 21
100.1043969231683
  0
LINE
  8
_1-1_
  6
CONTINUOUS
 62
    3
 10
279.0926216744088
 20
178.2804416965794
 11
279.63978535420188
 21
178.52666906408362
  0
LINE
  8
_1-1_
  6
CONTINUOUS
 62
    3
 10
284.01702056059969
 20
167.33739079655828
 11
284.56415949641047
 21
167.58360579207138
  0
LINE
  8
_1-1_
  6
CONTINUOUS
 62
    3
 10
276.78546802417651
 20
180.97061982025971
 11
270.58440337309969
 21
178.18014196447425
  0
LINE
  8
_1-1_
  6
CONTINUOUS
 62
    3
 10
278.10776169235646
 20
180.46905929977831
 11
279.0926216744088
 21
178.2804416965794
  0
LINE
  8
_1-1_
  6
CONTINUOUS
 62
    3
 10
278.40869800464526
 20
181.26243797508448
 11
279.63978535420188
 21
178.52666906408362
  0
LINE
  8
_1-1_
  6
CONTINUOUS
 62
    3
 10
277.08640433646536
 20
181.76398612357477
 11
269.79103706978464
 21
178.48106590477198
  0
LINE
  8
_1-1_
  6
CONTINUOUS
 62
    3
 10
285.00188054265203
 20
165.14877319335937
 11
284.01702056059969
 21
167.33739079655828
  0
LINE
  8
_1-1_
  6
CONTINUOUS
 62
    3
 10
285.79527158994932
 20
164.84783688107052
 11
284.56415949641047
 21
167.58360579207138
  0
LINE
  8
_1-1_
  6
CONTINUOUS
 62
    3
 10
278.29925537109375
 20
161.03600166939401
 11
284.50032002217063
 21
163.82647952517948
  0
LINE
  8
_1-1_
  6
CONTINUOUS
 62
    3
 10
276.97698644689615
 20
161.53756218987544
 11
270.08284285261828
 21
176.85784829629435
  0
LINE
  8
_1-1_
  6
CONTINUOUS
 62
    3
 10
276.67605013460729
 20
160.74418351456927
 11
269.28947654930323
 21
177.1587846085832
  0
LINE
  8
_1-1_
  6
CONTINUOUS
 62
    3
 10
277.9983190588049
 20
160.24263536607899
 11
285.29371106946792
 21
163.52555558488177
  0
LINE
  8
ADD_LINE
  6
DOT
 62
    3
 10
276.67605013460729
 20
160.74418351456927
 11
277.56923366237334
 21
158.75934497730154
  0
LINE
  8
ADD_LINE
  6
DOT
 62
    3
 10
277.9983190588049
 20
160.24263536607899
 11
276.24711320206927
 21
159.4545890189506
  0
LINE
  8
ADD_LINE
  6
DOT
 62
    3
 10
269.28947654930323
 20
177.1587846085832
 11
268.59919367609797
 21
178.69271355706294
  0
LINE
  8
ADD_LINE
  6
DOT
 62
    3
 10
269.79103706978464
 20
178.48106590477198
 11
267.41333832611912
 21
177.41111136771539
  0
LINE
  8
_1-1_
  6
CONTINUOUS
 62
    7
 10
108.06284724055111
 20
74.121718535552162
 11
108.76117190799198
 21
74.820055574984167
  0
LINE
  8
_1-1_
  6
CONTINUOUS
 62
    7
 10
105.07225242820947
 20
73.393861925279779
 11
108.0589500633446
 21
76.380565746410483
  0
LINE
  8
_1-1_
  6
CONTINUOUS
 62
    7
 10
103.72663755674621
 20
74.310997627876901
 11
105.98807669974663
 21
76.572436770877331
  0
LINE
  8
_1-1_
  6
CONTINUOUS
 62
    7
 10
103.02440952610326
 20
75.871507799303217
 11
105.28585485509925
 21
78.132946942303633
  0
LINE
  8
_1-1_
  6
CONTINUOUS
 62
    7
 10
105.29084076752534
 20
78.13793285472974
 11
106.65448163006758
 21
79.501579903267526
  0
LINE
  8
_1-1_
  6
CONTINUOUS
 62
    7
 10
102.32218149546031
 20
77.432024156725092
 11
105.95224741342906
 21
81.062096260689401
  0
LINE
  8
_1-1_
  6
CONTINUOUS
 62
    7
 10
101.6199472788218
 20
78.992528142155834
 11
105.25002556878168
 21
82.622606432115717
  0
LINE
  8
_1-1_
  6
CONTINUOUS
 62
    7
 10
100.91771924817886
 20
80.553038313582135
 11
104.54779135214316
 21
84.183116603542018
  0
LINE
  8
_1-1_
  6
CONTINUOUS
 62
    7
 10
100.2154912175359
 20
82.11355467100401
 11
103.84556950749578
 21
85.743626774968334
  0
LINE
  8
_1-1_
  6
CONTINUOUS
 62
    7
 10
99.513263186892956
 20
83.674064842430326
 11
103.14333529085727
 21
87.304143132390209
  0
LINE
  8
_1-1_
  6
CONTINUOUS
 62
    7
 10
98.811028970254441
 20
85.234581199852201
 11
102.44110107421875
 21
88.86465330381651
  0
LINE
  8
_1-1_
  6
CONTINUOUS
 62
    7
 10
98.108800939611498
 20
86.795085185282943
 11
101.73887922957137
 21
90.425163475242826
  0
LINE
  8
_1-1_
  6
CONTINUOUS
 62
    7
 10
97.406566722972983
 20
88.355601542704818
 11
101.03664501293287
 21
91.985679832664701
  0
LINE
  8
_1-1_
  6
CONTINUOUS
 62
    7
 10
96.704338692330026
 20
89.916111714131134
 11
100.33441698228991
 21
93.546190004091017
  0
LINE
  8
_1-1_
  6
CONTINUOUS
 62
    7
 10
95.299876445048568
 20
93.03713824297931
 11
98.929954735008451
 21
96.667216532939193
  0
LINE
  8
_1-1_
  6
CONTINUOUS
 62
    7
 10
94.597654600401185
 20
94.597642228410052
 11
98.227726704365509
 21
98.227720518369935
  0
LINE
  8
_1-1_
  6
CONTINUOUS
 62
    7
 10
93.895420383762669
 20
96.158158585831927
 11
97.525498673722552
 21
99.78823687579181
  0
LINE
  8
_1-1_
  6
CONTINUOUS
 62
    7
 10
93.193192353119727
 20
97.718668757258243
 11
95.544761451515001
 21
100.07024404164908
  0
LINE
  8
_1-4_
  6
CONTINUOUS
 62
    7
 10
112.90697664827914
 20
65.607165774783581
 11
108.52975381387247
 21
63.637408694705442
  0
LINE
  8
_1-4_
  6
CONTINUOUS
 62
    7
 10
110.11643693253801
 20
71.808366517762877
 11
112.90697664827914
 21
65.607165774783581
  0
LINE
  8
_1-4_
  6
CONTINUOUS
 62
    7
 10
105.73921409813134
 20
69.838615623680326
 11
108.52975381387247
 21
63.637414880701016
  0
LINE
  8
_1-4_
  6
CONTINUOUS
 62
    7
 10
108.52975381387247
 20
63.637408694705442
 11
105.79398490287163
 21
62.406315159153294
  0
LINE
  8
_1-4_
  6
CONTINUOUS
 62
    7
 10
103.0034451871305
 20
68.607522088128178
 11
105.79398490287163
 21
62.406315159153294
  0
LINE
  8
_1-4_
  6
CONTINUOUS
 62
    7
 10
105.79398490287163
 20
62.406315159153294
 11
101.10579825736382
 21
60.296630859375
  0
LINE
  8
_1-4_
  6
CONTINUOUS
 62
    7
 10
98.315252355627123
 20
66.497837788349884
 11
101.10579207136824
 21
60.296630859375
  0
LINE
  8
_1-b_
  6
CONTINUOUS
 62
    3
 10
243.60109071473818
 20
179.60699132970862
 11
299.29412841796875
 21
200.10599497202281
  0
LINE
  8
_1-b_
  6
CONTINUOUS
 62
    3
 10
299.29412841796875
 20
200.10599497202281
 11
299.97936351879224
 21
198.24438146642737
  0
LINE
  8
_1-b_
  6
CONTINUOUS
 62
    3
 10
299.97936351879224
 20
198.24438146642737
 11
301.6696744351774
 21
198.86649466849664
  0
LINE
  8
_1-b_
  6
CONTINUOUS
 62
    3
 10
299.84054977829396
 20
203.83595234638938
 11
301.6696744351774
 21
198.86649466849664
  0
ARC
  8
_1-a_
  6
CONTINUOUS
 62
    3
 10
84.662636421822214
 20
109.79516106682856
 40
21.314104441049938
 50
169.462890625
 51
219.50543212890628
  0
ARC
  8
_1-b_
  6
CONTINUOUS
 62
    3
 10
116.28909549197635
 20
123.49132640941724
 40
1.5999999239638045
 50
110.20680236816406
 51
200.20738220214844
  0
ARC
  8
_1-b_
  6
CONTINUOUS
 62
    3
 10
159.14940911370357
 20
142.77846877639359
 40
1.5999999239638045
 50
110.20680236816406
 51
200.20738220214844
  0
ARC
  8
_1-b_
  6
CONTINUOUS
 62
    3
 10
202.00972273543076
 20
162.06561114336995
 40
1.5999999239638045
 50
110.20680236816406
 51
200.20738220214844
  0
ARC
  8
_1-b_
  6
CONTINUOUS
 62
    3
 10
244.87003635715794
 20
181.3527535103463
 40
1.5999999239638045
 50
110.20680236816406
 51
200.20738220214844
  0
ARC
  8
_1-b_
  6
CONTINUOUS
 62
    3
 10
287.72364435969172
 20
200.65476701066302
 40
1.5999999239638045
 50
110.20680236816406
 51
200.20738220214844
  0
ARC
  8
_1-c_
  6
CONTINUOUS
 62
    7
 10
113.80210257865288
 20
130.24816564611487
 40
1.5999999239638045
 50
110.20722961425781
 51
200.20695495605469
  0
ARC
  8
_1-c_
  6
CONTINUOUS
 62
    7
 10
156.66241620038008
 20
149.53530801309122
 40
1.5999999239638045
 50
110.20722961425781
 51
200.20695495605469
  0
ARC
  8
_1-c_
  6
CONTINUOUS
 62
    7
 10
199.52272982210727
 20
168.82245038006758
 40
1.5999999239638045
 50
110.20722961425781
 51
200.20695495605469
  0
ARC
  8
_1-c_
  6
CONTINUOUS
 62
    7
 10
242.38304344383448
 20
188.10956800306167
 40
1.5999999239638045
 50
110.20748901367187
 51
200.20695495605469
  0
ARC
  8
_1-c_
  6
CONTINUOUS
 62
    7
 10
285.23665144636828
 20
207.41160624736065
 40
1.5999999239638045
 50
110.20748901367187
 51
200.20695495605469
  0
ARC
  8
_1-c_
  6
CONTINUOUS
 62
    7
 10
67.152569745038022
 20
114.80795782965583
 40
0.8160004744658599
 50
198.47985839843753
 51
280.80862426757812
  0
ARC
  8
_1-1_
  6
CONTINUOUS
 62
    3
 10
98.408691818649714
 20
100.26243673788535
 40
0.9999999162313101
 50
114.22773742675781
 51
204.22773742675781
  0
ARC
  8
_1-1_
  6
CONTINUOUS
 62
    3
 10
99.202064307960313
 20
99.961506611592071
 40
0.9999999162313101
 50
114.22773742675781
 51
204.22773742675781
  0
ARC
  8
_1-1_
  6
CONTINUOUS
 62
    3
 10
105.40312895903716
 20
102.75198446737754
 40
0.9999999162313101
 50
24.227737426757813
 51
114.22773742675781
  0
ARC
  8
_1-1_
  6
CONTINUOUS
 62
    3
 10
105.70406527132602
 20
103.54535077069258
 40
0.9999999162313101
 50
24.227737426757813
 51
114.22773742675781
  0
ARC
  8
_1-1_
  6
CONTINUOUS
 62
    3
 10
112.29726018132391
 20
87.431685988967487
 40
0.9999999162313101
 50
294.22773742675781
 51
24.227737426757809
  0
ARC
  8
_1-1_
  6
CONTINUOUS
 62
    3
 10
113.09063885663008
 20
87.130755862674206
 40
0.9999999162313101
 50
294.22773742675781
 51
24.227737426757809
  0
ARC
  8
_1-1_
  6
CONTINUOUS
 62
    3
 10
106.09619553024704
 20
84.641208133182019
 40
0.9999999162313101
 50
204.22773742675781
 51
294.22773742675781
  0
ARC
  8
_1-1_
  6
CONTINUOUS
 62
    3
 10
105.7952592179582
 20
83.847841829866979
 40
0.9999999162313101
 50
204.22773742675781
 51
294.22773742675781
  0
ARC
  8
_1-1_
  6
CONTINUOUS
 62
    3
 10
270.20139127164276
 20
177.56915118243245
 40
0.9999999162313101
 50
114.22773742675781
 51
204.22773742675781
  0
ARC
  8
_1-1_
  6
CONTINUOUS
 62
    3
 10
270.99478231894005
 20
177.26821487014359
 40
0.9999999162313101
 50
114.22773742675781
 51
204.22773742675781
  0
ARC
  8
_1-1_
  6
CONTINUOUS
 62
    3
 10
277.19582222603464
 20
180.05869272592906
 40
0.9999999162313101
 50
24.227737426757813
 51
114.22773742675781
  0
ARC
  8
_1-1_
  6
CONTINUOUS
 62
    3
 10
277.49675853832349
 20
180.85207140123524
 40
0.9999999162313101
 50
24.227737426757813
 51
114.22773742675781
  0
ARC
  8
_1-1_
  6
CONTINUOUS
 62
    3
 10
284.0899658203125
 20
164.73840661951016
 40
0.9999999162313101
 50
294.22773742675781
 51
24.227737426757809
  0
ARC
  8
_1-1_
  6
CONTINUOUS
 62
    3
 10
284.88333212362755
 20
164.4374703072213
 40
0.9999999162313101
 50
294.22773742675781
 51
24.227737426757809
  0
ARC
  8
_1-1_
  6
CONTINUOUS
 62
    3
 10
277.88890116923568
 20
161.94792876372466
 40
0.9999999162313101
 50
204.22773742675781
 51
294.22773742675781
  0
ARC
  8
_1-1_
  6
CONTINUOUS
 62
    3
 10
277.58796485694683
 20
161.15455008841852
 40
0.9999999162313101
 50
204.22773742675781
 51
294.22773742675781
  0
TEXT
  8
_0-0_
 62
    7
 10
141.89189395389042
 20
14.594594594594582
 40
2.5
 41
1
 50
0
  1
縮尺
  0
TEXT
  8
_0-0_
 62
    7
 10
377.10214563318203
 20
22.865493362014362
 40
2.5
 41
1
 50
0
  1
ＮＯ
  0
TEXT
  8
_0-0_
 62
    7
 10
14.594594336844779
 20
24.324324324324323
 40
2.5
 41
1
 50
0
  1
和形
  0
TEXT
  8
_0-0_
 62
    7
 10
383.23801896378802
 20
18.523427086907475
 40
3
 41
1
 50
0
  1
Ｊ
  0
TEXT
  8
_1-0_
 62
    7
 10
169.90681828679266
 20
13.3181144095756
 40
2.5
 41
1
 50
0
  1
1/5
  0
TEXT
  8
_1-a_
 62
    7
 10
59.922266086654787
 20
180.06735280784272
 40
2.5
 41
1
 50
24.227719460851628
  1
245
  0
TEXT
  8
_1-5_
 62
    7
 10
202.84917676771011
 20
205.1842024519637
 40
2.5
 41
1
 50
0
  1
桟瓦
  0
TEXT
  8
_1-5_
 62
    7
 10
248.65282213365708
 20
119.97025773331926
 40
2.5
 41
1
 50
0
  1
瓦桟　
  0
TEXT
  8
_1-5_
 62
    7
 10
62.573307140453437
 20
154.61365158493456
 40
2.5
 41
1
 50
0
  1
万十軒瓦
  0
TEXT
  8
_1-4_
 62
    7
 10
90.663163863981822
 20
65.31259502983346
 40
2.5
 41
1
 50
24.227700068058738
  1
60
  0
TEXT
  8
_1-4_
 62
    7
 10
39.721904445338907
 20
15.395235628695104
 40
2.5
 41
1
 50
0
  1
軒先　　2
  0
TEXT
  8
_1-4_
 62
    7
 10
64.977734386619886
 20
81.371359271963229
 40
2.5
 41
1
 50
-66.277948550620195
  1
60
  0
TEXT
  8
_1-4_
 62
    7
 10
61.362929319712151
 20
89.597508547459441
 40
2.5
 41
1
 50
-66.277948550620138
  1
30
  0
TEXT
  8
_1-4_
 62
    7
 10
58.852039905517671
 20
95.311494093674611
 40
2.5
 41
1
 50
-66.277948550620138
  1
33
  0
TEXT
  8
_1-4_
 62
    7
 10
25.556194717819636
 20
20.211577544341225
 40
2.5
 41
1
 50
0
  1
鉄骨
  0
TEXT
  8
_1-4_
 62
    7
 10
109.37327399243327
 20
64.565294678034419
 40
2.5
 41
1
 50
24.227758246524974
  1
24
  0
TEXT
  8
_1-4_
 62
    7
 10
105.81678430572508
 20
62.964866277221503
 40
2.5
 41
1
 50
24.227758246524974
  1
15
  0
TEXT
  8
_1-4_
 62
    7
 10
102.10480343447296
 20
61.294474266558495
 40
2.5
 41
1
 50
24.227758246524974
  1
26
  0
TEXT
  8
_1-4_
 62
    7
 10
248.65438100453969
 20
98.970262682115717
 40
2.5
 41
1
 50
0
  1
野地板
  0
TEXT
  8
_1-4_
 62
    7
 10
262.65888111011401
 20
98.970262682115717
 40
2.5
 41
1
 50
0
  1
ｔ＝12
  0
TEXT
  8
_1-4_
 62
    7
 10
103.6368061510034
 20
199.7388939810055
 40
2.5
 41
1
 50
24.227891841336795
  1
237
  0
TEXT
  8
_1-4_
 62
    7
 10
146.58529495352664
 20
219.06572569553254
 40
2.5
 41
1
 50
24.227891841336653
  1
237
  0
TEXT
  8
_1-4_
 62
    7
 10
189.44560857525383
 20
238.35289280649116
 40
2.5
 41
1
 50
24.227891841336675
  1
237
  0
TEXT
  8
_1-4_
 62
    7
 10
232.30565724090377
 20
257.63988439463378
 40
2.5
 41
1
 50
24.227969413213476
  1
237
  0
TEXT
  8
_1-4_
 62
    7
 10
395.858810012405
 20
14.62355278633737
 40
2.5
 41
1
 50
0
  1
33
  0
TEXT
  8
_1-4_
 62
    7
 10
261.9366455078125
 20
120.13516400311445
 40
2.5
 41
1
 50
0
  1
15×21　以上　（防腐処理）
  0
TEXT
  8
_1-4_
 62
    7
 10
294.87740181587839
 20
120.09463336016681
 40
2.5
 41
1
 50
0
  1
※　地域により瓦桟木の大きさは、異なります
  0
TEXT
  8
_1-4_
 62
    7
 10
59.989949819203957
 20
143.82327105547932
 40
2.5
 41
1
 50
0
  1
瓦座
  0
POINT
  8
_1-4_
 62
    7
 10
84.121695853568411
 20
190.40880357896961
  0
POINT
  8
_1-4_
 62
    7
 10
84.121683481577278
 20
190.40880357896961
  0
POINT
  8
_1-4_
 62
    7
 10
126.98199710330448
 20
209.69594594594597
  0
POINT
  8
_1-4_
 62
    7
 10
170.01866108662375
 20
229.06246700802367
  0
POINT
  8
_1-4_
 62
    7
 10
212.70263671875
 20
248.27023067989867
  0
POINT
  8
_1-4_
 62
    7
 10
255.73875633445948
 20
267.63647955817146
  0
POINT
  8
_1-a_
 62
    7
 10
39.552909232474661
 20
170.35285331107477
  0
POINT
  8
_1-a_
 62
    7
 10
84.121695853568411
 20
190.40880357896961
  0
POINT
  8
_1-4_
 62
    7
 10
86.341119714685391
 20
62.819385013064817
  0
POINT
  8
_1-4_
 62
    7
 10
97.675372974292657
 20
67.919800217087214
  0
POINT
  8
_1-4_
 62
    7
 10
67.436754381334481
 20
74.532561431059975
  0
POINT
  8
_1-4_
 62
    7
 10
62.608962187895912
 20
85.519081321922513
  0
POINT
  8
_1-4_
 62
    7
 10
60.207138061523438
 20
90.98486616804793
  0
POINT
  8
_1-4_
 62
    7
 10
57.58718335950698
 20
96.947052414352839
  0
POINT
  8
_1-4_
 62
    7
 10
112.90697664827914
 20
65.607165774783581
  0
POINT
  8
_1-4_
 62
    7
 10
108.52975381387247
 20
63.637408694705442
  0
POINT
  8
_1-4_
 62
    7
 10
105.79398490287163
 20
62.406315159153294
  0
POINT
  8
_1-4_
 62
    7
 10
101.10579825736382
 20
60.296630859375
  0
LINE
  8
_1-1_
  6
DASHED1
 62
    3
 10
88.997117154244677
 20
110.43214439453816
 11
86.382659614434147
 21
116.24205470409015
  0
LINE
  8
_1-1_
  6
CONTINUOUS
 62
    7
 10
86.321025241618571
 20
106.1281225952267
 11
70.437405645743013
 21
133.63935414150419
  0
LINE
  8
_1-1_
  6
CONTINUOUS
 62
    7
 10
70.437405645743013
 20
133.63935414150419
 11
67.673940222808938
 21
133.63935414150419
  0
LINE
  8
_1-1_
  6
CONTINUOUS
 62
    7
 10
86.321025241618571
 20
106.1281225952267
 11
90.261352797018162
 21
107.62272959899894
  0
TEXT
  8
_1-1_
 62
    7
 10
62.004218426549244
 20
132.08284904032661
 40
2.5
 41
1
 50
0
  1
面戸
  0
TEXT
  8
_1-1_
 62
    7
 10
245.91763311840222
 20
56.132523165771971
 40
2.5
 41
1
 50
0
  1
※軒面戸の納まりには、木製、金属製、樹脂製、面戸付き軒瓦等があります。
  0
TEXT
  8
_1-1_
 62
    7
 10
248.18623148883864
 20
52.377301004150041
 40
2.5
 41
1
 50
0
  1
その他に漆喰またはモルタル仕上げもありますが、この場合は、左官仕事となります。
  0
TEXT
  8
_1-4_
 62
    7
 10
262.71836151947849
 20
93.942164473480332
 40
2.5
 41
1
 50
0
  1
Ｃ-100ｘ50ｘ20ｘ2.3
  0
TEXT
  8
_1-4_
 62
    7
 10
250.30948142447005
 20
93.88300004706521
 40
2.5
 41
1
 50
0
  1
垂木
  0
TEXT
  8
_1-5_
 62
    7
 10
248.65438100453969
 20
112.97025938291809
 40
2.5
 41
1
 50
0
  1
縦桟
  0
TEXT
  8
_1-5_
 62
    7
 10
248.65438512853677
 20
105.9702610325169
 40
2.5
 41
1
 50
0
  1
ルーフィング
  0
LINE
  8
_1-0_
  6
CONTINUOUS
 62
    7
 10
88.762149802414925
 20
100.30776837597097
 11
89.969076208166186
 21
97.56118568214211
  0
LINE
  8
_1-0_
  6
CONTINUOUS
 62
    7
 10
107.52452953441724
 20
108.75087841137037
 11
88.762149802414925
 21
100.30776837597097
  0
LINE
  8
_1-0_
  6
CONTINUOUS
 62
    7
 10
89.45203983360409
 20
100.61822032976659
 11
91.72079550253379
 21
98.349460911106419
  0
LINE
  8
_1-0_
  6
CONTINUOUS
 62
    7
 10
103.49657977967387
 20
106.93829261563832
 11
105.76535611539275
 21
104.66951937288852
  0
LINE
  8
_1-0_
  6
CONTINUOUS
 62
    7
 10
91.012544106470912
 20
101.32045050923855
 11
93.281305673960091
 21
99.051688941749376
  0
LINE
  8
_1-0_
  6
CONTINUOUS
 62
    7
 10
92.573048832284712
 20
102.02268089253764
 11
94.841815845386407
 21
99.753916972392318
  0
LINE
  8
_1-0_
  6
CONTINUOUS
 62
    7
 10
94.133549291843721
 20
102.72490935601314
 11
96.402313644821589
 21
100.45614500303527
  0
LINE
  8
_1-0_
  6
CONTINUOUS
 62
    7
 10
95.694054017654906
 20
103.42713973931103
 11
97.962823816247891
 21
101.15837303367822
  0
LINE
  8
_1-0_
  6
CONTINUOUS
 62
    7
 10
97.254563009611914
 20
104.12937204238345
 11
99.523333987674206
 21
101.86060106432116
  0
LINE
  8
_1-0_
  6
CONTINUOUS
 62
    7
 10
98.815072001571153
 20
104.83160434545687
 11
101.08384415910051
 21
102.56282909496412
  0
LINE
  8
_1-0_
  6
CONTINUOUS
 62
    7
 10
100.37557246118241
 20
105.53383280895589
 11
102.64434814453125
 21
103.26505712560706
  0
LINE
  8
_1-0_
  6
CONTINUOUS
 62
    7
 10
101.93607932002612
 20
106.23606415212288
 11
104.20485212996199
 21
103.96728515625
  0
LINE
  8
_1-1_
  6
DASHED1
 62
    3
 10
88.4402829871363
 20
101.04023542644687
 11
323.85134310335729
 21
206.97524612014359
  0
LINE
  8
_1-0_
  6
CONTINUOUS
 62
    7
 10
88.35981733361011
 20
101.22334979893014
 11
323.76926731418922
 21
207.15763401340794
  0
LINE
  8
_1-0_
  6
CONTINUOUS
 62
    7
 10
88.118428466107716
 20
101.77267449909887
 11
323.52306469066724
 21
207.70477294921875
  0
LINE
  8
_1-0_
  6
CONTINUOUS
 62
    7
 10
88.118428466107716
 20
101.77267449909887
 11
88.35981733361011
 21
101.22334979893014
  0
LINE
  8
_1-0_
  6
CONTINUOUS
 62
    3
 10
105.10280560091722
 20
108.63519433625852
 11
87.125901464253076
 21
100.54558654584997
  0
LINE
  8
_1-0_
  6
CONTINUOUS
 62
    3
 10
87.125901464253076
 20
100.54558654584997
 11
82.919537875033555
 21
92.630387235915734
  0
LINE
  8
_1-0_
  6
CONTINUOUS
 62
    3
 10
82.919537875033555
 20
92.630387235915734
 11
85.221857082344727
 21
95.351309935465295
  0
LINE
  8
_1-4_
  6
CONTINUOUS
 62
    7
 10
89.247999449033998
 20
110.34053080790753
 11
92.264044934741875
 21
103.63820212393659
  0
LINE
  8
_1-4_
  6
CONTINUOUS
 62
    7
 10
89.247999449033998
 20
110.34053080790753
 11
98.019643647904672
 21
112.77969933607952
  0
LINE
  8
_1-0_
  6
CONTINUOUS
 62
    7
 10
98.019643647904672
 20
112.77969933607952
 11
100.47133959123329
 21
107.331481753416
  0
LINE
  8
_1-0_
  6
CONTINUOUS
 62
    7
 10
89.247999449033998
 20
110.34053080790753
 11
100.47133959123329
 21
107.331481753416
  0
LINE
  8
_1-0_
  6
CONTINUOUS
 62
    7
 10
98.019643647904672
 20
112.77969933607952
 11
92.264044934741875
 21
103.63820212393659
  0
LINE
  8
_1-1_
  6
CONTINUOUS
 62
    3
 10
92.089694632779384
 20
103.55974447905538
 11
88.997117154244677
 21
110.43214439453816
  0
ENDSEC
  0
EOF
