  0
SECTION
  2
HEADER
  9
$ACADVER
  1
AC1009
  9
$INSBASE
 10
0
 20
0
 30
0
  9
$EXTMIN
 10
0
 20
0
  9
$EXTMAX
 10
420
 20
297
  9
$LIMMIN
 10
0
 20
0
  9
$LIMMAX
 10
420
 20
297
  9
$LTSCALE
 40
1
  0
ENDSEC
  0
SECTION
  2
TABLES
  0
TABLE
  2
LTYPE
 70
     9
  0
LTYPE
  2
CONTINUOUS
 70
    64
  3
実線
 72
    65
 73
     0
 40
0.0
  0
LTYPE
  2
DASHED1
 70
    64
  3
--  --  --  --  --  --  --  --  
 72
    65
 73
     2
 40
2.5
 49
1.25
 49
-1.25
  0
LTYPE
  2
DASHED2
 70
    64
  3
----    ----    ----    ----    
 72
    65
 73
     2
 40
5.0
 49
2.5
 49
-2.5
  0
LTYPE
  2
DASHED3
 70
    64
  3
------  ------  ------  ------  
 72
    65
 73
     2
 40
5.0
 49
3.75
 49
-1.25
  0
LTYPE
  2
CENTER1
 70
    64
  3
----- - ----- - ----- - ----- - 
 72
    65
 73
     4
 40
10.0
 49
6.25
 49
-1.25
 49
1.25
 49
-1.25
  0
LTYPE
  2
CENTER2
 70
    64
  3
----------  --  ----------  --  
 72
    65
 73
     4
 40
20.0
 49
12.5
 49
-2.5
 49
2.5
 49
-2.5
  0
LTYPE
  2
PHANTOM1
 70
    64
  3
--- - - --- - - --- - - --- - - 
 72
    65
 73
     6
 40
10.0
 49
3.25
 49
-1.25
 49
1.25
 49
-1.25
 49
1.25
 49
-1.25
  0
LTYPE
  2
PHANTOM2
 70
    64
  3
--------  -  -  --------  -  -  
 72
    65
 73
     6
 40
20.0
 49
10.0
 49
-2.5
 49
1.25
 49
-2.5
 49
1.25
 49
-2.5
  0
LTYPE
  2
DOT
 70
    64
  3
-   -   -   -   -   -   -   -   
 72
    65
 73
     2
 40
2.5
 49
0.625
 49
-1.875
  0
LTYPE
  2
DUMMY
 70
    64
  3
ダミー
 72
    65
 73
     0
 40
0.0
  0
LTYPE
  2
RAND1
 70
    64
  3
ランダム線1
 72
    65
 73
     4
 40
10.0
 49
1.0
 49
-2.0
 49
3.0
 49
-4.0
  0
LTYPE
  2
RAND2
 70
    64
  3
ランダム線2
 72
    65
 73
     4
 40
14.0
 49
2.0
 49
-3.0
 49
4.0
 49
-5.0
  0
LTYPE
  2
RAND3
 70
    64
  3
ランダム線3
 72
    65
 73
     4
 40
18.0
 49
3.0
 49
-4.0
 49
5.0
 49
-6.0
  0
LTYPE
  2
RAND4
 70
    64
  3
ランダム線4
 72
    65
 73
     4
 40
22.0
 49
4.0
 49
-5.0
 49
6.0
 49
-7.0
  0
LTYPE
  2
RAND5
 70
    64
  3
ランダム線5
 72
    65
 73
     4
 40
26.0
 49
5.0
 49
-6.0
 49
7.0
 49
-8.0
  0
LTYPE
  2
LONG1
 70
    64
  3
----------  --  ----------  --  
 72
    65
 73
     4
 40
40.0
 49
32.5
 49
-2.5
 49
2.5
 49
-2.5
  0
LTYPE
  2
LONG2
 70
    64
  3
--------  -  -  --------  -  -  
 72
    65
 73
     6
 40
40.0
 49
30.0
 49
-2.5
 49
1.25
 49
-2.5
 49
1.25
 49
-2.5
  0
LTYPE
  2
LONG3
 70
    64
  3
+++++++++++++++..+++++++++++++++
 72
    65
 73
     2
 40
40.0
 49
37.5
 49
-2.5
  0
LTYPE
  2
LONG4
 70
    64
  3
+++++++++++++++..+++++++++++++++
 72
    65
 73
     2
 40
80.0
 49
75.0
 49
-5.0
  0
LTYPE
  2
LONG5
 70
    64
  3
----------  --  ----------  --  
 72
    65
 73
     4
 40
60.0
 49
37.5
 49
-7.5
 49
7.5
 49
-7.5
  0
LTYPE
  2
dashed
 70
   64
  3
-------   -------------   ------
 72
   65
 73
    2
 40
7.5
 49
6
 49
-1.5
  0
LTYPE
  2
dashed_spaced
 70
   64
  3
----        --------        ----
 72
   65
 73
    2
 40
12
 49
6
 49
-6
  0
LTYPE
  2
long_dashed_dotted
 70
   64
  3
------------- --- --------------
 72
   65
 73
    4
 40
15.25
 49
12
 49
-1.5
 49
0.25
 49
-1.5
  0
LTYPE
  2
long_dashed_double-dotted
 70
   64
  3
----------- --- --- ------------
 72
   65
 73
    6
 40
17
 49
12
 49
-1.5
 49
0.25
 49
-1.5
 49
0.25
 49
-1.5
  0
LTYPE
  2
long_dashed_triplicate-dotted
 70
   64
  3
--------- --- --- --- ----------
 72
   65
 73
    8
 40
18.75
 49
12
 49
-1.5
 49
0.25
 49
-1.5
 49
0.25
 49
-1.5
 49
0.25
 49
-1.5
  0
LTYPE
  2
dotted
 70
   64
  3
   -       -       -       -    
 72
   65
 73
    2
 40
1.75
 49
0.25
 49
-1.5
  0
LTYPE
  2
chain
 70
   64
  3
-------------- -- --------------
 72
   65
 73
    4
 40
18.5
 49
12
 49
-1.5
 49
3.5
 49
-1.5
  0
LTYPE
  2
chain_double_dash
 70
   64
  3
------------ -- -- -------------
 72
   65
 73
    6
 40
23.5
 49
12
 49
-1.5
 49
3.5
 49
-1.5
 49
3.5
 49
-1.5
  0
LTYPE
  2
dashed_dotted
 70
   64
  3
-----------     -     ----------
 72
   65
 73
    4
 40
9.25
 49
6
 49
-1.5
 49
0.25
 49
-1.5
  0
LTYPE
  2
double-dashed_dotted
 70
   64
  3
------   -----------   -   -----
 72
   65
 73
    6
 40
16.75
 49
6
 49
-1.5
 49
6
 49
-1.5
 49
0.25
 49
-1.5
  0
LTYPE
  2
dashed_double-dotted
 70
   64
  3
---------    -    -    ---------
 72
   65
 73
    6
 40
11
 49
6
 49
-1.5
 49
0.25
 49
-1.5
 49
0.25
 49
-1.5
  0
LTYPE
  2
double-dashed_double-dotted
 70
   64
  3
-----   ---------   -   -   ----
 72
   65
 73
    8
 40
18.5
 49
6
 49
-1.5
 49
6
 49
-1.5
 49
0.25
 49
-1.5
 49
0.25
 49
-1.5
  0
LTYPE
  2
dashed_triplicate-dotted
 70
   64
  3
-------    -    -    -    ------
 72
   65
 73
    8
 40
12.75
 49
6
 49
-1.5
 49
0.25
 49
-1.5
 49
0.25
 49
-1.5
 49
0.25
 49
-1.5
  0
LTYPE
  2
double-dashed_triplicate-dotted
 70
   64
  3
-----  ---------  -  -  -  -----
 72
   65
 73
   10
 40
20.25
 49
6
 49
-1.5
 49
6
 49
-1.5
 49
0.25
 49
-1.5
 49
0.25
 49
-1.5
 49
0.25
 49
-1.5
  0
LTYPE
  2
undefined
 70
   64
  3
--------------------------------
 72
   65
 73
    0
 40
0
  0
ENDTAB
  0
TABLE
  2
STYLE
  5
3
100
AcDbSymbolTable
 70
     1
  0
STYLE
  5
10
100
AcDbSymbolTableRecord
100
AcDbTextStyleTableRecord
  2
STANDARD
 70
     0
 40
0.0
 41
1.0
 50
0.0
 71
     0
 42
0.2
  3
txt
  4
bigfont.shx
  0
STYLE
  5
26
100
AcDbSymbolTableRecord
100
AcDbTextStyleTableRecord
  2
TATEGAKI
 70
    68
 40
0.0
 41
1.0
 50
0.0
 71
     0
 42
1.0
  3
txt
  4
bigfont.shx
  0
ENDTAB
  0
TABLE
  2
LAYER
 70
   11
  0
LAYER
  2
_0-0_
 70
   64
 62
    7
  6
CONTINUOUS
  0
LAYER
  2
_1-0_
 70
   64
 62
    7
  6
CONTINUOUS
  0
LAYER
  2
_1-1_
 70
   64
 62
    7
  6
CONTINUOUS
  0
LAYER
  2
_1-2_
 70
   64
 62
    7
  6
CONTINUOUS
  0
LAYER
  2
_1-3_
 70
   64
 62
    7
  6
CONTINUOUS
  0
LAYER
  2
_1-4_
 70
   64
 62
    7
  6
CONTINUOUS
  0
LAYER
  2
_1-5_
 70
   64
 62
    7
  6
CONTINUOUS
  0
LAYER
  2
_1-6_
 70
   64
 62
    7
  6
CONTINUOUS
  0
LAYER
  2
_1-b_
 70
   64
 62
    7
  6
CONTINUOUS
  0
LAYER
  2
_1-c_
 70
   64
 62
    7
  6
CONTINUOUS
  0
LAYER
  2
ADD_LINE
 70
   64
 62
    7
  6
CONTINUOUS
  0
ENDTAB
  0
ENDSEC
  0
SECTION
  2
BLOCKS
  0
ENDSEC
  0
SECTION
  2
ENTITIES
  0
LINE
  8
_1-0_
  6
CONTINUOUS
 62
    7
 10
97.172958786423152
 20
89.144513929212422
 11
233.07828732929858
 21
150.3019208958641
  0
LINE
  8
_0-0_
  6
CONTINUOUS
 62
    5
 10
6.7567526327597136
 20
280.13513513513516
 11
406.75677325274495
 21
280.13513513513516
  0
LINE
  8
_0-0_
  6
CONTINUOUS
 62
    5
 10
406.75677325274495
 20
10.13513513513513
 11
6.7567526327597136
 21
10.13513513513513
  0
LINE
  8
_0-0_
  6
CONTINUOUS
 62
    5
 10
406.75677325274495
 20
30.135133073136615
 11
6.7567402607685949
 21
30.135133073136615
  0
LINE
  8
_0-0_
  6
CONTINUOUS
 62
    5
 10
371.75678150073907
 20
10.13513513513513
 11
371.75678150073907
 21
30.135133073136615
  0
LINE
  8
_0-0_
  6
CONTINUOUS
 62
    5
 10
137.02703939901818
 20
30.135133073136615
 11
137.02703939901818
 21
10.13513513513513
  0
LINE
  8
_0-0_
  6
CONTINUOUS
 62
    5
 10
214.86486486486487
 20
30.135133073136615
 11
214.86486486486487
 21
10.13513513513513
  0
LINE
  8
_0-0_
  6
CONTINUOUS
 62
    5
 10
137.02703939901818
 20
20.135134104135886
 11
214.86486486486487
 21
20.135134104135886
  0
LINE
  8
_0-0_
  6
CONTINUOUS
 62
    5
 10
396.48648648648651
 20
25.945945945945951
 11
383.91891891891896
 21
13.378379924877265
  0
LINE
  8
_1-2_
  6
CONTINUOUS
 62
    3
 10
207.60255555848818
 20
160.91940802496833
 11
209.46780642947635
 21
155.8517785974451
  0
LINE
  8
_1-2_
  6
CONTINUOUS
 62
    3
 10
226.84075432854732
 20
168.00044291728253
 11
225.59727024387669
 21
171.37886253563136
  0
LINE
  8
_1-2_
  6
CONTINUOUS
 62
    3
 10
207.84987166121201
 20
168.30356907200169
 11
209.71512253220018
 21
163.23593964447846
  0
LINE
  8
_1-2_
  6
CONTINUOUS
 62
    3
 10
227.08807043127112
 20
175.38460396431589
 11
225.84458634660052
 21
178.76302358266472
  0
LINE
  8
_1-3_
  6
CONTINUOUS
 62
    7
 10
213.92694421716641
 20
173.37418014938768
 11
212.58530075485643
 21
176.05745470201649
  0
LINE
  8
_1-3_
  6
CONTINUOUS
 62
    7
 10
212.58530075485643
 20
176.05745470201649
 11
228.68499755859375
 21
184.10730310388516
  0
LINE
  8
_1-3_
  6
CONTINUOUS
 62
    7
 10
228.68499755859375
 20
184.10730310388516
 11
230.02664102090372
 21
181.42402855125636
  0
LINE
  8
_1-3_
  6
CONTINUOUS
 62
    7
 10
230.02664102090372
 20
181.42402855125636
 11
213.92694421716641
 21
173.37418014938768
  0
LINE
  8
_1-3_
  6
CONTINUOUS
 62
    7
 10
212.58530075485643
 20
176.05745470201649
 11
230.02664102090372
 21
181.42402855125636
  0
LINE
  8
_1-3_
  6
CONTINUOUS
 62
    3
 10
211.50861585462417
 20
176.35244008657097
 11
212.11145349451016
 21
172.2831561114337
  0
LINE
  8
_1-3_
  6
CONTINUOUS
 62
    3
 10
212.11145349451016
 20
172.2831561114337
 11
212.71431587837839
 21
173.48886850717906
  0
LINE
  8
_1-1_
  6
DASHED1
 62
    3
 10
97.501237199113177
 20
88.41498091414168
 11
234.52294426995357
 21
150.07477631440034
  0
LINE
  8
_1-3_
  6
DASHED1
 62
    3
 10
234.52294426995357
 20
150.07477631440034
 11
234.52294426995357
 21
209.47297792176943
  0
LINE
  8
_1-2_
  6
CONTINUOUS
 62
    7
 10
65.791502256651199
 20
172.59313634923987
 11
113.83278511665964
 21
172.59313634923987
  0
LINE
  8
_1-2_
  6
CONTINUOUS
 62
    7
 10
64.531464447846304
 20
184.38980514938768
 11
109.53915982633025
 21
184.38980514938768
  0
LINE
  8
_1-2_
  6
CONTINUOUS
 62
    7
 10
111.46962346257391
 20
179.08588306323904
 11
109.53915982633025
 21
184.38980514938768
  0
LINE
  8
_1-2_
  6
CONTINUOUS
 62
    7
 10
225.30680063608531
 20
181.33439347550677
 11
206.22943775073904
 21
233.74902673669766
  0
LINE
  8
_1-2_
  6
CONTINUOUS
 62
    7
 10
211.91124993401607
 20
173.63456107474664
 11
196.60123258023648
 21
215.69848962732266
  0
LINE
  8
_1-2_
  6
CONTINUOUS
 62
    7
 10
209.60085482210727
 20
166.71161548511404
 11
198.75240016627959
 21
196.51751131624789
  0
LINE
  8
_1-2_
  6
CONTINUOUS
 62
    7
 10
198.75240016627959
 20
196.51751131624789
 11
210.68402264569258
 21
158.58785680822425
  0
LINE
  8
_1-2_
  6
CONTINUOUS
 62
    7
 10
205.8097674395587
 20
150.46409813133448
 11
195.50780837600297
 21
178.76850437473607
  0
LINE
  8
_1-2_
  6
CONTINUOUS
 62
    7
 10
206.22943775073904
 20
233.74902673669766
 11
199.85761487806167
 21
233.74902673669766
  0
LINE
  8
_1-2_
  6
CONTINUOUS
 62
    7
 10
196.60123258023648
 20
215.69848962732266
 11
192.55669258736276
 21
215.69848962732266
  0
LINE
  8
_1-2_
  6
CONTINUOUS
 62
    7
 10
198.75240016627959
 20
196.51751131624789
 11
195.47706397804055
 21
196.51751131624789
  0
LINE
  8
_1-2_
  6
CONTINUOUS
 62
    7
 10
195.50780837600297
 20
178.76850437473607
 11
191.09651307801943
 21
178.76850437473607
  0
LINE
  8
_1-2_
  6
CONTINUOUS
 62
    7
 10
276.23291015625
 20
209.47297792176943
 11
276.23291015625
 21
149.47290368982263
  0
LINE
  8
_1-2_
  6
CONTINUOUS
 62
    7
 10
241.38368348817568
 20
209.47297792176943
 11
276.23291015625
 21
209.47297792176943
  0
LINE
  8
_1-2_
  6
CONTINUOUS
 62
    7
 10
241.38368348817568
 20
149.47290368982263
 11
276.23291015625
 21
149.47290368982263
  0
LINE
  8
_1-2_
  6
CONTINUOUS
 62
    7
 10
230.13514338312925
 20
233.22472649651607
 11
230.13514338312925
 21
209.47297792176943
  0
LINE
  8
_1-2_
  6
DASHED1
 62
    7
 10
230.13514338312925
 20
209.47297792176943
 11
235.13513513513516
 21
209.47297792176943
  0
LINE
  8
_1-2_
  6
DASHED1
 62
    7
 10
235.13513513513516
 20
209.47297792176943
 11
235.13513513513516
 21
233.35389008393159
  0
LINE
  8
_1-3_
  6
CONTINUOUS
 62
    3
 10
211.50861585462417
 20
176.35244008657097
 11
230.13514338312925
 21
185.66570385082349
  0
LINE
  8
_1-2_
  6
CONTINUOUS
 62
    3
 10
230.13514338312925
 20
206.47298039616766
 11
234.32420060441302
 21
206.47298039616766
  0
LINE
  8
_1-2_
  6
CONTINUOUS
 62
    3
 10
230.13514338312925
 20
206.47298039616766
 11
230.13514338312925
 21
185.66570385082349
  0
LINE
  8
_1-2_
  6
CONTINUOUS
 62
    3
 10
234.32420060441302
 20
206.47298039616766
 11
234.32420060441302
 21
209.47297792176943
  0
LINE
  8
_1-2_
  6
CONTINUOUS
 62
    7
 10
230.69663382865289
 20
186.45436879750847
 11
230.69663382865289
 21
204.45437869510135
  0
LINE
  8
_1-2_
  6
CONTINUOUS
 62
    7
 10
230.69663382865289
 20
204.45437869510135
 11
233.69664372624578
 21
204.45437869510135
  0
LINE
  8
_1-2_
  6
CONTINUOUS
 62
    7
 10
233.69664372624578
 20
204.45437869510135
 11
233.69664372624578
 21
186.45436879750847
  0
LINE
  8
_1-2_
  6
CONTINUOUS
 62
    7
 10
233.69664372624578
 20
186.45436879750847
 11
230.69663382865289
 21
186.45436879750847
  0
LINE
  8
_1-2_
  6
CONTINUOUS
 62
    7
 10
230.69663382865289
 20
204.45437869510135
 11
233.69664372624578
 21
186.45436879750847
  0
LINE
  8
_1-2_
  6
CONTINUOUS
 62
    7
 10
233.62587593697214
 20
206.47298039616766
 11
234.32420060441302
 21
207.17130506360854
  0
LINE
  8
_1-2_
  6
CONTINUOUS
 62
    7
 10
232.77735529719175
 20
206.47298039616766
 11
234.32420060441302
 21
208.01983807538008
  0
LINE
  8
_1-2_
  6
CONTINUOUS
 62
    7
 10
231.92880991342906
 20
206.47298039616766
 11
234.32420060441302
 21
208.8683587151605
  0
LINE
  8
_1-2_
  6
CONTINUOUS
 62
    7
 10
231.08028927364867
 20
206.47298039616766
 11
234.08029917124156
 21
209.47297792176943
  0
LINE
  8
_1-2_
  6
CONTINUOUS
 62
    7
 10
231.0003662109375
 20
207.24156560124578
 11
233.23177853146117
 21
209.47297792176943
  0
LINE
  8
_1-2_
  6
CONTINUOUS
 62
    7
 10
231.21076429212417
 20
208.30048432221284
 11
232.38325789168076
 21
209.47297792176943
  0
LINE
  8
_1-2_
  6
CONTINUOUS
 62
    7
 10
231.23889819995779
 20
209.17718835779141
 11
231.53468776393584
 21
209.47297792176943
  0
LINE
  8
_1-0_
  6
CONTINUOUS
 62
    7
 10
97.829540355785483
 20
87.685435527079818
 11
235.13513513513516
 21
149.47297792176943
  0
LINE
  8
_1-0_
  6
CONTINUOUS
 62
    7
 10
235.13513513513516
 20
209.47297792176943
 11
235.13513513513516
 21
149.47297792176943
  0
LINE
  8
_1-2_
  6
CONTINUOUS
 62
    7
 10
230.13514338312925
 20
216.03753167229732
 11
247.322338207348
 21
233.22472649651607
  0
LINE
  8
_1-2_
  6
CONTINUOUS
 62
    7
 10
230.13514338312925
 20
211.5120552681588
 11
251.84781461148651
 21
233.22472649651607
  0
LINE
  8
_1-2_
  6
CONTINUOUS
 62
    7
 10
230.13514338312925
 20
213.77479347022805
 11
249.58507640941724
 21
233.22472649651607
  0
LINE
  8
_1-2_
  6
CONTINUOUS
 62
    7
 10
227.96462600295609
 20
208.85658057960305
 11
213.77152726456927
 21
247.85180993982266
  0
LINE
  8
_1-2_
  6
CONTINUOUS
 62
    7
 10
227.96462600295609
 20
208.85658057960305
 11
231.32213695629224
 21
208.85658057960305
  0
LINE
  8
_1-2_
  6
CONTINUOUS
 62
    7
 10
213.77152726456927
 20
247.85180993982266
 11
211.62473936338682
 21
247.85180993982266
  0
LINE
  8
_1-2_
  6
CONTINUOUS
 62
    7
 10
111.78192963471284
 20
56.680112271695521
 11
249.0875244140625
 21
118.46765466638514
  0
LINE
  8
_1-2_
  6
CONTINUOUS
 62
    7
 10
100.55907378325591
 20
77.947874326963685
 11
235.13513513513516
 21
138.50715018607477
  0
LINE
  8
_1-2_
  6
CONTINUOUS
 62
    7
 10
235.13513513513516
 20
149.47297792176943
 11
235.13513513513516
 21
138.50715018607477
  0
LINE
  8
_1-2_
  6
CONTINUOUS
 62
    7
 10
140.55052061338682
 20
99.186778712917018
 11
111.46962346257391
 21
179.08588306323904
  0
LINE
  8
_1-2_
  6
CONTINUOUS
 62
    7
 10
130.8872532200169
 20
91.595566208298152
 11
124.11007442989866
 21
62.227774955130911
  0
LINE
  8
_1-2_
  6
CONTINUOUS
 62
    7
 10
129.05491184543919
 20
90.771010115339948
 11
122.27773305532095
 21
61.403225048168281
  0
LINE
  8
_1-2_
  6
CONTINUOUS
 62
    7
 10
127.2225704708615
 20
89.946454022381758
 11
120.44539168074326
 21
60.578668955210105
  0
LINE
  8
_1-2_
  6
CONTINUOUS
 62
    7
 10
200.57833284945102
 20
122.95657183672931
 11
193.80115405933279
 21
93.588780583562084
  0
LINE
  8
_1-2_
  6
CONTINUOUS
 62
    7
 10
202.41067422402872
 20
123.7811279296875
 11
195.6334954339105
 21
94.413336676520274
  0
LINE
  8
_1-2_
  6
CONTINUOUS
 62
    7
 10
204.24301559860643
 20
124.6056840226457
 11
197.46583680848818
 21
95.237880397487331
  0
ARC
  8
_1-2_
  6
CONTINUOUS
 62
    3
 10
241.21423669763516
 20
128.94966331688133
 40
41.612016832506335
 50
110.20719909667969
 51
139.72184753417969
  0
ARC
  8
_1-2_
  6
CONTINUOUS
 62
    3
 10
246.38028531461151
 20
114.91420848949537
 40
60.168024011560391
 50
110.20719909667969
 51
130.12748718261719
  0
ARC
  8
_1-2_
  6
CONTINUOUS
 62
    3
 10
241.46155280035896
 20
136.33382436391472
 40
41.612016832506335
 50
110.20721435546875
 51
139.72186279296875
  0
ARC
  8
_1-2_
  6
CONTINUOUS
 62
    3
 10
246.62760141733531
 20
122.29836953652872
 40
60.168024011560391
 50
110.20721435546875
 51
130.12750244140625
  0
ARC
  8
_1-2_
  6
CONTINUOUS
 62
    3
 10
225.27304984427789
 20
208.92987225506758
 40
5.9709695867590007
 50
335.70259094238276
 51
5.2187042236327787
  0
CIRCLE
  8
_1-2_
  6
CONTINUOUS
 62
    7
 10
107.45903221336572
 20
88.437856725744311
 40
0.2817473540434966
  0
CIRCLE
  8
_1-2_
  6
CONTINUOUS
 62
    7
 10
103.37368320774388
 20
88.156109371700808
 40
0.2817473540434966
  0
CIRCLE
  8
_1-2_
  6
CONTINUOUS
 62
    7
 10
105.76854808910474
 20
86.606492738466017
 40
0.2817473540434966
  0
CIRCLE
  8
_1-2_
  6
CONTINUOUS
 62
    7
 10
99.429201693148229
 20
86.747360229492188
 40
0.2817473540434966
  0
CIRCLE
  8
_1-2_
  6
CONTINUOUS
 62
    7
 10
103.37368320774388
 20
88.156109371700808
 40
0.2817473540434966
  0
CIRCLE
  8
_1-2_
  6
CONTINUOUS
 62
    7
 10
106.47291028821792
 20
89.564852327913854
 40
0.2817473540434966
  0
CIRCLE
  8
_1-2_
  6
CONTINUOUS
 62
    7
 10
109.43127606366133
 20
89.564852327913854
 40
0.2817473540434966
  0
CIRCLE
  8
_1-2_
  6
CONTINUOUS
 62
    7
 10
110.13566300675676
 20
88.578730402766055
 40
0.2817473540434966
  0
CIRCLE
  8
_1-2_
  6
CONTINUOUS
 62
    7
 10
114.78451290646116
 20
90.550974253061653
 40
0.2817473540434966
  0
CIRCLE
  8
_1-2_
  6
CONTINUOUS
 62
    7
 10
113.93925847233953
 20
91.114475147144219
 40
0.2817473540434966
  0
CIRCLE
  8
_1-2_
  6
CONTINUOUS
 62
    7
 10
110.27653049778294
 20
92.241464563318203
 40
0.2817473540434966
  0
CIRCLE
  8
_1-2_
  6
CONTINUOUS
 62
    7
 10
110.55829022381758
 20
90.973595284126901
 40
0.2817473540434966
  0
CIRCLE
  8
_1-2_
  6
CONTINUOUS
 62
    7
 10
116.75675675675676
 20
91.959717209274714
 40
0.2817473540434966
  0
CIRCLE
  8
_1-2_
  6
CONTINUOUS
 62
    7
 10
116.33412953969595
 20
92.804965457400769
 40
0.2817473540434966
  0
CIRCLE
  8
_1-2_
  6
CONTINUOUS
 62
    7
 10
115.20714012352197
 20
92.804965457400769
 40
0.2817473540434966
  0
CIRCLE
  8
_1-2_
  6
CONTINUOUS
 62
    7
 10
113.09402878220017
 20
92.804965457400769
 40
0.2817473540434966
  0
CIRCLE
  8
_1-2_
  6
CONTINUOUS
 62
    7
 10
120.41948473131335
 20
94.777209307696367
 40
0.2817473540434966
  0
CIRCLE
  8
_1-2_
  6
CONTINUOUS
 62
    7
 10
121.96910136454815
 20
96.045078586887669
 40
0.2817473540434966
  0
CIRCLE
  8
_1-2_
  6
CONTINUOUS
 62
    7
 10
119.43336280616555
 20
93.227586488466017
 40
0.2817473540434966
  0
CIRCLE
  8
_1-2_
  6
CONTINUOUS
 62
    7
 10
118.16550589896538
 20
94.636335630674623
 40
0.2817473540434966
  0
CIRCLE
  8
_1-2_
  6
CONTINUOUS
 62
    7
 10
122.39172858160896
 20
94.213708413613816
 40
0.2817473540434966
  0
CIRCLE
  8
_1-2_
  6
CONTINUOUS
 62
    7
 10
120.84211194837417
 20
93.227586488466017
 40
0.2817473540434966
  0
CIRCLE
  8
_1-2_
  6
CONTINUOUS
 62
    7
 10
120.27861724028718
 20
96.608579480970235
 40
0.2817473540434966
  0
CIRCLE
  8
_1-2_
  6
CONTINUOUS
 62
    7
 10
124.64573215793919
 20
97.735568897144219
 40
0.2817473540434966
  0
CIRCLE
  8
_1-2_
  6
CONTINUOUS
 62
    7
 10
124.22310494087839
 20
95.763325046848607
 40
0.2817473540434966
  0
CIRCLE
  8
_1-2_
  6
CONTINUOUS
 62
    7
 10
128.30846013249578
 20
96.185952263909428
 40
0.2817473540434966
  0
CIRCLE
  8
_1-2_
  6
CONTINUOUS
 62
    7
 10
125.068359375
 20
95.622457555822436
 40
0.2817473540434966
  0
CIRCLE
  8
_1-2_
  6
CONTINUOUS
 62
    7
 10
127.88583291543497
 20
96.326825940931172
 40
0.2817473540434966
  0
CIRCLE
  8
_1-2_
  6
CONTINUOUS
 62
    7
 10
126.47708377322635
 20
97.735568897144219
 40
0.2817473540434966
  0
CIRCLE
  8
_1-2_
  6
CONTINUOUS
 62
    7
 10
129.99896900073904
 20
99.003438176335521
 40
0.2817473540434966
  0
CIRCLE
  8
_1-2_
  6
CONTINUOUS
 62
    7
 10
132.95731003220018
 20
100.27131364152238
 40
0.2817473540434966
  0
CIRCLE
  8
_1-2_
  6
CONTINUOUS
 62
    7
 10
137.60618467588682
 20
101.96180395177893
 40
0.2817473540434966
  0
CIRCLE
  8
_1-2_
  6
CONTINUOUS
 62
    7
 10
137.88791965793919
 20
103.08880573994405
 40
0.2817473540434966
  0
CIRCLE
  8
_1-2_
  6
CONTINUOUS
 62
    7
 10
136.76093024176521
 20
100.41218731854414
 40
0.2817473540434966
  0
CIRCLE
  8
_1-2_
  6
CONTINUOUS
 62
    7
 10
132.67557505014781
 20
99.003438176335521
 40
0.2817473540434966
  0
CIRCLE
  8
_1-2_
  6
CONTINUOUS
 62
    7
 10
134.78868639146961
 20
102.24355130582244
 40
0.2817473540434966
  0
CIRCLE
  8
_1-2_
  6
CONTINUOUS
 62
    7
 10
130.13983649176521
 20
101.25742938067462
 40
0.2817473540434966
  0
CIRCLE
  8
_1-2_
  6
CONTINUOUS
 62
    7
 10
126.61797600823481
 20
99.707812747439831
 40
0.2817473540434966
  0
CIRCLE
  8
_1-2_
  6
CONTINUOUS
 62
    7
 10
129.99896900073904
 20
97.735568897144219
 40
0.2817473540434966
  0
CIRCLE
  8
_1-2_
  6
CONTINUOUS
 62
    7
 10
128.73108734955659
 20
96.74944697199642
 40
0.2817473540434966
  0
CIRCLE
  8
_1-2_
  6
CONTINUOUS
 62
    7
 10
140.70541794235643
 20
102.94792587692673
 40
0.2817473540434966
  0
CIRCLE
  8
_1-2_
  6
CONTINUOUS
 62
    7
 10
144.79076076198268
 20
105.34279075828759
 40
0.2817473540434966
  0
CIRCLE
  8
_1-2_
  6
CONTINUOUS
 62
    7
 10
140.70541794235643
 20
105.06104340424409
 40
0.2817473540434966
  0
CIRCLE
  8
_1-2_
  6
CONTINUOUS
 62
    7
 10
143.10027663772172
 20
103.5114267710093
 40
0.2817473540434966
  0
CIRCLE
  8
_1-2_
  6
CONTINUOUS
 62
    7
 10
141.12803278742609
 20
102.38442498284418
 40
0.2817473540434966
  0
CIRCLE
  8
_1-2_
  6
CONTINUOUS
 62
    7
 10
140.70541794235643
 20
105.06104340424409
 40
0.2817473540434966
  0
CIRCLE
  8
_1-2_
  6
CONTINUOUS
 62
    7
 10
143.8046388368349
 20
106.46979254645271
 40
0.2817473540434966
  0
CIRCLE
  8
_1-2_
  6
CONTINUOUS
 62
    7
 10
146.76300461227831
 20
106.46979254645271
 40
0.2817473540434966
  0
CIRCLE
  8
_1-2_
  6
CONTINUOUS
 62
    7
 10
147.46739155537375
 20
105.48367062130491
 40
0.2817473540434966
  0
CIRCLE
  8
_1-2_
  6
CONTINUOUS
 62
    7
 10
152.11624145507812
 20
107.45591447160051
 40
0.2817473540434966
  0
CIRCLE
  8
_1-2_
  6
CONTINUOUS
 62
    7
 10
151.27098702095651
 20
108.0194091796875
 40
0.2817473540434966
  0
CIRCLE
  8
_1-2_
  6
CONTINUOUS
 62
    7
 10
147.60825904639992
 20
109.1463985958615
 40
0.2817473540434966
  0
CIRCLE
  8
_1-2_
  6
CONTINUOUS
 62
    7
 10
147.89001877243456
 20
107.8785293166702
 40
0.2817473540434966
  0
CIRCLE
  8
_1-2_
  6
CONTINUOUS
 62
    7
 10
154.08848530537375
 20
108.864651241818
 40
0.2817473540434966
  0
CIRCLE
  8
_1-2_
  6
CONTINUOUS
 62
    7
 10
153.66585808831294
 20
109.70989330394849
 40
0.2817473540434966
  0
CIRCLE
  8
_1-2_
  6
CONTINUOUS
 62
    7
 10
152.53886867213893
 20
109.70989330394849
 40
0.2817473540434966
  0
CIRCLE
  8
_1-2_
  6
CONTINUOUS
 62
    7
 10
150.42575733081716
 20
109.70989330394849
 40
0.2817473540434966
  0
CIRCLE
  8
_1-2_
  6
CONTINUOUS
 62
    7
 10
154.65199238545188
 20
108.44203639674832
 40
0.2817473540434966
  0
CIRCLE
  8
_1-2_
  6
CONTINUOUS
 62
    7
 10
158.73733520507812
 20
110.83689509211361
 40
0.2817473540434966
  0
CIRCLE
  8
_1-2_
  6
CONTINUOUS
 62
    7
 10
154.65199238545188
 20
110.5551477380701
 40
0.2817473540434966
  0
CIRCLE
  8
_1-2_
  6
CONTINUOUS
 62
    7
 10
157.04685108081716
 20
109.00553110483531
 40
0.2817473540434966
  0
CIRCLE
  8
_1-2_
  6
CONTINUOUS
 62
    7
 10
155.07460723052154
 20
107.8785293166702
 40
0.2817473540434966
  0
CIRCLE
  8
_1-2_
  6
CONTINUOUS
 62
    7
 10
154.65199238545188
 20
110.5551477380701
 40
0.2817473540434966
  0
CIRCLE
  8
_1-2_
  6
CONTINUOUS
 62
    7
 10
157.75121327993034
 20
111.96389688027872
 40
0.2817473540434966
  0
CIRCLE
  8
_1-2_
  6
CONTINUOUS
 62
    7
 10
160.70957905537375
 20
111.96389688027872
 40
0.2817473540434966
  0
CIRCLE
  8
_1-2_
  6
CONTINUOUS
 62
    7
 10
161.41396599846919
 20
110.97777495513091
 40
0.2817473540434966
  0
CIRCLE
  8
_1-2_
  6
CONTINUOUS
 62
    7
 10
166.06281589817357
 20
112.95001880542652
 40
0.2817473540434966
  0
CIRCLE
  8
_1-2_
  6
CONTINUOUS
 62
    7
 10
165.21756146405195
 20
113.51351351351352
 40
0.2817473540434966
  0
CIRCLE
  8
_1-2_
  6
CONTINUOUS
 62
    7
 10
161.55483348949537
 20
114.6405029296875
 40
0.2817473540434966
  0
CIRCLE
  8
_1-2_
  6
CONTINUOUS
 62
    7
 10
161.83659321553
 20
113.37263365049621
 40
0.2817473540434966
  0
CIRCLE
  8
_1-2_
  6
CONTINUOUS
 62
    7
 10
168.03505974846919
 20
114.35875557564401
 40
0.2817473540434966
  0
CIRCLE
  8
_1-2_
  6
CONTINUOUS
 62
    7
 10
167.61243253140836
 20
115.20399763777451
 40
0.2817473540434966
  0
CIRCLE
  8
_1-2_
  6
CONTINUOUS
 62
    7
 10
166.48544311523437
 20
115.20399763777451
 40
0.2817473540434966
  0
CIRCLE
  8
_1-2_
  6
CONTINUOUS
 62
    7
 10
164.37233177391261
 20
115.20399763777451
 40
0.2817473540434966
  0
CIRCLE
  8
_1-2_
  6
CONTINUOUS
 62
    7
 10
183.95386566986909
 20
120.69810197160051
 40
0.2817473540434966
  0
CIRCLE
  8
_1-2_
  6
CONTINUOUS
 62
    7
 10
188.03922086148648
 20
123.09297303895693
 40
0.2817473540434966
  0
CIRCLE
  8
_1-2_
  6
CONTINUOUS
 62
    7
 10
183.95386566986909
 20
122.81122568491344
 40
0.2817473540434966
  0
CIRCLE
  8
_1-2_
  6
CONTINUOUS
 62
    7
 10
186.34873673722552
 20
121.26160905167863
 40
0.2817473540434966
  0
CIRCLE
  8
_1-2_
  6
CONTINUOUS
 62
    7
 10
184.3764928869299
 20
120.13460726351352
 40
0.2817473540434966
  0
CIRCLE
  8
_1-2_
  6
CONTINUOUS
 62
    7
 10
183.95386566986909
 20
122.81122568491344
 40
0.2817473540434966
  0
CIRCLE
  8
_1-2_
  6
CONTINUOUS
 62
    7
 10
187.0530989363387
 20
124.21996245513093
 40
0.2817473540434966
  0
CIRCLE
  8
_1-2_
  6
CONTINUOUS
 62
    7
 10
190.01146471178211
 20
124.21996245513093
 40
0.2817473540434966
  0
CIRCLE
  8
_1-2_
  6
CONTINUOUS
 62
    7
 10
190.71585165487755
 20
123.23384052998311
 40
0.2817473540434966
  0
CIRCLE
  8
_1-2_
  6
CONTINUOUS
 62
    7
 10
195.36470155458193
 20
125.20608438027872
 40
0.2817473540434966
  0
CIRCLE
  8
_1-2_
  6
CONTINUOUS
 62
    7
 10
194.51944712046031
 20
125.76959146035685
 40
0.2817473540434966
  0
CIRCLE
  8
_1-2_
  6
CONTINUOUS
 62
    7
 10
190.85671914590372
 20
126.89658087653083
 40
0.2817473540434966
  0
CIRCLE
  8
_1-2_
  6
CONTINUOUS
 62
    7
 10
191.13847887193836
 20
125.62871159733953
 40
0.2817473540434966
  0
CIRCLE
  8
_1-2_
  6
CONTINUOUS
 62
    7
 10
197.33694540487755
 20
126.61483352248734
 40
0.2817473540434966
  0
CIRCLE
  8
_1-2_
  6
CONTINUOUS
 62
    7
 10
196.91431818781675
 20
127.46008795660896
 40
0.2817473540434966
  0
CIRCLE
  8
_1-2_
  6
CONTINUOUS
 62
    7
 10
195.78732877164273
 20
127.46008795660896
 40
0.2817473540434966
  0
CIRCLE
  8
_1-2_
  6
CONTINUOUS
 62
    7
 10
193.67421743032097
 20
127.46008795660896
 40
0.2817473540434966
  0
CIRCLE
  8
_1-2_
  6
CONTINUOUS
 62
    7
 10
170.85254566089529
 20
116.47187928895693
 40
0.2817473540434966
  0
CIRCLE
  8
_1-2_
  6
CONTINUOUS
 62
    7
 10
174.93790085251268
 20
118.86673798432221
 40
0.2817473540434966
  0
CIRCLE
  8
_1-2_
  6
CONTINUOUS
 62
    7
 10
170.85254566089529
 20
118.58499063027872
 40
0.2817473540434966
  0
CIRCLE
  8
_1-2_
  6
CONTINUOUS
 62
    7
 10
173.24741672825169
 20
117.03537399704392
 40
0.2817473540434966
  0
CIRCLE
  8
_1-2_
  6
CONTINUOUS
 62
    7
 10
171.27517287795609
 20
115.9083722088788
 40
0.2817473540434966
  0
CIRCLE
  8
_1-2_
  6
CONTINUOUS
 62
    7
 10
170.85254566089529
 20
118.58499063027872
 40
0.2817473540434966
  0
CIRCLE
  8
_1-2_
  6
CONTINUOUS
 62
    7
 10
173.95177892736487
 20
119.99373977248733
 40
0.2817473540434966
  0
CIRCLE
  8
_1-2_
  6
CONTINUOUS
 62
    7
 10
176.91014470280828
 20
119.99373977248733
 40
0.2817473540434966
  0
CIRCLE
  8
_1-2_
  6
CONTINUOUS
 62
    7
 10
177.61453164590372
 20
119.00761784733953
 40
0.2817473540434966
  0
CIRCLE
  8
_1-2_
  6
CONTINUOUS
 62
    7
 10
182.26338154560813
 20
120.97986169763514
 40
0.2817473540434966
  0
CIRCLE
  8
_1-2_
  6
CONTINUOUS
 62
    7
 10
181.41812711148648
 20
121.54335640572214
 40
0.2817473540434966
  0
CIRCLE
  8
_1-2_
  6
CONTINUOUS
 62
    7
 10
177.7553991369299
 20
122.67034582189612
 40
0.2817473540434966
  0
CIRCLE
  8
_1-2_
  6
CONTINUOUS
 62
    7
 10
178.03715886296453
 20
121.40247654270482
 40
0.2817473540434966
  0
CIRCLE
  8
_1-2_
  6
CONTINUOUS
 62
    7
 10
184.23562539590372
 20
122.38859846785263
 40
0.2817473540434966
  0
CIRCLE
  8
_1-2_
  6
CONTINUOUS
 62
    7
 10
183.81299817884292
 20
123.23384052998311
 40
0.2817473540434966
  0
CIRCLE
  8
_1-2_
  6
CONTINUOUS
 62
    7
 10
182.68600876266893
 20
123.23384052998311
 40
0.2817473540434966
  0
CIRCLE
  8
_1-2_
  6
CONTINUOUS
 62
    7
 10
180.57289742134714
 20
123.23384052998311
 40
0.2817473540434966
  0
CIRCLE
  8
_1-2_
  6
CONTINUOUS
 62
    7
 10
202.26755503061656
 20
129.99582651499156
 40
0.2817473540434966
  0
CIRCLE
  8
_1-2_
  6
CONTINUOUS
 62
    7
 10
206.35291022223396
 20
132.39068521035685
 40
0.2817473540434966
  0
CIRCLE
  8
_1-2_
  6
CONTINUOUS
 62
    7
 10
202.26755503061656
 20
132.10893785631336
 40
0.2817473540434966
  0
CIRCLE
  8
_1-2_
  6
CONTINUOUS
 62
    7
 10
204.662426097973
 20
130.55932122307854
 40
0.2817473540434966
  0
CIRCLE
  8
_1-2_
  6
CONTINUOUS
 62
    7
 10
202.69018224767737
 20
129.43231943491344
 40
0.2817473540434966
  0
CIRCLE
  8
_1-2_
  6
CONTINUOUS
 62
    7
 10
202.26755503061656
 20
132.10893785631336
 40
0.2817473540434966
  0
CIRCLE
  8
_1-2_
  6
CONTINUOUS
 62
    7
 10
205.36678829708617
 20
133.51768699852198
 40
0.2817473540434966
  0
CIRCLE
  8
_1-2_
  6
CONTINUOUS
 62
    7
 10
208.32515407252959
 20
133.51768699852198
 40
0.2817473540434966
  0
CIRCLE
  8
_1-2_
  6
CONTINUOUS
 62
    7
 10
209.029541015625
 20
132.53156507337417
 40
0.2817473540434966
  0
CIRCLE
  8
_1-2_
  6
CONTINUOUS
 62
    7
 10
213.6783909153294
 20
134.50380892366977
 40
0.2817473540434966
  0
CIRCLE
  8
_1-2_
  6
CONTINUOUS
 62
    7
 10
212.83313648120779
 20
135.06730363175677
 40
0.2817473540434966
  0
CIRCLE
  8
_1-2_
  6
CONTINUOUS
 62
    7
 10
209.1704085066512
 20
136.19429304793076
 40
0.2817473540434966
  0
CIRCLE
  8
_1-2_
  6
CONTINUOUS
 62
    7
 10
209.45216823268584
 20
134.92642376873945
 40
0.2817473540434966
  0
CIRCLE
  8
_1-2_
  6
CONTINUOUS
 62
    7
 10
215.650634765625
 20
135.91254569388727
 40
0.2817473540434966
  0
CIRCLE
  8
_1-2_
  6
CONTINUOUS
 62
    7
 10
215.22800754856419
 20
136.75778775601773
 40
0.2817473540434966
  0
CIRCLE
  8
_1-2_
  6
CONTINUOUS
 62
    7
 10
214.10101813239021
 20
136.75778775601773
 40
0.2817473540434966
  0
CIRCLE
  8
_1-2_
  6
CONTINUOUS
 62
    7
 10
211.98790679106841
 20
136.75778775601773
 40
0.2817473540434966
  0
CIRCLE
  8
_1-2_
  6
CONTINUOUS
 62
    7
 10
217.20025139885982
 20
138.02566940720018
 40
0.2817473540434966
  0
CIRCLE
  8
_1-2_
  6
CONTINUOUS
 62
    7
 10
221.28560659047722
 20
140.42052810256547
 40
0.2817473540434966
  0
CIRCLE
  8
_1-2_
  6
CONTINUOUS
 62
    7
 10
217.20025139885982
 20
140.13878074852198
 40
0.2817473540434966
  0
CIRCLE
  8
_1-2_
  6
CONTINUOUS
 62
    7
 10
219.59512246621622
 20
138.58916411528716
 40
0.2817473540434966
  0
CIRCLE
  8
_1-2_
  6
CONTINUOUS
 62
    7
 10
217.62287861592063
 20
137.46216232712206
 40
0.2817473540434966
  0
CIRCLE
  8
_1-2_
  6
CONTINUOUS
 62
    7
 10
217.20025139885982
 20
140.13878074852198
 40
0.2817473540434966
  0
CIRCLE
  8
_1-2_
  6
CONTINUOUS
 62
    7
 10
220.2994846653294
 20
141.54752989073057
 40
0.2817473540434966
  0
CIRCLE
  8
_1-2_
  6
CONTINUOUS
 62
    7
 10
223.25785044077281
 20
141.54752989073057
 40
0.2817473540434966
  0
CIRCLE
  8
_1-2_
  6
CONTINUOUS
 62
    7
 10
223.96223738386826
 20
140.56140796558279
 40
0.2817473540434966
  0
CIRCLE
  8
_1-2_
  6
CONTINUOUS
 62
    7
 10
228.61108728357266
 20
142.53365181587839
 40
0.2817473540434966
  0
CIRCLE
  8
_1-2_
  6
CONTINUOUS
 62
    7
 10
227.76583284945102
 20
143.09714652396539
 40
0.2817473540434966
  0
CIRCLE
  8
_1-2_
  6
CONTINUOUS
 62
    7
 10
224.10310487489443
 20
144.22413594013938
 40
0.2817473540434966
  0
CIRCLE
  8
_1-2_
  6
CONTINUOUS
 62
    7
 10
224.38486460092906
 20
142.95626666094807
 40
0.2817473540434966
  0
CIRCLE
  8
_1-2_
  6
CONTINUOUS
 62
    7
 10
230.58333113386826
 20
143.94238858609586
 40
0.2817473540434966
  0
CIRCLE
  8
_1-2_
  6
CONTINUOUS
 62
    7
 10
230.16070391680745
 20
144.78763064822635
 40
0.2817473540434966
  0
CIRCLE
  8
_1-2_
  6
CONTINUOUS
 62
    7
 10
229.03371450063347
 20
144.78763064822635
 40
0.2817473540434966
  0
CIRCLE
  8
_1-2_
  6
CONTINUOUS
 62
    7
 10
226.92060315931167
 20
144.78763064822635
 40
0.2817473540434966
  0
CIRCLE
  8
_1-2_
  6
CONTINUOUS
 62
    7
 10
221.14473909945102
 20
137.46217469911318
 40
0.2817473540434966
  0
CIRCLE
  8
_1-2_
  6
CONTINUOUS
 62
    7
 10
225.23009429106841
 20
139.85703339447846
 40
0.2817473540434966
  0
CIRCLE
  8
_1-2_
  6
CONTINUOUS
 62
    7
 10
221.14473909945102
 20
139.57528604043497
 40
0.2817473540434966
  0
CIRCLE
  8
_1-2_
  6
CONTINUOUS
 62
    7
 10
223.53961016680745
 20
138.02566940720018
 40
0.2817473540434966
  0
CIRCLE
  8
_1-2_
  6
CONTINUOUS
 62
    7
 10
221.56736631651182
 20
136.89866761903505
 40
0.2817473540434966
  0
CIRCLE
  8
_1-2_
  6
CONTINUOUS
 62
    7
 10
221.14473909945102
 20
139.57528604043497
 40
0.2817473540434966
  0
CIRCLE
  8
_1-2_
  6
CONTINUOUS
 62
    7
 10
224.24397236592063
 20
140.98403518264359
 40
0.2817473540434966
  0
CIRCLE
  8
_1-2_
  6
CONTINUOUS
 62
    7
 10
227.20233814136404
 20
140.98403518264359
 40
0.2817473540434966
  0
CIRCLE
  8
_1-2_
  6
CONTINUOUS
 62
    7
 10
227.90672508445948
 20
139.99791325749578
 40
0.2817473540434966
  0
CIRCLE
  8
_1-2_
  6
CONTINUOUS
 62
    7
 10
232.55557498416385
 20
141.97015710779138
 40
0.2817473540434966
  0
CIRCLE
  8
_1-2_
  6
CONTINUOUS
 62
    7
 10
231.71032055004224
 20
142.53365181587839
 40
0.2817473540434966
  0
CIRCLE
  8
_1-2_
  6
CONTINUOUS
 62
    7
 10
228.04759257548565
 20
143.66064123205237
 40
0.2817473540434966
  0
CIRCLE
  8
_1-2_
  6
CONTINUOUS
 62
    7
 10
228.32935230152029
 20
142.39277195286107
 40
0.2817473540434966
  0
CIRCLE
  8
_1-2_
  6
CONTINUOUS
 62
    7
 10
234.52781883445948
 20
143.37889387800888
 40
0.2817473540434966
  0
CIRCLE
  8
_1-2_
  6
CONTINUOUS
 62
    7
 10
234.10519161739867
 20
144.22413594013938
 40
0.2817473540434966
  0
CIRCLE
  8
_1-2_
  6
CONTINUOUS
 62
    7
 10
232.97820220122466
 20
144.22413594013938
 40
0.2817473540434966
  0
CIRCLE
  8
_1-2_
  6
CONTINUOUS
 62
    7
 10
230.86509085990289
 20
144.22413594013938
 40
0.2817473540434966
  0
CIRCLE
  8
_1-2_
  6
CONTINUOUS
 62
    7
 10
106.0937211320207
 20
83.100746773384714
 40
0.2817473540434966
  0
CIRCLE
  8
_1-2_
  6
CONTINUOUS
 62
    7
 10
102.00837212639887
 20
82.818999419341225
 40
0.2817473540434966
  0
CIRCLE
  8
_1-2_
  6
CONTINUOUS
 62
    7
 10
104.40323700775971
 20
81.269382786106419
 40
0.2817473540434966
  0
CIRCLE
  8
_1-2_
  6
CONTINUOUS
 62
    7
 10
102.00837212639887
 20
82.818999419341225
 40
0.2817473540434966
  0
CIRCLE
  8
_1-2_
  6
CONTINUOUS
 62
    7
 10
105.10759920687289
 20
84.227742375554271
 40
0.2817473540434966
  0
CIRCLE
  8
_1-2_
  6
CONTINUOUS
 62
    7
 10
108.0659649823163
 20
84.227742375554271
 40
0.2817473540434966
  0
CIRCLE
  8
_1-2_
  6
CONTINUOUS
 62
    7
 10
108.77035192541175
 20
83.241620450406472
 40
0.2817473540434966
  0
CIRCLE
  8
_1-2_
  6
CONTINUOUS
 62
    7
 10
113.41920182511613
 20
85.21386430070207
 40
0.2817473540434966
  0
CIRCLE
  8
_1-2_
  6
CONTINUOUS
 62
    7
 10
112.57394739099452
 20
85.777365194784636
 40
0.2817473540434966
  0
CIRCLE
  8
_1-2_
  6
CONTINUOUS
 62
    7
 10
108.91121941643793
 20
86.90435461095862
 40
0.2817473540434966
  0
CIRCLE
  8
_1-2_
  6
CONTINUOUS
 62
    7
 10
109.19297914247255
 20
85.636485331767318
 40
0.2817473540434966
  0
CIRCLE
  8
_1-2_
  6
CONTINUOUS
 62
    7
 10
115.39144567541175
 20
86.622607256915117
 40
0.2817473540434966
  0
CIRCLE
  8
_1-2_
  6
CONTINUOUS
 62
    7
 10
115.52675814241977
 20
86.576070012273021
 40
0.2817473540434966
  0
CIRCLE
  8
_1-2_
  6
CONTINUOUS
 62
    7
 10
111.44140295080237
 20
86.294322658229518
 40
0.2817473540434966
  0
CIRCLE
  8
_1-2_
  6
CONTINUOUS
 62
    7
 10
113.83627401815879
 20
84.744706024994727
 40
0.2817473540434966
  0
CIRCLE
  8
_1-2_
  6
CONTINUOUS
 62
    7
 10
111.44140295080237
 20
86.294322658229518
 40
0.2817473540434966
  0
CIRCLE
  8
_1-2_
  6
CONTINUOUS
 62
    7
 10
114.54063621727197
 20
87.703065614442579
 40
0.2817473540434966
  0
CIRCLE
  8
_1-2_
  6
CONTINUOUS
 62
    7
 10
117.49900199271538
 20
87.703065614442579
 40
0.2817473540434966
  0
CIRCLE
  8
_1-2_
  6
CONTINUOUS
 62
    7
 10
118.20338893581082
 20
86.716943689294766
 40
0.2817473540434966
  0
CIRCLE
  8
_1-2_
  6
CONTINUOUS
 62
    7
 10
122.85223883551521
 20
88.689187539590378
 40
0.2817473540434966
  0
CIRCLE
  8
_1-2_
  6
CONTINUOUS
 62
    7
 10
122.00698440139359
 20
89.25268843367293
 40
0.2817473540434966
  0
CIRCLE
  8
_1-2_
  6
CONTINUOUS
 62
    7
 10
118.34425642683701
 20
90.379677849846928
 40
0.2817473540434966
  0
CIRCLE
  8
_1-2_
  6
CONTINUOUS
 62
    7
 10
118.62601615287163
 20
89.111808570655626
 40
0.2817473540434966
  0
CIRCLE
  8
_1-2_
  6
CONTINUOUS
 62
    7
 10
124.82448268581082
 20
90.097930495803425
 40
0.2817473540434966
  0
CIRCLE
  8
_1-2_
  6
CONTINUOUS
 62
    7
 10
126.32509386217272
 20
91.540826333535691
 40
0.2817473540434966
  0
CIRCLE
  8
_1-2_
  6
CONTINUOUS
 62
    7
 10
122.23975104254646
 20
91.259078979492188
 40
0.2817473540434966
  0
CIRCLE
  8
_1-2_
  6
CONTINUOUS
 62
    7
 10
124.63460973791175
 20
89.709462346257396
 40
0.2817473540434966
  0
CIRCLE
  8
_1-2_
  6
CONTINUOUS
 62
    7
 10
122.23975104254646
 20
91.259078979492188
 40
0.2817473540434966
  0
CIRCLE
  8
_1-2_
  6
CONTINUOUS
 62
    7
 10
125.33897193702492
 20
92.667821935705248
 40
0.2817473540434966
  0
CIRCLE
  8
_1-2_
  6
CONTINUOUS
 62
    7
 10
128.29733771246833
 20
92.667821935705248
 40
0.2817473540434966
  0
CIRCLE
  8
_1-2_
  6
CONTINUOUS
 62
    7
 10
129.00172465556378
 20
91.681700010557435
 40
0.2817473540434966
  0
CIRCLE
  8
_1-2_
  6
CONTINUOUS
 62
    7
 10
133.65057455526818
 20
93.653943860853047
 40
0.2817473540434966
  0
CIRCLE
  8
_1-2_
  6
CONTINUOUS
 62
    7
 10
132.80532012114654
 20
94.217444754935599
 40
0.2817473540434966
  0
CIRCLE
  8
_1-2_
  6
CONTINUOUS
 62
    7
 10
129.14259214658995
 20
95.344434171109597
 40
0.2817473540434966
  0
CIRCLE
  8
_1-2_
  6
CONTINUOUS
 62
    7
 10
129.42435187262458
 20
94.076564891918295
 40
0.2817473540434966
  0
CIRCLE
  8
_1-2_
  6
CONTINUOUS
 62
    7
 10
135.62281840556378
 20
95.062686817066094
 40
0.2817473540434966
  0
CIRCLE
  8
_1-2_
  6
CONTINUOUS
 62
    7
 10
135.13752705342063
 20
96.753814284865925
 40
0.2817473540434966
  0
CIRCLE
  8
_1-2_
  6
CONTINUOUS
 62
    7
 10
131.0521718618032
 20
96.472066930822436
 40
0.2817473540434966
  0
CIRCLE
  8
_1-2_
  6
CONTINUOUS
 62
    7
 10
133.44704292915964
 20
94.922450297587631
 40
0.2817473540434966
  0
CIRCLE
  8
_1-2_
  6
CONTINUOUS
 62
    7
 10
131.0521718618032
 20
96.472066930822436
 40
0.2817473540434966
  0
CIRCLE
  8
_1-2_
  6
CONTINUOUS
 62
    7
 10
134.15140512827281
 20
97.880809887035483
 40
0.2817473540434966
  0
CIRCLE
  8
_1-2_
  6
CONTINUOUS
 62
    7
 10
137.10977090371622
 20
97.880809887035483
 40
0.2817473540434966
  0
CIRCLE
  8
_1-2_
  6
CONTINUOUS
 62
    7
 10
137.81415784681167
 20
96.894687961887669
 40
0.2817473540434966
  0
CIRCLE
  8
_1-2_
  6
CONTINUOUS
 62
    7
 10
142.46300774651604
 20
98.866931812183282
 40
0.2817473540434966
  0
CIRCLE
  8
_1-2_
  6
CONTINUOUS
 62
    7
 10
141.61775331239443
 20
99.430432706265847
 40
0.2817473540434966
  0
CIRCLE
  8
_1-2_
  6
CONTINUOUS
 62
    7
 10
137.95502533783784
 20
100.55742212243983
 40
0.2817473540434966
  0
CIRCLE
  8
_1-2_
  6
CONTINUOUS
 62
    7
 10
138.23678506387247
 20
99.289552843248529
 40
0.2817473540434966
  0
CIRCLE
  8
_1-2_
  6
CONTINUOUS
 62
    7
 10
144.43525159681167
 20
100.27567476839633
 40
0.2817473540434966
  0
CIRCLE
  8
_1-2_
  6
CONTINUOUS
 62
    7
 10
149.659423828125
 20
102.71152187038113
 40
0.2817473540434966
  0
CIRCLE
  8
_1-2_
  6
CONTINUOUS
 62
    7
 10
145.5740686365076
 20
102.42977451633763
 40
0.2817473540434966
  0
CIRCLE
  8
_1-2_
  6
CONTINUOUS
 62
    7
 10
147.96893970386404
 20
100.88015788310284
 40
0.2817473540434966
  0
CIRCLE
  8
_1-2_
  6
CONTINUOUS
 62
    7
 10
145.5740686365076
 20
102.42977451633763
 40
0.2817473540434966
  0
CIRCLE
  8
_1-2_
  6
CONTINUOUS
 62
    7
 10
148.67330190297722
 20
103.83851747255068
 40
0.2817473540434966
  0
CIRCLE
  8
_1-2_
  6
CONTINUOUS
 62
    7
 10
151.63166767842063
 20
103.83851747255068
 40
0.2817473540434966
  0
CIRCLE
  8
_1-2_
  6
CONTINUOUS
 62
    7
 10
152.33605462151607
 20
102.85239554740288
 40
0.2817473540434966
  0
CIRCLE
  8
_1-2_
  6
CONTINUOUS
 62
    7
 10
156.98490452122044
 20
104.82463939769849
 40
0.2817473540434966
  0
CIRCLE
  8
_1-2_
  6
CONTINUOUS
 62
    7
 10
156.13965008709883
 20
105.38813410578548
 40
0.2817473540434966
  0
CIRCLE
  8
_1-2_
  6
CONTINUOUS
 62
    7
 10
152.47692211254224
 20
106.51512352195947
 40
0.2817473540434966
  0
CIRCLE
  8
_1-2_
  6
CONTINUOUS
 62
    7
 10
152.75868183857688
 20
105.2472666147593
 40
0.2817473540434966
  0
CIRCLE
  8
_1-2_
  6
CONTINUOUS
 62
    7
 10
158.95714837151607
 20
106.2333885399071
 40
0.2817473540434966
  0
CIRCLE
  8
_1-2_
  6
CONTINUOUS
 62
    7
 10
161.2024668100718
 20
107.6762596336571
 40
0.2817473540434966
  0
CIRCLE
  8
_1-2_
  6
CONTINUOUS
 62
    7
 10
157.1171116184544
 20
107.39452465160474
 40
0.2817473540434966
  0
CIRCLE
  8
_1-2_
  6
CONTINUOUS
 62
    7
 10
159.51198268581081
 20
105.84490801836994
 40
0.2817473540434966
  0
CIRCLE
  8
_1-2_
  6
CONTINUOUS
 62
    7
 10
157.1171116184544
 20
107.39452465160474
 40
0.2817473540434966
  0
CIRCLE
  8
_1-2_
  6
CONTINUOUS
 62
    7
 10
160.21634488492398
 20
108.80326142182221
 40
0.2817473540434966
  0
CIRCLE
  8
_1-2_
  6
CONTINUOUS
 62
    7
 10
163.1747106603674
 20
108.80326142182221
 40
0.2817473540434966
  0
CIRCLE
  8
_1-2_
  6
CONTINUOUS
 62
    7
 10
163.87909760346284
 20
107.81713949667441
 40
0.2817473540434966
  0
CIRCLE
  8
_1-2_
  6
CONTINUOUS
 62
    7
 10
168.52794750316724
 20
109.78938334697003
 40
0.2817473540434966
  0
CIRCLE
  8
_1-2_
  6
CONTINUOUS
 62
    7
 10
167.68269306904563
 20
110.35289042704815
 40
0.2817473540434966
  0
CIRCLE
  8
_1-2_
  6
CONTINUOUS
 62
    7
 10
164.01996509448904
 20
111.47987984322214
 40
0.2817473540434966
  0
CIRCLE
  8
_1-2_
  6
CONTINUOUS
 62
    7
 10
164.30172482052365
 20
110.2119981920397
 40
0.2817473540434966
  0
CIRCLE
  8
_1-2_
  6
CONTINUOUS
 62
    7
 10
170.50019135346284
 20
111.1981201171875
 40
0.2817473540434966
  0
CIRCLE
  8
_1-2_
  6
CONTINUOUS
 62
    7
 10
176.8414306640625
 20
117.35754064611487
 40
0.2817473540434966
  0
CIRCLE
  8
_1-2_
  6
CONTINUOUS
 62
    7
 10
172.7560754724451
 20
117.07578092008025
 40
0.2817473540434966
  0
CIRCLE
  8
_1-2_
  6
CONTINUOUS
 62
    7
 10
175.15094653980154
 20
115.52616428684544
 40
0.2817473540434966
  0
CIRCLE
  8
_1-2_
  6
CONTINUOUS
 62
    7
 10
172.7560754724451
 20
117.07578092008025
 40
0.2817473540434966
  0
CIRCLE
  8
_1-2_
  6
CONTINUOUS
 62
    7
 10
175.85530873891472
 20
118.48453006228885
 40
0.2817473540434966
  0
CIRCLE
  8
_1-2_
  6
CONTINUOUS
 62
    7
 10
178.81367451435813
 20
118.48453006228885
 40
0.2817473540434966
  0
CIRCLE
  8
_1-2_
  6
CONTINUOUS
 62
    7
 10
179.51806145745357
 20
117.49840813714106
 40
0.2817473540434966
  0
CIRCLE
  8
_1-2_
  6
CONTINUOUS
 62
    7
 10
184.16691135715794
 20
119.47065198743667
 40
0.2817473540434966
  0
CIRCLE
  8
_1-2_
  6
CONTINUOUS
 62
    7
 10
183.32165692303633
 20
120.03414669552366
 40
0.2817473540434966
  0
CIRCLE
  8
_1-2_
  6
CONTINUOUS
 62
    7
 10
179.65892894847974
 20
121.16113611169764
 40
0.2817473540434966
  0
CIRCLE
  8
_1-2_
  6
CONTINUOUS
 62
    7
 10
179.94068867451438
 20
119.89327920449747
 40
0.2817473540434966
  0
CIRCLE
  8
_1-2_
  6
CONTINUOUS
 62
    7
 10
186.13915520745357
 20
120.87940112964527
 40
0.2817473540434966
  0
CIRCLE
  8
_1-2_
  6
CONTINUOUS
 62
    7
 10
174.2349366883974
 20
112.8892723289696
 40
0.2817473540434966
  0
CIRCLE
  8
_1-2_
  6
CONTINUOUS
 62
    7
 10
170.14959386877112
 20
112.60751260293497
 40
0.2817473540434966
  0
CIRCLE
  8
_1-2_
  6
CONTINUOUS
 62
    7
 10
172.54445256413641
 20
111.05789596970017
 40
0.2817473540434966
  0
CIRCLE
  8
_1-2_
  6
CONTINUOUS
 62
    7
 10
170.14959386877112
 20
112.60751260293497
 40
0.2817473540434966
  0
CIRCLE
  8
_1-2_
  6
CONTINUOUS
 62
    7
 10
173.24881476324958
 20
114.01626174514358
 40
0.2817473540434966
  0
CIRCLE
  8
_1-2_
  6
CONTINUOUS
 62
    7
 10
176.207180538693
 20
114.01626174514358
 40
0.2817473540434966
  0
CIRCLE
  8
_1-2_
  6
CONTINUOUS
 62
    7
 10
176.91156748178844
 20
113.03013981999578
 40
0.2817473540434966
  0
CIRCLE
  8
_1-2_
  6
CONTINUOUS
 62
    7
 10
181.56041738149284
 20
115.00238367029139
 40
0.2817473540434966
  0
CIRCLE
  8
_1-2_
  6
CONTINUOUS
 62
    7
 10
180.7151629473712
 20
115.56587837837839
 40
0.2817473540434966
  0
CIRCLE
  8
_1-2_
  6
CONTINUOUS
 62
    7
 10
177.05243497281461
 20
116.69286779455237
 40
0.2817473540434966
  0
CIRCLE
  8
_1-2_
  6
CONTINUOUS
 62
    7
 10
177.33419469884925
 20
115.4250108873522
 40
0.2817473540434966
  0
CIRCLE
  8
_1-2_
  6
CONTINUOUS
 62
    7
 10
183.53266123178844
 20
116.4111328125
 40
0.2817473540434966
  0
CIRCLE
  8
_1-2_
  6
CONTINUOUS
 62
    7
 10
193.59747396933068
 20
121.70169314822635
 40
0.2817473540434966
  0
CIRCLE
  8
_1-2_
  6
CONTINUOUS
 62
    7
 10
189.5121311497044
 20
121.419958166174
 40
0.2817473540434966
  0
CIRCLE
  8
_1-2_
  6
CONTINUOUS
 62
    7
 10
191.90698984506969
 20
119.87034153293919
 40
0.2817473540434966
  0
CIRCLE
  8
_1-2_
  6
CONTINUOUS
 62
    7
 10
189.5121311497044
 20
121.419958166174
 40
0.2817473540434966
  0
CIRCLE
  8
_1-2_
  6
CONTINUOUS
 62
    7
 10
192.61135204418287
 20
122.82869493639147
 40
0.2817473540434966
  0
CIRCLE
  8
_1-2_
  6
CONTINUOUS
 62
    7
 10
195.56971781962628
 20
122.82869493639147
 40
0.2817473540434966
  0
CIRCLE
  8
_1-2_
  6
CONTINUOUS
 62
    7
 10
196.27410476272172
 20
121.84257301124367
 40
0.2817473540434966
  0
CIRCLE
  8
_1-2_
  6
CONTINUOUS
 62
    7
 10
200.92295466242612
 20
123.81481686153928
 40
0.2817473540434966
  0
CIRCLE
  8
_1-2_
  6
CONTINUOUS
 62
    7
 10
200.07770022830448
 20
124.37832394161741
 40
0.2817473540434966
  0
CIRCLE
  8
_1-2_
  6
CONTINUOUS
 62
    7
 10
196.41497225374789
 20
125.50531335779139
 40
0.2817473540434966
  0
CIRCLE
  8
_1-2_
  6
CONTINUOUS
 62
    7
 10
196.69673197978253
 20
124.23743170660896
 40
0.2817473540434966
  0
CIRCLE
  8
_1-2_
  6
CONTINUOUS
 62
    7
 10
202.89519851272172
 20
125.22355363175676
 40
0.2817473540434966
  0
CIRCLE
  8
_1-2_
  6
CONTINUOUS
 62
    7
 10
204.14756568702492
 20
126.79056528452281
 40
0.2817473540434966
  0
CIRCLE
  8
_1-2_
  6
CONTINUOUS
 62
    7
 10
200.06222286739865
 20
126.50883030247044
 40
0.2817473540434966
  0
CIRCLE
  8
_1-2_
  6
CONTINUOUS
 62
    7
 10
202.45708156276396
 20
124.95921366923565
 40
0.2817473540434966
  0
CIRCLE
  8
_1-2_
  6
CONTINUOUS
 62
    7
 10
200.06222286739865
 20
126.50883030247044
 40
0.2817473540434966
  0
CIRCLE
  8
_1-2_
  6
CONTINUOUS
 62
    7
 10
203.16144376187711
 20
127.91756707268793
 40
0.2817473540434966
  0
CIRCLE
  8
_1-2_
  6
CONTINUOUS
 62
    7
 10
206.11980953732055
 20
127.91756707268793
 40
0.2817473540434966
  0
CIRCLE
  8
_1-2_
  6
CONTINUOUS
 62
    7
 10
206.82419648041596
 20
126.93144514754013
 40
0.2817473540434966
  0
CIRCLE
  8
_1-2_
  6
CONTINUOUS
 62
    7
 10
211.47305875211148
 20
128.90368899783573
 40
0.2817473540434966
  0
CIRCLE
  8
_1-2_
  6
CONTINUOUS
 62
    7
 10
210.62780431798987
 20
129.46719607791385
 40
0.2817473540434966
  0
CIRCLE
  8
_1-2_
  6
CONTINUOUS
 62
    7
 10
206.96506397144216
 20
130.59418549408784
 40
0.2817473540434966
  0
CIRCLE
  8
_1-2_
  6
CONTINUOUS
 62
    7
 10
207.2468236974768
 20
129.32630384290542
 40
0.2817473540434966
  0
CIRCLE
  8
_1-2_
  6
CONTINUOUS
 62
    7
 10
213.44530260240711
 20
130.3124257680532
 40
0.2817473540434966
  0
CIRCLE
  8
_1-2_
  6
CONTINUOUS
 62
    7
 10
214.69766977671031
 20
132.62415705500422
 40
0.2817473540434966
  0
CIRCLE
  8
_1-2_
  6
CONTINUOUS
 62
    7
 10
210.61231458509292
 20
132.34239732896961
 40
0.2817473540434966
  0
CIRCLE
  8
_1-2_
  6
CONTINUOUS
 62
    7
 10
213.00718565244932
 20
130.79278069573479
 40
0.2817473540434966
  0
CIRCLE
  8
_1-2_
  6
CONTINUOUS
 62
    7
 10
210.61231458509292
 20
132.34239732896961
 40
0.2817473540434966
  0
CIRCLE
  8
_1-2_
  6
CONTINUOUS
 62
    7
 10
213.7115478515625
 20
133.75114647117823
 40
0.2817473540434966
  0
CIRCLE
  8
_1-2_
  6
CONTINUOUS
 62
    7
 10
216.66991362700591
 20
133.75114647117823
 40
0.2817473540434966
  0
CIRCLE
  8
_1-2_
  6
CONTINUOUS
 62
    7
 10
217.37430057010135
 20
132.76502454603042
 40
0.2817473540434966
  0
CIRCLE
  8
_1-2_
  6
CONTINUOUS
 62
    7
 10
222.02315046980576
 20
134.73726839632602
 40
0.2817473540434966
  0
CIRCLE
  8
_1-2_
  6
CONTINUOUS
 62
    7
 10
221.17789603568414
 20
135.30076310441302
 40
0.2817473540434966
  0
CIRCLE
  8
_1-2_
  6
CONTINUOUS
 62
    7
 10
217.51516806112755
 20
136.42775252058701
 40
0.2817473540434966
  0
CIRCLE
  8
_1-2_
  6
CONTINUOUS
 62
    7
 10
217.79692778716216
 20
135.15989561338682
 40
0.2817473540434966
  0
CIRCLE
  8
_1-2_
  6
CONTINUOUS
 62
    7
 10
223.99539432010135
 20
136.14601753853464
 40
0.2817473540434966
  0
CIRCLE
  8
_1-2_
  6
CONTINUOUS
 62
    7
 10
226.24071275865711
 20
136.84419374208193
 40
0.2817473540434966
  0
CIRCLE
  8
_1-2_
  6
CONTINUOUS
 62
    7
 10
222.15535756703972
 20
136.56243401604729
 40
0.2817473540434966
  0
CIRCLE
  8
_1-2_
  6
CONTINUOUS
 62
    7
 10
224.55022863439612
 20
135.0128173828125
 40
0.2817473540434966
  0
CIRCLE
  8
_1-2_
  6
CONTINUOUS
 62
    7
 10
222.15535756703972
 20
136.56243401604729
 40
0.2817473540434966
  0
CIRCLE
  8
_1-2_
  6
CONTINUOUS
 62
    7
 10
225.2545908335093
 20
137.97118315825591
 40
0.2817473540434966
  0
CIRCLE
  8
_1-2_
  6
CONTINUOUS
 62
    7
 10
228.21295660895271
 20
137.97118315825591
 40
0.2817473540434966
  0
CIRCLE
  8
_1-2_
  6
CONTINUOUS
 62
    7
 10
228.91734355204815
 20
136.98506123310813
 40
0.2817473540434966
  0
CIRCLE
  8
_1-2_
  6
CONTINUOUS
 62
    7
 10
233.56619345175255
 20
138.95730508340372
 40
0.2817473540434966
  0
CIRCLE
  8
_1-2_
  6
CONTINUOUS
 62
    7
 10
232.72093901763091
 20
139.52079979149073
 40
0.2817473540434966
  0
CIRCLE
  8
_1-2_
  6
CONTINUOUS
 62
    7
 10
229.05821104307435
 20
140.64778920766472
 40
0.2817473540434966
  0
CIRCLE
  8
_1-2_
  6
CONTINUOUS
 62
    7
 10
229.33997076910896
 20
139.37993230046453
 40
0.2817473540434966
  0
TEXT
  8
_0-0_
 62
    7
 10
141.89189395389042
 20
14.594594594594582
 40
2.5
 41
1
 50
0
  1
縮尺
  0
TEXT
  8
_0-0_
 62
    7
 10
377.10214563318203
 20
22.865493362014362
 40
2.5
 41
1
 50
0
  1
ＮＯ
  0
TEXT
  8
_0-0_
 62
    7
 10
14.594594336844779
 20
24.324324324324323
 40
2.5
 41
1
 50
0
  1
和形
  0
TEXT
  8
_0-0_
 62
    7
 10
383.23801896378802
 20
18.523427086907475
 40
3
 41
1
 50
0
  1
Ｊ
  0
TEXT
  8
_1-0_
 62
    7
 10
169.90681828679266
 20
13.3181144095756
 40
2.5
 41
1
 50
0
  1
1/5
  0
TEXT
  8
_1-2_
 62
    7
 10
275.7329085066512
 20
177.59794080579604
 40
2.5
 41
1
 50
90
  1
300
  0
TEXT
  8
_1-6_
 62
    7
 10
177.55662041741448
 20
231.8918918918919
 40
2.5
 41
1
 50
0
  1
雨押え板　15ｘ90
  0
TEXT
  8
_1-6_
 62
    7
 10
179.92330396497573
 20
214.05405405405406
 40
2.5
 41
1
 50
0
  1
水切鉄板
  0
TEXT
  8
_1-6_
 62
    7
 10
186.1358642578125
 20
194.59459459459461
 40
2.5
 41
1
 50
0
  1
のし瓦
  0
TEXT
  8
_1-6_
 62
    7
 10
39.721904445338907
 20
15.395235628695104
 40
2.5
 41
1
 50
0
  1
壁際　　5
  0
TEXT
  8
_1-6_
 62
    7
 10
25.556194717819636
 20
20.211577544341225
 40
2.5
 41
1
 50
0
  1
ＲＣ
  0
TEXT
  8
_1-2_
 62
    7
 10
197.97087592047615
 20
246.90832189611487
 40
2.5
 41
1
 50
0
  1
コーキング
  0
TEXT
  8
_1-2_
 62
    7
 10
282.34059514226141
 20
177.91818979624156
 40
2.5
 41
1
 50
0
  1
下葺き材立上がり寸法
  0
POINT
  8
_1-2_
 62
    7
 10
276.23291015625
 20
209.47297792176943
  0
POINT
  8
_1-2_
 62
    7
 10
276.23291015625
 20
149.47290368982263
  0
TEXT
  8
_1-6_
 62
    7
 10
394.4453842575486
 20
15.625326826765729
 40
2.5
 41
1
 50
0
  1
25
  0
TEXT
  8
_1-2_
 62
    7
 10
58.775927392227572
 20
174.67260195846634
 40
2.5
 41
1
 50
0
  1
※　地域により瓦桟木の大きさは、異なります
  0
TEXT
  8
_1-5_
 62
    7
 10
47.313129912461847
 20
183.65780392208615
 40
2.5
 41
1
 50
0
  1
桟瓦
  0
TEXT
  8
_1-5_
 62
    7
 10
46.997601867632341
 20
178.26098055452914
 40
2.5
 41
1
 50
0
  1
瓦桟　
  0
TEXT
  8
_1-2_
 62
    7
 10
47.68005842544747
 20
156.67822760504646
 40
2.5
 41
1
 50
0
  1
パーライト系モルタル　ｔ＝50
  0
TEXT
  8
_1-2_
 62
    7
 10
58.886886582810064
 20
178.30631282859127
 40
2.5
 41
1
 50
0
  1
15×21以上　（防腐処理）
  0
LINE
  8
_1-2_
  6
CONTINUOUS
 62
    7
 10
95.491014698187428
 20
179.08588306323904
 11
111.46962346257391
 21
179.08588306323904
  0
LINE
  8
_1-2_
  6
CONTINUOUS
 62
    7
 10
95.491014698187428
 20
157.82871143237966
 11
119.20659658071158
 21
157.82871143237966
  0
LINE
  8
_1-2_
  6
CONTINUOUS
 62
    7
 10
101.30495209038733
 20
165.14556884765625
 11
116.54347600163641
 21
165.14556884765625
  0
LINE
  8
_1-1_
  6
CONTINUOUS
 62
    7
 10
102.36018992352734
 20
94.768538568960537
 11
103.59128964507507
 21
92.032769657959705
  0
LINE
  8
_1-1_
  6
CONTINUOUS
 62
    7
 10
142.0743804323956
 20
109.35015494485793
 11
140.84326833885675
 21
112.08592385585877
  0
LINE
  8
_1-1_
  6
CONTINUOUS
 62
    7
 10
140.84326833885675
 20
112.08592385585877
 11
145.22050354525453
 21
114.05568093593689
  0
LINE
  8
_1-1_
  6
CONTINUOUS
 62
    7
 10
145.22050354525453
 20
114.05568093593689
 11
146.45159089481112
 21
111.31991202493606
  0
LINE
  8
_1-1_
  6
CONTINUOUS
 62
    7
 10
146.45159089481112
 20
111.31991202493606
 11
142.0743804323956
 21
109.35015494485793
  0
LINE
  8
_1-1_
  6
CONTINUOUS
 62
    7
 10
184.93469405412279
 20
128.63729731183429
 11
183.70358196058393
 21
131.37306622283512
  0
LINE
  8
_1-1_
  6
CONTINUOUS
 62
    7
 10
183.70358196058393
 20
131.37306622283512
 11
188.08081716698175
 21
133.34282330291325
  0
LINE
  8
_1-1_
  6
CONTINUOUS
 62
    7
 10
188.08081716698175
 20
133.34282330291325
 11
189.31190451653833
 21
130.60705439191241
  0
LINE
  8
_1-1_
  6
CONTINUOUS
 62
    7
 10
189.31190451653833
 20
130.60705439191241
 11
184.93469405412279
 21
128.63729731183429
  0
LINE
  8
_1-1_
  6
CONTINUOUS
 62
    7
 10
230.94113078870893
 20
152.62997804188075
 11
232.17221813826552
 21
149.89420913087989
  0
LINE
  8
_1-1_
  6
CONTINUOUS
 62
    7
 10
232.17221813826552
 20
149.89420913087989
 11
227.79500767584997
 21
147.92446442279291
  0
LINE
  8
_1-1_
  6
CONTINUOUS
 62
    7
 10
226.56389558231112
 20
150.66020858981148
 11
232.17224288224779
 21
149.89418438689762
  0
LINE
  8
_1-1_
  6
CONTINUOUS
 62
    7
 10
183.70358196058393
 20
131.37306622283512
 11
189.31190451653833
 21
130.60705439191241
  0
LINE
  8
_1-1_
  6
CONTINUOUS
 62
    7
 10
140.84326833885675
 20
112.08592385585877
 11
146.45159089481112
 21
111.31991202493606
  0
LINE
  8
_1-b_
  6
CONTINUOUS
 62
    3
 10
103.22887690885251
 20
92.986056318643818
 11
104.91808671802691
 21
93.607798360979132
  0
LINE
  8
_1-b_
  6
CONTINUOUS
 62
    3
 10
102.53803729604634
 20
94.862949233286969
 11
103.22887690885251
 21
92.986056318643818
  0
LINE
  8
ADD_LINE
  6
DOT
 62
    3
 10
102.36018992352734
 20
94.768550940951684
 11
102.36018992352734
 21
95.227341488090616
  0
LINE
  8
ADD_LINE
  6
DOT
 62
    3
 10
102.36018992352734
 20
94.768550940951684
 11
102.36018992352734
 21
94.385514095512491
  0
LINE
  8
_1-1_
  6
CONTINUOUS
 62
    7
 10
142.0743804323956
 20
109.35015494485793
 11
140.84329308283901
 21
112.08592385585877
  0
LINE
  8
_1-1_
  6
CONTINUOUS
 62
    7
 10
140.84329308283901
 20
112.08592385585877
 11
145.22050354525453
 21
114.05568093593689
  0
LINE
  8
_1-1_
  6
CONTINUOUS
 62
    7
 10
145.22050354525453
 20
114.05568093593689
 11
146.45161563879338
 21
111.31991202493606
  0
LINE
  8
_1-1_
  6
CONTINUOUS
 62
    7
 10
146.45161563879338
 20
111.31991202493606
 11
142.0743804323956
 21
109.35015494485793
  0
LINE
  8
_1-1_
  6
CONTINUOUS
 62
    7
 10
140.84329308283901
 20
112.08592385585877
 11
146.45161563879338
 21
111.31991202493606
  0
LINE
  8
_1-b_
  6
CONTINUOUS
 62
    3
 10
146.08919053057971
 20
112.27319868562017
 11
147.778387967763
 21
112.89494072795549
  0
LINE
  8
_1-b_
  6
CONTINUOUS
 62
    3
 10
145.39836328976469
 20
114.15009160026332
 11
146.08919053057971
 21
112.27319868562017
  0
LINE
  8
_1-1_
  6
CONTINUOUS
 62
    7
 10
140.84329308283901
 20
112.08593622784991
 11
145.22050354525453
 21
114.05569330792804
  0
LINE
  8
_1-1_
  6
CONTINUOUS
 62
    7
 10
184.93469405412279
 20
128.63729731183429
 11
183.70358196058393
 21
131.37306622283512
  0
LINE
  8
_1-1_
  6
CONTINUOUS
 62
    7
 10
183.70358196058393
 20
131.37306622283512
 11
188.08081716698175
 21
133.34282330291325
  0
LINE
  8
_1-1_
  6
CONTINUOUS
 62
    7
 10
188.08081716698175
 20
133.34282330291325
 11
189.31190451653833
 21
130.60705439191241
  0
LINE
  8
_1-1_
  6
CONTINUOUS
 62
    7
 10
189.31190451653833
 20
130.60705439191241
 11
184.93469405412279
 21
128.63729731183429
  0
LINE
  8
_1-1_
  6
CONTINUOUS
 62
    7
 10
183.70358196058393
 20
131.37306622283512
 11
189.31190451653833
 21
130.60705439191241
  0
LINE
  8
_1-b_
  6
CONTINUOUS
 62
    3
 10
132.56452572905943
 20
112.93783442120929
 11
188.25865216750961
 21
133.43723396723968
  0
LINE
  8
_1-b_
  6
CONTINUOUS
 62
    3
 10
188.9495041523069
 20
131.56034105259653
 11
190.63872633347245
 21
132.18208309493184
  0
LINE
  8
_1-b_
  6
CONTINUOUS
 62
    3
 10
188.25865216750961
 20
133.43723396723968
 11
188.9495041523069
 21
131.56034105259653
  0
LINE
  8
_1-b_
  6
CONTINUOUS
 62
    3
 10
133.28081452762365
 20
116.18512330555259
 11
187.47919198222667
 21
136.13398161821098
  0
LINE
  8
_1-b_
  6
CONTINUOUS
 62
    3
 10
132.33195703976469
 20
114.13092738600022
 11
132.74928904462109
 21
112.99708388673926
  0
LINE
  8
_1-1_
  6
CONTINUOUS
 62
    7
 10
183.70358196058393
 20
131.37306622283512
 11
188.08081716698175
 21
133.34282330291325
  0
LINE
  8
_1-1_
  6
CONTINUOUS
 62
    7
 10
188.08081716698175
 20
133.34282330291325
 11
189.31190451653833
 21
130.60705439191241
  0
LINE
  8
_1-1_
  6
CONTINUOUS
 62
    7
 10
227.79500767584997
 20
147.92443967881064
 11
226.56389558231112
 21
150.66020858981148
  0
LINE
  8
_1-1_
  6
CONTINUOUS
 62
    7
 10
226.56389558231112
 20
150.66020858981148
 11
230.94113078870893
 21
152.62997804188075
  0
LINE
  8
_1-1_
  6
CONTINUOUS
 62
    7
 10
230.94113078870893
 20
152.62997804188075
 11
232.17221813826552
 21
149.89418438689762
  0
LINE
  8
_1-1_
  6
CONTINUOUS
 62
    7
 10
183.70358196058393
 20
131.37306622283512
 11
189.31190451653833
 21
130.60705439191241
  0
LINE
  8
_1-1_
  6
CONTINUOUS
 62
    7
 10
183.7036067045662
 20
131.37306622283512
 11
188.08081716698175
 21
133.34282330291325
  0
LINE
  8
_1-1_
  6
CONTINUOUS
 62
    7
 10
188.08081716698175
 20
133.34282330291325
 11
189.3119292605206
 21
130.60705439191241
  0
LINE
  8
_1-1_
  6
CONTINUOUS
 62
    7
 10
183.7036067045662
 20
131.37306622283512
 11
189.3119292605206
 21
130.60705439191241
  0
LINE
  8
_1-b_
  6
CONTINUOUS
 62
    3
 10
188.9495041523069
 20
131.56034105259653
 11
190.63870158949018
 21
132.18208309493184
  0
LINE
  8
_1-1_
  6
CONTINUOUS
 62
    7
 10
183.7036067045662
 20
131.37307859482627
 11
188.08081716698175
 21
133.34283567490439
  0
LINE
  8
_1-1_
  6
CONTINUOUS
 62
    7
 10
227.79500767584997
 20
147.92443967881064
 11
226.56389558231112
 21
150.66020858981148
  0
LINE
  8
_1-1_
  6
CONTINUOUS
 62
    7
 10
226.56389558231112
 20
150.66020858981148
 11
230.94113078870893
 21
152.62997804188075
  0
LINE
  8
_1-1_
  6
CONTINUOUS
 62
    7
 10
230.94113078870893
 20
152.62997804188075
 11
232.17221813826552
 21
149.89418438689762
  0
LINE
  8
_1-1_
  6
CONTINUOUS
 62
    7
 10
226.56389558231112
 20
150.66020858981148
 11
232.17221813826552
 21
149.89418438689762
  0
LINE
  8
_1-b_
  6
CONTINUOUS
 62
    3
 10
175.42483935078664
 20
132.22497678818564
 11
231.1189657892368
 21
152.72437633421603
  0
LINE
  8
_1-b_
  6
CONTINUOUS
 62
    3
 10
231.80981777403412
 20
150.84747104758176
 11
233.49903995519963
 21
151.46923783389931
  0
LINE
  8
_1-b_
  6
CONTINUOUS
 62
    3
 10
231.1189657892368
 20
152.72437633421603
 11
231.80981777403412
 21
150.84747104758176
  0
LINE
  8
_1-b_
  6
CONTINUOUS
 62
    3
 10
176.14112814935083
 20
135.47226567252895
 11
230.33950560395388
 21
155.42112398518734
  0
LINE
  8
_1-b_
  6
CONTINUOUS
 62
    3
 10
175.19227066149188
 20
133.41806975297661
 11
175.60960266634828
 21
132.28422625371562
  0
LINE
  8
_1-1_
  6
CONTINUOUS
 62
    7
 10
227.78830205665656
 20
147.93931081215101
 11
226.55718996311771
 21
150.67507972315184
  0
LINE
  8
_1-1_
  6
CONTINUOUS
 62
    7
 10
226.55718996311771
 20
150.67507972315184
 11
230.93442516951552
 21
152.64482443123885
  0
LINE
  8
_1-1_
  6
CONTINUOUS
 62
    7
 10
230.93442516951552
 20
152.64482443123885
 11
232.16551251907211
 21
149.90908026422025
  0
LINE
  8
_1-1_
  6
CONTINUOUS
 62
    7
 10
226.55718996311771
 20
150.67507972315184
 11
232.16551251907211
 21
149.90908026422025
  0
LINE
  8
_1-1_
  6
CONTINUOUS
 62
    7
 10
227.78830205665656
 20
147.93931081215101
 11
226.55718996311771
 21
150.67507972315184
  0
LINE
  8
_1-1_
  6
CONTINUOUS
 62
    7
 10
226.55718996311771
 20
150.67507972315184
 11
230.93442516951552
 21
152.64482443123885
  0
LINE
  8
_1-1_
  6
CONTINUOUS
 62
    7
 10
230.93442516951552
 20
152.64482443123885
 11
232.16551251907211
 21
149.90908026422025
  0
LINE
  8
_1-1_
  6
CONTINUOUS
 62
    7
 10
226.55718996311771
 20
150.67507972315184
 11
232.16551251907211
 21
149.90908026422025
  0
LINE
  8
_1-b_
  6
CONTINUOUS
 62
    3
 10
231.8031121548407
 20
150.86236692490439
 11
233.49233433600622
 21
151.48408422325741
  0
LINE
  8
_1-b_
  6
CONTINUOUS
 62
    3
 10
231.11226017004338
 20
152.73924746755642
 11
231.8031121548407
 21
150.86236692490439
  0
LINE
  8
_1-1_
  6
CONTINUOUS
 62
    7
 10
226.55718996311771
 20
150.67507972315184
 11
230.93442516951552
 21
152.64482443123885
  0
LINE
  8
_1-1_
  6
CONTINUOUS
 62
    7
 10
230.93442516951552
 20
152.64482443123885
 11
232.16551251907211
 21
149.90908026422025
  0
LINE
  8
_1-1_
  6
CONTINUOUS
 62
    7
 10
226.55718996311771
 20
150.67507972315184
 11
232.16551251907211
 21
149.90908026422025
  0
LINE
  8
_1-1_
  6
CONTINUOUS
 62
    7
 10
226.55721470709997
 20
150.67507972315184
 11
230.93442516951552
 21
152.64482443123885
  0
LINE
  8
_1-1_
  6
CONTINUOUS
 62
    7
 10
230.93442516951552
 20
152.64482443123885
 11
232.16553726305438
 21
149.90908026422025
  0
LINE
  8
_1-b_
  6
CONTINUOUS
 62
    3
 10
231.8031121548407
 20
150.86236692490439
 11
233.49230959202396
 21
151.48408422325741
  0
LINE
  8
_1-b_
  6
CONTINUOUS
 62
    3
 10
231.11228491402565
 20
152.73924746755642
 11
231.8031121548407
 21
150.86236692490439
  0
LINE
  8
ADD_LINE
  6
DOT
 62
    3
 10
230.93442516951552
 20
152.64484917522111
 11
230.93442516951552
 21
152.26181232978192
  0
LINE
  8
_1-b_
  6
CONTINUOUS
 62
    3
 10
230.16167060342599
 20
155.9008850572946
 11
230.33279998476047
 21
155.4359951185277
  0
LINE
  8
_1-b_
  6
CONTINUOUS
 62
    3
 10
230.1627593386456
 20
155.9012809610108
 11
230.33950560395388
 21
155.42112398518734
  0
LINE
  8
_1-b_
  6
CONTINUOUS
 62
    3
 10
230.16169534740825
 20
155.90086031331234
 11
230.33279998476047
 21
155.4359951185277
  0
LINE
  8
_1-b_
  6
CONTINUOUS
 62
    3
 10
231.66318493514052
 20
156.45354190115017
 11
233.49230959202396
 21
151.48408422325741
  0
LINE
  8
_1-b_
  6
CONTINUOUS
 62
    3
 10
231.66429841434237
 20
156.45393780486637
 11
233.49903995519963
 21
151.46923783389931
  0
LINE
  8
_1-b_
  6
CONTINUOUS
 62
    3
 10
231.66320967912279
 20
156.45354190115017
 11
233.49233433600622
 21
151.48408422325741
  0
LINE
  8
_1-b_
  6
CONTINUOUS
 62
    3
 10
187.30808734487448
 20
136.59884681299559
 11
187.47919198222667
 21
136.13398161821098
  0
LINE
  8
_1-b_
  6
CONTINUOUS
 62
    3
 10
188.80957693260675
 20
137.15152840083343
 11
190.63870158949018
 21
132.18208309493184
  0
LINE
  8
_1-b_
  6
CONTINUOUS
 62
    3
 10
187.30808734487448
 20
136.59884681299559
 11
187.47919198222667
 21
136.13398161821098
  0
LINE
  8
_1-b_
  6
CONTINUOUS
 62
    3
 10
188.80960167658901
 20
137.15152840083343
 11
190.63872633347245
 21
132.18208309493184
  0
LINE
  8
_1-b_
  6
CONTINUOUS
 62
    3
 10
144.44777372314726
 20
117.31171681801038
 11
144.61887836049948
 21
116.8468392512346
  0
LINE
  8
_1-b_
  6
CONTINUOUS
 62
    3
 10
145.94926331087953
 20
117.86437366186595
 11
147.778387967763
 21
112.89494072795549
  0
LINE
  8
_1-b_
  6
CONTINUOUS
 62
    3
 10
103.08897443313461
 20
98.5772312948896
 11
104.91808671802691
 21
93.607798360979132
  0
LINE
  8
_1-c_
  6
CONTINUOUS
 62
    7
 10
129.8449641264412
 20
120.887778994689
 11
132.33195703976469
 21
114.13093975799137
  0
LINE
  8
_1-c_
  6
CONTINUOUS
 62
    7
 10
172.70527774816838
 20
140.17489661768309
 11
175.19227066149188
 21
133.41806975297661
  0
LINE
  8
_1-c_
  6
CONTINUOUS
 62
    7
 10
173.65411049204508
 20
142.22909253723546
 11
216.15011846290656
 21
157.87065450936385
  0
LINE
  8
_1-c_
  6
CONTINUOUS
 62
    7
 10
130.79380924230901
 20
122.94196254225022
 11
173.29086883241669
 21
138.58390804610372
  0
LINE
  8
_1-b_
  6
CONTINUOUS
 62
    3
 10
100.99338183125538
 20
97.805911879771344
 11
145.39836328976469
 21
114.15009160026332
  0
LINE
  8
_1-b_
  6
CONTINUOUS
 62
    3
 10
99.841524712906562
 20
100.3655902409939
 11
144.61887836049948
 21
116.8468392512346
  0
LINE
  8
_1-c_
  6
CONTINUOUS
 62
    7
 10
96.879620547999465
 20
106.94762561499095
 11
130.43056758268062
 21
119.29676567912736
  0
LINE
  8
_1-b_
  6
CONTINUOUS
 62
    3
 10
230.16167060342599
 20
155.9008850572946
 11
231.66318493514052
 21
156.45355427314129
  0
LINE
  8
_1-b_
  6
CONTINUOUS
 62
    7
 10
216.15011846290656
 20
157.87065450936385
 11
229.35291354314305
 21
162.73022416202431
  0
LINE
  8
_1-b_
  6
CONTINUOUS
 62
    7
 10
231.66318493514052
 20
156.45354190115017
 11
229.35291354314305
 21
162.73022416202431
  0
LINE
  8
_1-b_
  6
CONTINUOUS
 62
    3
 10
188.25867691149188
 20
133.43723396723968
 11
188.9495041523069
 21
131.56034105259653
  0
ARC
  8
_1-b_
  6
CONTINUOUS
 62
    3
 10
133.83347137147922
 20
114.68359660184694
 40
1.5999999239638045
 50
110.20680236816406
 51
200.20738220214844
  0
ARC
  8
_1-b_
  6
CONTINUOUS
 62
    3
 10
176.69378499320641
 20
133.9707389688233
 40
1.5999999239638045
 50
110.20680236816406
 51
200.20738220214844
  0
ARC
  8
_1-c_
  6
CONTINUOUS
 62
    7
 10
131.34647845815573
 20
121.44043583854457
 40
1.5999999239638045
 50
110.20722961425781
 51
200.20695495605469
  0
ARC
  8
_1-c_
  6
CONTINUOUS
 62
    7
 10
174.20679207988292
 20
140.72755346153866
 40
1.5999999239638045
 50
110.20748901367187
 51
200.20695495605469
  0
LINE
  8
_1-0_
  6
CONTINUOUS
 62
    7
 10
97.419161409945104
 20
88.597368807406042
 11
233.32449814213618
 21
149.7547859752205
  0
LINE
  8
_1-1_
  6
CONTINUOUS
 62
    7
 10
233.07158385953755
 20
150.31681748937058
 11
233.32449814213618
 21
149.7547859752205
  0
TEXT
  8
_1-5_
 62
    7
 10
46.999160738514917
 20
171.26098220412797
 40
2.5
 41
1
 50
0
  1
縦桟
  0
TEXT
  8
_1-5_
 62
    7
 10
46.999161769514188
 20
164.26098385372677
 40
2.5
 41
1
 50
0
  1
ルーフィング
  0
LINE
  8
_1-1_
  6
CONTINUOUS
 62
    7
 10
101.30495209038733
 20
165.14556884765625
 11
64.071624940130278
 21
165.14556884765625
  0
TEXT
  8
_1-2_
 62
    7
 10
182.73567491680532
 20
177.21464226289518
 40
2.5
 41
1
 50
0
  1
葺き土
  0
LINE
  8
_1-2_
  6
CONTINUOUS
 62
    7
 10
205.8097674395587
 20
150.46409813133448
 11
218.46539902051617
 21
155.84947065463703
  0
LINE
  8
ADD_LINE
  6
DOT
 62
    4
 10
230.02664102090372
 20
181.42402855125636
 11
234.52294426995357
 21
183.0978825741567
  0
ARC
  8
_1-4_
  6
CONTINUOUS
 62
    1
 10
171.72128072142701
 20
155.44602959708871
 40
46.745859284498756
 50
354.50816902578151
 51
9.7292630706814034
  0
ARC
  8
_1-4_
  6
CONTINUOUS
 62
    1
 10
189.52450708711993
 20
169.19623630610104
 40
28.565180074890257
 50
357.60595992397464
 51
3.086088715983498
  0
SOLID
  8
_1-4_
  6
CONTINUOUS
 62
    8
 10
225.36227578273594
 20
167.39974068281927
 11
223.99437440995456
 21
166.84244753094538
 12
222.8629004349379
 22
166.28515437907149
 13
222.8629004349379
 23
166.28515437907149
  0
SOLID
  8
_1-4_
  6
CONTINUOUS
 62
    8
 10
225.36227578273594
 20
167.39974068281927
 11
222.8629004349379
 21
166.28515437907149
 12
221.81586481626573
 22
165.7616365697354
 13
221.81586481626573
 23
165.7616365697354
  0
SOLID
  8
_1-4_
  6
CONTINUOUS
 62
    8
 10
225.36227578273594
 20
167.39974068281927
 11
221.81586481626573
 21
165.7616365697354
 12
220.70127851251797
 22
165.1536804040548
 13
220.70127851251797
 23
165.1536804040548
  0
SOLID
  8
_1-4_
  6
CONTINUOUS
 62
    8
 10
225.36227578273594
 20
167.39974068281927
 11
220.70127851251797
 21
165.1536804040548
 12
219.620467551308
 22
164.54572423837419
 13
219.620467551308
 23
164.54572423837419
  0
SOLID
  8
_1-4_
  6
CONTINUOUS
 62
    8
 10
225.36227578273594
 20
167.39974068281927
 11
219.620467551308
 21
164.54572423837419
 12
218.69164563151818
 22
163.92088040142468
 13
218.69164563151818
 23
163.92088040142468
  0
SOLID
  8
_1-4_
  6
CONTINUOUS
 62
    8
 10
225.36227578273594
 20
167.39974068281927
 11
218.69164563151818
 21
163.92088040142468
 12
217.79480771771864
 22
163.34574290632634
 13
217.79480771771864
 23
163.34574290632634
  0
SOLID
  8
_1-4_
  6
CONTINUOUS
 62
    8
 10
225.36227578273594
 20
167.39974068281927
 11
217.79480771771864
 21
163.34574290632634
 12
218.85033462247344
 22
157.18958945647071
 13
218.85033462247344
 23
157.18958945647071
  0
SOLID
  8
_1-4_
  6
CONTINUOUS
 62
    8
 10
225.36227578273594
 20
167.39974068281927
 11
218.85033462247344
 21
157.18958945647071
 12
218.25256966783897
 22
150.97227175477323
 13
218.25256966783897
 23
150.97227175477323
  0
SOLID
  8
_1-4_
  6
CONTINUOUS
 62
    8
 10
225.36227578273594
 20
167.39974068281927
 11
218.25256966783897
 21
150.97227175477323
 12
230.33950560395388
 22
155.42112398518734
 13
230.33950560395388
 23
155.42112398518734
  0
SOLID
  8
_1-4_
  6
CONTINUOUS
 62
    8
 10
225.36227578273594
 20
167.39974068281927
 11
230.33950560395388
 21
155.42112398518734
 12
230.1627593386456
 22
155.9012809610108
 13
230.1627593386456
 23
155.9012809610108
  0
SOLID
  8
_1-4_
  6
CONTINUOUS
 62
    8
 10
234.52294426995357
 20
183.0978825741567
 11
230.02664102090372
 21
181.42402855125636
 12
220.52480891987722
 22
176.66728385749158
 13
220.52480891987722
 23
176.66728385749158
  0
SOLID
  8
_1-4_
  6
CONTINUOUS
 62
    8
 10
220.52480891987722
 20
176.66728385749158
 11
220.5212079524604
 21
176.50524032373428
 12
220.96052597731349
 22
176.72129836874402
 13
220.96052597731349
 23
176.72129836874402
  0
SOLID
  8
_1-4_
  6
CONTINUOUS
 62
    8
 10
220.52480891987722
 20
176.66728385749158
 11
220.96052597731349
 21
176.72129836874402
 12
221.48986818758732
 22
176.9697651205052
 13
221.48986818758732
 23
176.9697651205052
  0
SOLID
  8
_1-4_
  6
CONTINUOUS
 62
    8
 10
220.52480891987722
 20
176.66728385749158
 11
221.48986818758732
 21
176.9697651205052
 12
222.01560943044433
 22
177.20022703518225
 13
222.01560943044433
 23
177.20022703518225
  0
SOLID
  8
_1-4_
  6
CONTINUOUS
 62
    8
 10
220.52480891987722
 20
176.66728385749158
 11
222.01560943044433
 21
177.20022703518225
 12
222.6025671193874
 22
177.46309765661073
 13
222.6025671193874
 23
177.46309765661073
  0
SOLID
  8
_1-4_
  6
CONTINUOUS
 62
    8
 10
220.52480891987722
 20
176.66728385749158
 11
222.6025671193874
 21
177.46309765661073
 12
223.48480413651043
 22
177.8339973005441
 13
223.48480413651043
 23
177.8339973005441
  0
SOLID
  8
_1-4_
  6
CONTINUOUS
 62
    8
 10
220.52480891987722
 20
176.66728385749158
 11
223.48480413651043
 21
177.8339973005441
 12
224.13297827153963
 22
178.0968679219726
 13
224.13297827153963
 23
178.0968679219726
  0
SOLID
  8
_1-4_
  6
CONTINUOUS
 62
    8
 10
220.52480891987722
 20
176.66728385749158
 11
224.13297827153963
 21
178.0968679219726
 12
224.67672435148077
 22
178.31292596698233
 13
224.67672435148077
 23
178.31292596698233
  0
SOLID
  8
_1-4_
  6
CONTINUOUS
 62
    8
 10
224.67672435148077
 20
178.31292596698233
 11
225.38611493259603
 21
178.59020045807813
 12
230.18376274455443
 22
180.93045320392253
 13
230.18376274455443
 23
180.93045320392253
  0
SOLID
  8
_1-4_
  6
CONTINUOUS
 62
    8
 10
224.67672435148077
 20
178.31292596698233
 11
230.18376274455443
 21
180.93045320392253
 12
234.52294426995357
 22
183.0978825741567
 13
234.52294426995357
 23
183.0978825741567
  0
SOLID
  8
_1-4_
  6
CONTINUOUS
 62
    8
 10
224.67672435148077
 20
178.31292596698233
 11
234.52294426995357
 21
183.0978825741567
 12
220.52480891987722
 22
176.66728385749158
 13
220.52480891987722
 23
176.66728385749158
  0
SOLID
  8
_1-4_
  6
CONTINUOUS
 62
    8
 10
225.84458121915529
 20
178.76302383368835
 11
227.08808116780506
 21
175.3846023087516
 12
234.52294426995357
 22
183.09788257415667
 13
234.52294426995357
 23
183.09788257415667
  0
SOLID
  8
_1-4_
  6
CONTINUOUS
 62
    8
 10
225.84458121915529
 20
178.76302383368835
 11
234.52294426995357
 21
183.09788257415667
 12
225.40378769503798
 22
178.59882108477947
 13
225.40378769503798
 23
178.59882108477947
  0
SOLID
  8
_1-4_
  6
CONTINUOUS
 62
    8
 10
224.62952940030198
 20
174.38012027779334
 11
223.81745149147716
 21
173.99076785575406
 12
222.83850825892125
 22
173.51242059439153
 13
222.83850825892125
 23
173.51242059439153
  0
SOLID
  8
_1-4_
  6
CONTINUOUS
 62
    8
 10
224.62952940030198
 20
174.38012027779334
 11
222.83850825892125
 21
173.51242059439153
 12
221.77057018704207
 22
172.98957591336733
 13
221.77057018704207
 23
172.98957591336733
  0
SOLID
  8
_1-4_
  6
CONTINUOUS
 62
    8
 10
224.62952940030198
 20
174.38012027779334
 11
221.77057018704207
 21
172.98957591336733
 12
220.73600517990911
 22
172.41110945776612
 13
220.73600517990911
 23
172.41110945776612
  0
SOLID
  8
_1-4_
  6
CONTINUOUS
 62
    8
 10
224.62952940030198
 20
174.38012027779334
 11
220.73600517990911
 21
172.41110945776612
 12
219.6346940432837
 22
171.75477251775703
 13
219.6346940432837
 23
171.75477251775703
  0
SOLID
  8
_1-4_
  6
CONTINUOUS
 62
    8
 10
224.62952940030198
 20
174.38012027779334
 11
219.6346940432837
 21
171.75477251775703
 12
218.86711355412055
 22
171.25417654656366
 13
218.86711355412055
 23
171.25417654656366
  0
SOLID
  8
_1-4_
  6
CONTINUOUS
 62
    8
 10
224.62952940030198
 20
174.38012027779334
 11
218.86711355412055
 21
171.25417654656366
 12
218.0482611124965
 22
170.73408188050698
 13
218.0482611124965
 23
170.73408188050698
  0
SOLID
  8
_1-4_
  6
CONTINUOUS
 62
    8
 10
224.62952940030198
 20
174.38012027779334
 11
218.0482611124965
 21
170.73408188050698
 12
218.12186184319893
 22
169.36894537162536
 13
218.12186184319893
 23
169.36894537162536
  0
SOLID
  8
_1-4_
  6
CONTINUOUS
 62
    8
 10
224.62952940030198
 20
174.38012027779334
 11
218.12186184319893
 21
169.36894537162536
 12
218.06475491900204
 22
168.0030194751543
 13
218.06475491900204
 23
168.0030194751543
  0
SOLID
  8
_1-4_
  6
CONTINUOUS
 62
    8
 10
224.62952940030198
 20
174.38012027779334
 11
218.06475491900204
 21
168.0030194751543
 12
219.11184936225953
 22
168.56208265703489
 13
219.11184936225953
 23
168.56208265703489
  0
SOLID
  8
_1-4_
  6
CONTINUOUS
 62
    8
 10
224.62952940030198
 20
174.38012027779334
 11
219.11184936225953
 21
168.56208265703489
 12
219.92392727108432
 22
168.97368378890499
 13
219.92392727108432
 23
168.97368378890499
  0
SOLID
  8
_1-4_
  6
CONTINUOUS
 62
    8
 10
224.62952940030198
 20
174.38012027779334
 11
219.92392727108432
 21
168.97368378890499
 12
220.70263211516288
 22
169.31853879128266
 13
220.70263211516288
 23
169.31853879128266
  0
SOLID
  8
_1-4_
  6
CONTINUOUS
 62
    8
 10
224.62952940030198
 20
174.38012027779334
 11
220.70263211516288
 21
169.31853879128266
 12
221.67045099280341
 22
169.78576169772978
 13
221.67045099280341
 23
169.78576169772978
  0
SOLID
  8
_1-4_
  6
CONTINUOUS
 62
    8
 10
224.62952940030198
 20
174.38012027779334
 11
221.67045099280341
 21
169.78576169772978
 12
222.4825289016282
 22
170.13061670010745
 13
222.4825289016282
 23
170.13061670010745
  0
SOLID
  8
_1-4_
  6
CONTINUOUS
 62
    8
 10
224.62952940030198
 20
174.38012027779334
 11
222.4825289016282
 21
170.13061670010745
 12
223.27235810062217
 22
170.4865960574005
 13
223.27235810062217
 23
170.4865960574005
  0
SOLID
  8
_1-4_
  6
CONTINUOUS
 62
    8
 10
224.62952940030198
 20
174.38012027779334
 11
223.27235810062217
 21
170.4865960574005
 12
223.91757068571584
 22
170.7424562204549
 13
223.91757068571584
 23
170.7424562204549
  0
SOLID
  8
_1-4_
  6
CONTINUOUS
 62
    8
 10
224.62952940030198
 20
174.38012027779334
 11
223.91757068571584
 21
170.7424562204549
 12
224.59615633555575
 22
171.02056509334008
 13
224.59615633555575
 23
171.02056509334008
  0
SOLID
  8
_1-4_
  6
CONTINUOUS
 62
    8
 10
224.62952940030198
 20
174.38012027779334
 11
224.59615633555575
 21
171.02056509334008
 12
225.59728015387927
 22
171.37886832150608
 13
225.59728015387927
 23
171.37886832150608
  0
SOLID
  8
_1-4_
  6
CONTINUOUS
 62
    8
 10
224.62952940030198
 20
174.38012027779334
 11
225.59728015387927
 21
171.37886832150608
 12
226.84075432854732
 22
168.00044291728253
 13
226.84075432854732
 23
168.00044291728253
  0
SOLID
  8
_1-4_
  6
CONTINUOUS
 62
    8
 10
226.84075432854732
 20
168.00044291728253
 11
226.56516715558297
 21
175.14770076695652
 12
224.62952940030198
 22
174.38012027779334
 13
224.62952940030198
 23
174.38012027779334
  0
LINE
  8
_1-3_
  6
CONTINUOUS
 62
    7
 10
227.33419752437129
 20
163.24037111074878
 11
234.53419752437131
 21
163.24037111074878
  0
LINE
  8
_1-3_
  6
CONTINUOUS
 62
    7
 10
234.53419752437131
 20
163.24037111074878
 11
234.53419752437131
 21
175.24037111074878
  0
LINE
  8
_1-3_
  6
CONTINUOUS
 62
    7
 10
234.53419752437131
 20
175.24037111074878
 11
227.33419752437129
 21
175.24037111074878
  0
LINE
  8
_1-3_
  6
CONTINUOUS
 62
    7
 10
227.33419752437129
 20
175.24037111074878
 11
227.33419752437129
 21
163.24037111074878
  0
LINE
  8
_1-3_
  6
CONTINUOUS
 62
    7
 10
227.33419752437129
 20
175.24037111074878
 11
234.11514573282702
 21
163.24037111074878
  0
LINE
  8
_1-3_
  6
DASHED1
 62
    7
 10
227.48199644125438
 20
173.32046035467999
 11
230.980682988485
 21
173.32046035467999
  0
LINE
  8
_1-3_
  6
DASHED1
 62
    7
 10
227.48199644125438
 20
173.72046035468
 11
230.980682988485
 21
173.72046035468
  0
LINE
  8
_1-3_
  6
DASHED1
 62
    7
 10
230.980682988485
 20
173.72046035468
 11
231.35636672775647
 21
173.52046035468001
  0
LINE
  8
_1-3_
  6
DASHED1
 62
    7
 10
230.980682988485
 20
173.32046035467999
 11
231.35636672775647
 21
173.52046035468001
  0
LINE
  8
ADD_LINE
  6
DOT
 62
    4
 10
226.91984741879182
 20
173.52046035468001
 11
231.35636672775647
 21
173.52046035468001
  0
LINE
  8
_1-3_
  6
CONTINUOUS
 62
    7
 10
227.26223361364566
 20
172.92046035468002
 11
227.26223361364566
 21
174.12046035468001
  0
LINE
  8
_1-3_
  6
CONTINUOUS
 62
    7
 10
227.26223361364566
 20
174.12046035468001
 11
226.96223361364565
 21
174.12046035468001
  0
LINE
  8
_1-3_
  6
CONTINUOUS
 62
    7
 10
226.96223361364565
 20
174.12046035468001
 11
226.96223361364565
 21
172.92046035468002
  0
LINE
  8
_1-3_
  6
CONTINUOUS
 62
    7
 10
226.96223361364565
 20
172.92046035468002
 11
227.26223361364566
 21
172.92046035468002
  0
LINE
  8
_1-3_
  6
CONTINUOUS
 62
    7
 10
227.26223361364566
 20
173.32046035467999
 11
227.48199644125438
 21
173.32046035467999
  0
LINE
  8
_1-3_
  6
CONTINUOUS
 62
    7
 10
227.26223361364566
 20
173.72046035468
 11
227.48199644125438
 21
173.72046035468
  0
LINE
  8
_1-3_
  6
DASHED1
 62
    7
 10
227.46247853861445
 20
166.83311237530782
 11
230.96116508584507
 21
166.83311237530782
  0
LINE
  8
_1-3_
  6
DASHED1
 62
    7
 10
227.46247853861445
 20
167.23311237530783
 11
230.96116508584507
 21
167.23311237530783
  0
LINE
  8
_1-3_
  6
DASHED1
 62
    7
 10
230.96116508584507
 20
167.23311237530783
 11
231.33684882511653
 21
167.03311237530784
  0
LINE
  8
_1-3_
  6
DASHED1
 62
    7
 10
230.96116508584507
 20
166.83311237530782
 11
231.33684882511653
 21
167.03311237530784
  0
LINE
  8
ADD_LINE
  6
DOT
 62
    4
 10
226.90032951615188
 20
167.03311237530784
 11
231.33684882511653
 21
167.03311237530784
  0
LINE
  8
_1-3_
  6
CONTINUOUS
 62
    7
 10
227.2427157110057
 20
166.43311237530781
 11
227.2427157110057
 21
167.63311237530783
  0
LINE
  8
_1-3_
  6
CONTINUOUS
 62
    7
 10
227.2427157110057
 20
167.63311237530783
 11
226.94271571100572
 21
167.63311237530783
  0
LINE
  8
_1-3_
  6
CONTINUOUS
 62
    7
 10
226.94271571100572
 20
167.63311237530783
 11
226.94271571100572
 21
166.43311237530781
  0
LINE
  8
_1-3_
  6
CONTINUOUS
 62
    7
 10
226.94271571100572
 20
166.43311237530781
 11
227.2427157110057
 21
166.43311237530781
  0
LINE
  8
_1-3_
  6
CONTINUOUS
 62
    7
 10
227.2427157110057
 20
166.83311237530782
 11
227.46247853861445
 21
166.83311237530782
  0
LINE
  8
_1-3_
  6
CONTINUOUS
 62
    7
 10
227.2427157110057
 20
167.23311237530783
 11
227.46247853861445
 21
167.23311237530783
  0
LINE
  8
_1-3_
  6
CONTINUOUS
 62
    7
 10
224.28823154922944
 20
178.28471492899439
 11
226.04340910625865
 21
178.96413849945731
  0
LINE
  8
_1-3_
  6
CONTINUOUS
 62
    7
 10
226.04340910625865
 20
178.96413849945731
 11
227.34563761631256
 21
175.52927489322812
  0
LINE
  8
_1-3_
  6
CONTINUOUS
 62
    7
 10
227.34563761631256
 20
175.52927489322812
 11
225.70369732102716
 21
174.86872419972249
  0
LINE
  8
_1-3_
  6
DASHED1
 62
    7
 10
224.28823154922944
 20
178.28471492899439
 11
225.70369732102716
 21
174.86872419972249
  0
LINE
  8
_1-3_
  6
CONTINUOUS
 62
    7
 10
225.70369732102716
 20
174.86872419972249
 11
227.28901898544066
 21
174.11380912143036
  0
LINE
  8
_1-3_
  6
CONTINUOUS
 62
    7
 10
227.28901898544066
 20
174.11380912143036
 11
227.30789186239795
 21
173.05692801182138
  0
LINE
  8
_1-3_
  6
CONTINUOUS
 62
    7
 10
224.40146881097326
 20
170.99978442347532
 11
225.81693458277098
 21
171.58484360915173
  0
LINE
  8
_1-3_
  6
CONTINUOUS
 62
    7
 10
225.81693458277098
 20
171.58484360915173
 11
227.04367158499571
 21
168.07448849509331
  0
LINE
  8
_1-3_
  6
CONTINUOUS
 62
    7
 10
227.04367158499571
 20
168.07448849509331
 11
225.85468033668559
 21
167.58379369420342
  0
LINE
  8
_1-3_
  6
DASHED1
 62
    7
 10
224.35732806645427
 20
170.97735923323464
 11
225.85468033668559
 21
167.58379369420342
  0
LINE
  8
_1-3_
  6
CONTINUOUS
 62
    7
 10
225.85468033668559
 20
167.58379369420342
 11
227.2427157110057
 21
167.63311237530783
  0
LINE
  8
_1-3_
  6
CONTINUOUS
 62
    7
 10
227.2427157110057
 20
167.63311237530783
 11
227.30789186239795
 21
166.58353121546634
  0
SOLID
  8
_1-4_
  6
CONTINUOUS
 62
    8
 10
225.36227578273594
 20
167.39974068281927
 11
230.1627593386456
 21
155.9012809610108
 12
225.36227578273594
 22
167.39974068281927
 13
227.33419752437129
 23
163.24037111074878
  0
SOLID
  8
_1-4_
  6
CONTINUOUS
 62
    8
 10
227.33419752437129
 20
163.24037111074878
 11
230.16167060342599
 21
155.9008850572946
 12
234.52294426995357
 22
163.24037111074878
 13
231.66318493514052
 23
156.45354190115017
  0
SOLID
  8
_1-4_
  6
CONTINUOUS
 62
    8
 10
234.52294426995357
 20
163.24037111074878
 11
231.66318092468461
 21
156.45355279699453
 12
234.52294426995357
 22
150.07477631440034
 13
233.49233433600622
 23
151.48408422325741
  0
SOLID
  8
_1-4_
  6
CONTINUOUS
 62
    8
 10
227.33419752437129
 20
163.24037111074878
 11
227.33755914621463
 21
166.34478436237225
 12
226.94271571100572
 22
166.43311237530781
 13
226.94271571100572
 23
166.43311237530781
  0
SOLID
  8
_1-4_
  6
CONTINUOUS
 62
    8
 10
226.94271571100572
 20
167.62245298967181
 11
226.84075432854732
 21
168.00044291728253
 12
225.36227578273594
 22
167.39974068281927
 13
225.36227578273594
 23
167.39974068281927
  0
SOLID
  8
_1-4_
  6
CONTINUOUS
 62
    8
 10
225.36227578273594
 20
167.39974068281927
 11
227.33419752437129
 21
163.24037111074878
 12
226.94271571100572
 22
166.43311237530781
 13
226.94271571100572
 23
166.43311237530781
  0
SOLID
  8
_1-4_
  6
CONTINUOUS
 62
    8
 10
225.36227578273594
 20
167.39974068281927
 11
226.94271571100572
 21
166.43311237530781
 12
226.94271571100572
 22
167.62245298967181
 13
226.94271571100572
 23
167.62245298967181
  0
SOLID
  8
_1-4_
  6
CONTINUOUS
 62
    8
 10
226.56516715558297
 20
175.14770076695652
 11
226.84060762997021
 21
168.00038331400773
 12
226.94271571100572
 22
167.63311237530783
 13
226.94271571100572
 23
167.63311237530783
  0
SOLID
  8
_1-4_
  6
CONTINUOUS
 62
    8
 10
226.56516715558297
 20
175.14770076695652
 11
226.94271571100572
 21
167.63311237530783
 12
227.30089452846445
 22
167.66471060137866
 13
227.30089452846445
 23
167.66471060137866
  0
SOLID
  8
_1-4_
  6
CONTINUOUS
 62
    8
 10
227.30089452846445
 20
167.66471060137866
 11
227.30089452846445
 21
172.85275401302889
 12
226.96223361364565
 22
172.92046035468002
 13
226.96223361364565
 23
172.92046035468002
  0
SOLID
  8
_1-4_
  6
CONTINUOUS
 62
    8
 10
227.28256221958938
 20
174.13601563428512
 11
227.33419752437129
 21
175.24037111074878
 12
226.56516715558297
 22
175.14770076695652
 13
226.56516715558297
 23
175.14770076695652
  0
SOLID
  8
_1-4_
  6
CONTINUOUS
 62
    8
 10
226.56516715558297
 20
175.14770076695652
 11
227.30089452846445
 21
167.66471060137866
 12
226.96223361364565
 22
172.92046035468002
 13
226.96223361364565
 23
172.92046035468002
  0
SOLID
  8
_1-4_
  6
CONTINUOUS
 62
    8
 10
226.56516715558297
 20
175.14770076695652
 11
226.96223361364565
 21
172.92046035468002
 12
226.96223361364565
 22
174.12046035468001
 13
226.96223361364565
 23
174.12046035468001
  0
SOLID
  8
_1-4_
  6
CONTINUOUS
 62
    8
 10
226.56516715558297
 20
175.14770076695652
 11
226.96223361364565
 21
174.12046035468001
 12
227.28256221958938
 22
174.13601563428512
 13
227.28256221958938
 23
174.13601563428512
  0
SOLID
  8
_1-4_
  6
CONTINUOUS
 62
    8
 10
227.08808116780506
 20
175.3846023087516
 11
226.56613976705492
 21
175.12653483034228
 12
227.08808116780506
 22
175.3846023087516
 13
227.33419752437129
 23
175.24037111074878
  0
SOLID
  8
_1-4_
  6
CONTINUOUS
 62
    8
 10
227.08808116780506
 20
175.3846023087516
 11
227.33419752437129
 21
175.24037111074878
 12
234.52294426995357
 22
183.09788257415667
 13
234.52294426995357
 23
175.24037111074878
  0
ENDSEC
  0
EOF
