  0
SECTION
  2
HEADER
  9
$ACADVER
  1
AC1009
  9
$INSBASE
 10
0
 20
0
 30
0
  9
$EXTMIN
 10
0
 20
0
  9
$EXTMAX
 10
420
 20
297
  9
$LIMMIN
 10
0
 20
0
  9
$LIMMAX
 10
420
 20
297
  9
$LTSCALE
 40
1
  0
ENDSEC
  0
SECTION
  2
TABLES
  0
TABLE
  2
LTYPE
 70
     9
  0
LTYPE
  2
CONTINUOUS
 70
    64
  3
実線
 72
    65
 73
     0
 40
0.0
  0
LTYPE
  2
DASHED1
 70
    64
  3
--  --  --  --  --  --  --  --  
 72
    65
 73
     2
 40
2.5
 49
1.25
 49
-1.25
  0
LTYPE
  2
DASHED2
 70
    64
  3
----    ----    ----    ----    
 72
    65
 73
     2
 40
5.0
 49
2.5
 49
-2.5
  0
LTYPE
  2
DASHED3
 70
    64
  3
------  ------  ------  ------  
 72
    65
 73
     2
 40
5.0
 49
3.75
 49
-1.25
  0
LTYPE
  2
CENTER1
 70
    64
  3
----- - ----- - ----- - ----- - 
 72
    65
 73
     4
 40
10.0
 49
6.25
 49
-1.25
 49
1.25
 49
-1.25
  0
LTYPE
  2
CENTER2
 70
    64
  3
----------  --  ----------  --  
 72
    65
 73
     4
 40
20.0
 49
12.5
 49
-2.5
 49
2.5
 49
-2.5
  0
LTYPE
  2
PHANTOM1
 70
    64
  3
--- - - --- - - --- - - --- - - 
 72
    65
 73
     6
 40
10.0
 49
3.25
 49
-1.25
 49
1.25
 49
-1.25
 49
1.25
 49
-1.25
  0
LTYPE
  2
PHANTOM2
 70
    64
  3
--------  -  -  --------  -  -  
 72
    65
 73
     6
 40
20.0
 49
10.0
 49
-2.5
 49
1.25
 49
-2.5
 49
1.25
 49
-2.5
  0
LTYPE
  2
DOT
 70
    64
  3
-   -   -   -   -   -   -   -   
 72
    65
 73
     2
 40
2.5
 49
0.625
 49
-1.875
  0
LTYPE
  2
DUMMY
 70
    64
  3
ダミー
 72
    65
 73
     0
 40
0.0
  0
LTYPE
  2
RAND1
 70
    64
  3
ランダム線1
 72
    65
 73
     4
 40
10.0
 49
1.0
 49
-2.0
 49
3.0
 49
-4.0
  0
LTYPE
  2
RAND2
 70
    64
  3
ランダム線2
 72
    65
 73
     4
 40
14.0
 49
2.0
 49
-3.0
 49
4.0
 49
-5.0
  0
LTYPE
  2
RAND3
 70
    64
  3
ランダム線3
 72
    65
 73
     4
 40
18.0
 49
3.0
 49
-4.0
 49
5.0
 49
-6.0
  0
LTYPE
  2
RAND4
 70
    64
  3
ランダム線4
 72
    65
 73
     4
 40
22.0
 49
4.0
 49
-5.0
 49
6.0
 49
-7.0
  0
LTYPE
  2
RAND5
 70
    64
  3
ランダム線5
 72
    65
 73
     4
 40
26.0
 49
5.0
 49
-6.0
 49
7.0
 49
-8.0
  0
LTYPE
  2
LONG1
 70
    64
  3
----------  --  ----------  --  
 72
    65
 73
     4
 40
40.0
 49
32.5
 49
-2.5
 49
2.5
 49
-2.5
  0
LTYPE
  2
LONG2
 70
    64
  3
--------  -  -  --------  -  -  
 72
    65
 73
     6
 40
40.0
 49
30.0
 49
-2.5
 49
1.25
 49
-2.5
 49
1.25
 49
-2.5
  0
LTYPE
  2
LONG3
 70
    64
  3
+++++++++++++++..+++++++++++++++
 72
    65
 73
     2
 40
40.0
 49
37.5
 49
-2.5
  0
LTYPE
  2
LONG4
 70
    64
  3
+++++++++++++++..+++++++++++++++
 72
    65
 73
     2
 40
80.0
 49
75.0
 49
-5.0
  0
LTYPE
  2
LONG5
 70
    64
  3
----------  --  ----------  --  
 72
    65
 73
     4
 40
60.0
 49
37.5
 49
-7.5
 49
7.5
 49
-7.5
  0
LTYPE
  2
dashed
 70
   64
  3
-------   -------------   ------
 72
   65
 73
    2
 40
7.5
 49
6
 49
-1.5
  0
LTYPE
  2
dashed_spaced
 70
   64
  3
----        --------        ----
 72
   65
 73
    2
 40
12
 49
6
 49
-6
  0
LTYPE
  2
long_dashed_dotted
 70
   64
  3
------------- --- --------------
 72
   65
 73
    4
 40
15.25
 49
12
 49
-1.5
 49
0.25
 49
-1.5
  0
LTYPE
  2
long_dashed_double-dotted
 70
   64
  3
----------- --- --- ------------
 72
   65
 73
    6
 40
17
 49
12
 49
-1.5
 49
0.25
 49
-1.5
 49
0.25
 49
-1.5
  0
LTYPE
  2
long_dashed_triplicate-dotted
 70
   64
  3
--------- --- --- --- ----------
 72
   65
 73
    8
 40
18.75
 49
12
 49
-1.5
 49
0.25
 49
-1.5
 49
0.25
 49
-1.5
 49
0.25
 49
-1.5
  0
LTYPE
  2
dotted
 70
   64
  3
   -       -       -       -    
 72
   65
 73
    2
 40
1.75
 49
0.25
 49
-1.5
  0
LTYPE
  2
chain
 70
   64
  3
-------------- -- --------------
 72
   65
 73
    4
 40
18.5
 49
12
 49
-1.5
 49
3.5
 49
-1.5
  0
LTYPE
  2
chain_double_dash
 70
   64
  3
------------ -- -- -------------
 72
   65
 73
    6
 40
23.5
 49
12
 49
-1.5
 49
3.5
 49
-1.5
 49
3.5
 49
-1.5
  0
LTYPE
  2
dashed_dotted
 70
   64
  3
-----------     -     ----------
 72
   65
 73
    4
 40
9.25
 49
6
 49
-1.5
 49
0.25
 49
-1.5
  0
LTYPE
  2
double-dashed_dotted
 70
   64
  3
------   -----------   -   -----
 72
   65
 73
    6
 40
16.75
 49
6
 49
-1.5
 49
6
 49
-1.5
 49
0.25
 49
-1.5
  0
LTYPE
  2
dashed_double-dotted
 70
   64
  3
---------    -    -    ---------
 72
   65
 73
    6
 40
11
 49
6
 49
-1.5
 49
0.25
 49
-1.5
 49
0.25
 49
-1.5
  0
LTYPE
  2
double-dashed_double-dotted
 70
   64
  3
-----   ---------   -   -   ----
 72
   65
 73
    8
 40
18.5
 49
6
 49
-1.5
 49
6
 49
-1.5
 49
0.25
 49
-1.5
 49
0.25
 49
-1.5
  0
LTYPE
  2
dashed_triplicate-dotted
 70
   64
  3
-------    -    -    -    ------
 72
   65
 73
    8
 40
12.75
 49
6
 49
-1.5
 49
0.25
 49
-1.5
 49
0.25
 49
-1.5
 49
0.25
 49
-1.5
  0
LTYPE
  2
double-dashed_triplicate-dotted
 70
   64
  3
-----  ---------  -  -  -  -----
 72
   65
 73
   10
 40
20.25
 49
6
 49
-1.5
 49
6
 49
-1.5
 49
0.25
 49
-1.5
 49
0.25
 49
-1.5
 49
0.25
 49
-1.5
  0
LTYPE
  2
undefined
 70
   64
  3
--------------------------------
 72
   65
 73
    0
 40
0
  0
ENDTAB
  0
TABLE
  2
STYLE
  5
3
100
AcDbSymbolTable
 70
     1
  0
STYLE
  5
10
100
AcDbSymbolTableRecord
100
AcDbTextStyleTableRecord
  2
STANDARD
 70
     0
 40
0.0
 41
1.0
 50
0.0
 71
     0
 42
0.2
  3
txt
  4
bigfont.shx
  0
STYLE
  5
26
100
AcDbSymbolTableRecord
100
AcDbTextStyleTableRecord
  2
TATEGAKI
 70
    68
 40
0.0
 41
1.0
 50
0.0
 71
     0
 42
1.0
  3
txt
  4
bigfont.shx
  0
ENDTAB
  0
TABLE
  2
LAYER
 70
    5
  0
LAYER
  2
_0-0_
 70
   64
 62
    7
  6
CONTINUOUS
  0
LAYER
  2
_1-0_
 70
   64
 62
    7
  6
CONTINUOUS
  0
LAYER
  2
_1-1_
 70
   64
 62
    7
  6
CONTINUOUS
  0
LAYER
  2
_1-2_
 70
   64
 62
    7
  6
CONTINUOUS
  0
LAYER
  2
ADD_LINE
 70
   64
 62
    7
  6
CONTINUOUS
  0
ENDTAB
  0
ENDSEC
  0
SECTION
  2
BLOCKS
  0
ENDSEC
  0
SECTION
  2
ENTITIES
  0
LINE
  8
_0-0_
  6
CONTINUOUS
 62
    5
 10
6.7567526327597136
 20
280.13513513513516
 11
406.75677325274495
 21
280.13513513513516
  0
LINE
  8
_0-0_
  6
CONTINUOUS
 62
    5
 10
406.75677325274495
 20
10.13513513513513
 11
6.7567526327597136
 21
10.13513513513513
  0
LINE
  8
_0-0_
  6
CONTINUOUS
 62
    5
 10
406.75677325274495
 20
30.135133073136615
 11
6.7567402607685949
 21
30.135133073136615
  0
LINE
  8
_0-0_
  6
CONTINUOUS
 62
    5
 10
371.75678150073907
 20
10.13513513513513
 11
371.75678150073907
 21
30.135133073136615
  0
LINE
  8
_0-0_
  6
CONTINUOUS
 62
    5
 10
137.02703939901818
 20
30.135133073136615
 11
137.02703939901818
 21
10.13513513513513
  0
LINE
  8
_0-0_
  6
CONTINUOUS
 62
    5
 10
214.86486486486487
 20
30.135133073136615
 11
214.86486486486487
 21
10.13513513513513
  0
LINE
  8
_0-0_
  6
CONTINUOUS
 62
    5
 10
137.02703939901818
 20
20.135134104135886
 11
214.86486486486487
 21
20.135134104135886
  0
LINE
  8
_0-0_
  6
CONTINUOUS
 62
    5
 10
396.48648648648651
 20
25.945945945945951
 11
383.91891891891896
 21
13.378379924877265
  0
TEXT
  8
_0-0_
 62
    7
 10
141.89189395389042
 20
14.594594594594582
 40
2.5
 41
1
 50
0
  1
縮尺
  0
TEXT
  8
_0-0_
 62
    7
 10
377.10214563318203
 20
22.865493362014362
 40
2.5
 41
1
 50
0
  1
ＮＯ
  0
TEXT
  8
_0-0_
 62
    7
 10
14.594594336844779
 20
24.324324324324323
 40
2.5
 41
1
 50
0
  1
和形
  0
TEXT
  8
_0-0_
 62
    7
 10
383.23801896378802
 20
18.523427086907475
 40
3
 41
1
 50
0
  1
Ｊ
  0
TEXT
  8
_1-0_
 62
    7
 10
169.90681828679266
 20
13.3181144095756
 40
2.5
 41
1
 50
0
  1
1/5
  0
TEXT
  8
_1-2_
 62
    7
 10
39.721903414339636
 20
15.395235628695104
 40
2.5
 41
1
 50
0
  1
袖　　2
  0
TEXT
  8
_1-2_
 62
    7
 10
25.556194717819636
 20
20.211577544341225
 40
2.5
 41
1
 50
0
  1
ＲＣ
  0
TEXT
  8
_1-2_
 62
    7
 10
394.21996657912797
 20
15.424973255879166
 40
2.5
 41
1
 50
0
  1
20
  0
LINE
  8
_1-0_
  6
CONTINUOUS
 62
    3
 10
139.82764333394937
 20
146.16986661343961
 11
141.21711691397471
 21
146.16986661343961
  0
LINE
  8
_1-0_
  6
CONTINUOUS
 62
    3
 10
141.21711691397471
 20
146.16986661343961
 11
141.21711691397471
 21
142.98863178974875
  0
LINE
  8
_1-0_
  6
CONTINUOUS
 62
    3
 10
141.21711691397471
 20
146.16986661343961
 11
141.21711691397471
 21
142.98863178974875
  0
LINE
  8
_1-0_
  6
CONTINUOUS
 62
    3
 10
138.88870818297806
 20
149.05204566749367
 11
133.21704103242908
 21
145.82708822714318
  0
LINE
  8
_1-0_
  6
CONTINUOUS
 62
    3
 10
192.8276202395659
 20
146.16986661343961
 11
194.21709381959124
 21
146.16986661343961
  0
LINE
  8
_1-0_
  6
CONTINUOUS
 62
    3
 10
133.21704103242908
 20
145.82708822714318
 11
133.21704103242908
 21
143.02713342615075
  0
LINE
  8
_1-0_
  6
CONTINUOUS
 62
    3
 10
137.78950625888601
 20
145.39577587230787
 11
133.21704103242908
 21
143.02713342615075
  0
LINE
  8
_1-0_
  6
CONTINUOUS
 62
    3
 10
194.21709381959124
 20
146.16986661343961
 11
194.21709381959124
 21
142.98863178974875
  0
LINE
  8
_1-0_
  6
CONTINUOUS
 62
    3
 10
194.21709381959124
 20
146.16986661343961
 11
194.21709381959124
 21
142.98863178974875
  0
LINE
  8
_1-0_
  6
CONTINUOUS
 62
    3
 10
194.21709381959124
 20
142.38532401419977
 11
194.21709381959124
 21
142.34664916992187
  0
LINE
  8
_1-0_
  6
CONTINUOUS
 62
    3
 10
191.88868508859463
 20
149.05205803948482
 11
186.21704268202791
 21
145.82708822714318
  0
LINE
  8
_1-0_
  6
CONTINUOUS
 62
    3
 10
245.82762188916476
 20
146.16985424144849
 11
247.21712021317236
 21
146.16985424144849
  0
LINE
  8
_1-0_
  6
CONTINUOUS
 62
    3
 10
186.21704268202791
 20
145.82708822714318
 11
186.21704268202791
 21
143.02713342615075
  0
LINE
  8
_1-0_
  6
CONTINUOUS
 62
    3
 10
190.78950790848484
 20
145.39576350031672
 11
186.21704268202791
 21
143.02713342615075
  0
LINE
  8
_1-0_
  6
CONTINUOUS
 62
    3
 10
247.21712021317236
 20
146.16985424144849
 11
247.21712021317236
 21
142.98863178974875
  0
LINE
  8
_1-0_
  6
CONTINUOUS
 62
    3
 10
247.21712021317236
 20
146.16985424144849
 11
247.21712021317236
 21
142.98863178974875
  0
LINE
  8
_1-0_
  6
CONTINUOUS
 62
    3
 10
244.88866199421116
 20
149.05205803948482
 11
239.21701958764444
 21
145.82708822714318
  0
LINE
  8
_1-0_
  6
CONTINUOUS
 62
    3
 10
239.21701958764444
 20
145.82708822714318
 11
239.21701958764444
 21
143.02713342615075
  0
LINE
  8
_1-0_
  6
CONTINUOUS
 62
    3
 10
243.78948481410137
 20
145.39576350031672
 11
239.21701958764444
 21
143.02713342615075
  0
LINE
  8
_1-0_
  6
CONTINUOUS
 62
    3
 10
300.21709711878884
 20
146.16985424144849
 11
300.21709711878884
 21
142.98863178974875
  0
LINE
  8
_1-0_
  6
CONTINUOUS
 62
    3
 10
300.21709711878884
 20
146.16985424144849
 11
300.21709711878884
 21
142.98863178974875
  0
LINE
  8
_1-0_
  6
CONTINUOUS
 62
    3
 10
300.21709711878884
 20
142.98863178974875
 11
300.21709711878884
 21
129.56985886032518
  0
LINE
  8
_1-0_
  6
CONTINUOUS
 62
    3
 10
297.01710635654229
 20
141.3640408902555
 11
297.01710635654229
 21
129.56985886032518
  0
LINE
  8
_1-1_
  6
CONTINUOUS
 62
    7
 10
223.29312877788939
 20
136.72626392261404
 11
99.19005689497132
 21
136.72626392261404
  0
LINE
  8
_1-1_
  6
CONTINUOUS
 62
    7
 10
222.44495455386067
 20
133.12654649889149
 11
222.44495455386067
 21
133.72655095280828
  0
LINE
  8
_1-1_
  6
CONTINUOUS
 62
    7
 10
222.44495455386067
 20
133.72655095280828
 11
227.24496544121288
 21
133.72655095280828
  0
LINE
  8
_1-1_
  6
CONTINUOUS
 62
    7
 10
227.24496544121288
 20
133.72655095280828
 11
227.24496544121288
 21
133.12654649889149
  0
LINE
  8
_1-1_
  6
CONTINUOUS
 62
    7
 10
227.24496544121288
 20
133.12654649889149
 11
222.44495455386067
 21
133.12654649889149
  0
LINE
  8
_1-1_
  6
CONTINUOUS
 62
    7
 10
222.44495455386067
 20
133.12654649889149
 11
227.24496544121288
 21
133.72655095280828
  0
LINE
  8
_1-1_
  6
CONTINUOUS
 62
    7
 10
161.32111999542528
 20
133.12654649889149
 11
161.32111999542528
 21
133.72655095280828
  0
LINE
  8
_1-1_
  6
CONTINUOUS
 62
    7
 10
161.32111999542528
 20
133.72655095280828
 11
166.12113088277749
 21
133.72655095280828
  0
LINE
  8
_1-1_
  6
CONTINUOUS
 62
    7
 10
166.12113088277749
 20
133.72655095280828
 11
166.12113088277749
 21
133.12654649889149
  0
LINE
  8
_1-1_
  6
CONTINUOUS
 62
    7
 10
166.12113088277749
 20
133.12654649889149
 11
161.32111999542528
 21
133.12654649889149
  0
LINE
  8
_1-1_
  6
CONTINUOUS
 62
    7
 10
161.32111999542528
 20
133.12654649889149
 11
166.12113088277749
 21
133.72655095280828
  0
LINE
  8
_1-1_
  6
CONTINUOUS
 62
    7
 10
99.57116370979395
 20
133.12654649889149
 11
99.57116370979395
 21
133.72655095280828
  0
LINE
  8
_1-1_
  6
CONTINUOUS
 62
    7
 10
99.57116370979395
 20
133.72655095280828
 11
104.37117459714614
 21
133.72655095280828
  0
LINE
  8
_1-1_
  6
CONTINUOUS
 62
    7
 10
104.37117459714614
 20
133.72655095280828
 11
104.37117459714614
 21
133.12654649889149
  0
LINE
  8
_1-1_
  6
CONTINUOUS
 62
    7
 10
104.37117459714614
 20
133.12654649889149
 11
99.57116370979395
 21
133.12654649889149
  0
LINE
  8
_1-1_
  6
CONTINUOUS
 62
    7
 10
99.57116370979395
 20
133.12654649889149
 11
104.37117459714614
 21
133.72655095280828
  0
LINE
  8
_1-2_
  6
CONTINUOUS
 62
    7
 10
300.21709711878884
 20
191.69962290171031
 11
239.21709381959127
 21
191.69962290171031
  0
LINE
  8
_1-2_
  6
CONTINUOUS
 62
    7
 10
300.21709711878884
 20
161.35526090054898
 11
300.21709711878884
 21
191.69962290171031
  0
LINE
  8
_1-2_
  6
CONTINUOUS
 62
    7
 10
239.21709381959127
 20
161.35526090054898
 11
239.21709381959127
 21
191.69962290171031
  0
LINE
  8
_1-2_
  6
CONTINUOUS
 62
    7
 10
239.21709381959127
 20
191.69962290171031
 11
186.21716640193924
 21
191.69962290171031
  0
LINE
  8
_1-2_
  6
CONTINUOUS
 62
    7
 10
186.21716640193924
 20
161.35526090054898
 11
186.21716640193924
 21
191.69962290171031
  0
LINE
  8
_1-2_
  6
CONTINUOUS
 62
    7
 10
186.21716640193924
 20
191.69962290171031
 11
133.21704103242908
 21
191.69962290171031
  0
LINE
  8
_1-2_
  6
CONTINUOUS
 62
    7
 10
133.21704103242908
 20
161.35526090054898
 11
133.21704103242908
 21
191.69962290171031
  0
LINE
  8
_1-2_
  6
CONTINUOUS
 62
    7
 10
133.21704103242908
 20
191.69962290171031
 11
99.19005689497132
 21
191.69962290171031
  0
LINE
  8
_1-2_
  6
CONTINUOUS
 62
    7
 10
164.44037114354606
 20
134.88301045185813
 11
140.96641088568077
 21
70.388828999287384
  0
LINE
  8
_1-2_
  6
CONTINUOUS
 62
    7
 10
145.40627311118755
 20
144.32432432432432
 11
155.54723545414572
 21
172.18637002480997
  0
LINE
  8
_1-2_
  6
CONTINUOUS
 62
    7
 10
155.54723545414572
 20
172.18637002480997
 11
161.62248932740374
 21
172.18637002480997
  0
LINE
  8
_1-2_
  6
CONTINUOUS
 62
    7
 10
299.46032716524155
 20
134.59459459459461
 11
312.44522673766562
 21
170.27027027027029
  0
LINE
  8
_1-2_
  6
CONTINUOUS
 62
    7
 10
312.44522673766562
 20
170.27027027027029
 11
317.29816500307948
 21
170.27027027027029
  0
LINE
  8
_1-2_
  6
CONTINUOUS
 62
    7
 10
137.55644268994598
 20
67.897586307010144
 11
140.05966765563431
 21
67.897586307010144
  0
LINE
  8
_1-2_
  6
CONTINUOUS
 62
    7
 10
137.55644268994598
 20
74.90530477987754
 11
142.61027734735731
 21
74.90530477987754
  0
LINE
  8
_1-2_
  6
CONTINUOUS
 62
    7
 10
137.55644268994598
 20
82.860012569942995
 11
145.50554596802874
 21
82.860012569942995
  0
LINE
  8
_1-2_
  6
CONTINUOUS
 62
    7
 10
137.55644268994598
 20
91.382922610721081
 11
148.60763716444978
 21
91.382922610721081
  0
LINE
  8
_1-2_
  6
CONTINUOUS
 62
    7
 10
140.96641088568077
 20
70.388828999287384
 11
140.05966765563431
 21
67.897586307010144
  0
LINE
  8
_1-0_
  6
CONTINUOUS
 62
    3
 10
297.01710635654229
 20
129.56985886032518
 11
300.21709711878884
 21
129.56985886032518
  0
LINE
  8
_1-1_
  6
CONTINUOUS
 62
    7
 10
293.01711790373395
 20
131.58614699904984
 11
99.19005689497132
 21
131.58614699904984
  0
LINE
  8
_1-1_
  6
CONTINUOUS
 62
    7
 10
274.43121999410562
 20
133.12626194309544
 11
99.19005689497132
 21
133.12626194309544
  0
LINE
  8
_1-1_
  6
CONTINUOUS
 62
    7
 10
274.43121999410562
 20
133.72626639701227
 11
99.19005689497132
 21
133.72626639701227
  0
LINE
  8
_1-2_
  6
CONTINUOUS
 62
    7
 10
223.29312877788939
 20
136.72626392261404
 11
274.43121999410562
 21
136.72626392261404
  0
LINE
  8
_1-1_
  6
DASHED1
 62
    7
 10
275.01710800614114
 20
125.58615194784629
 11
99.19005689497132
 21
125.58615194784629
  0
LINE
  8
_1-1_
  6
CONTINUOUS
 62
    7
 10
275.01710800614114
 20
125.58615194784629
 11
293.01711790373395
 21
125.58615194784629
  0
LINE
  8
_1-1_
  6
CONTINUOUS
 62
    7
 10
293.01711790373395
 20
131.58614699904984
 11
293.01711790373395
 21
125.58615194784629
  0
LINE
  8
_1-1_
  6
CONTINUOUS
 62
    7
 10
275.01710800614114
 20
131.58614699904984
 11
275.01710800614114
 21
125.58615194784629
  0
LINE
  8
_1-1_
  6
DASHED1
 62
    7
 10
288.01710140774583
 20
101.5861531850454
 11
99.19005689497132
 21
101.5861531850454
  0
LINE
  8
_1-1_
  6
CONTINUOUS
 62
    7
 10
288.01710140774583
 20
99.586152772645704
 11
99.19005689497132
 21
99.586152772645704
  0
LINE
  8
_1-1_
  6
CONTINUOUS
 62
    7
 10
288.01710140774583
 20
101.5861531850454
 11
290.01710800614114
 21
101.5861531850454
  0
LINE
  8
_1-1_
  6
CONTINUOUS
 62
    7
 10
290.01710800614114
 20
125.58615194784629
 11
290.01710800614114
 21
101.5861531850454
  0
LINE
  8
_1-1_
  6
CONTINUOUS
 62
    7
 10
288.01710140774583
 20
101.5861531850454
 11
288.01710140774583
 21
99.586152772645704
  0
LINE
  8
_1-1_
  6
CONTINUOUS
 62
    7
 10
247.85254567769934
 20
131.58614699904984
 11
215.85253907930408
 21
99.586152772645704
  0
LINE
  8
_1-1_
  6
CONTINUOUS
 62
    7
 10
250.11528387976861
 20
131.58614699904984
 11
218.11527728137335
 21
99.586152772645704
  0
LINE
  8
_1-1_
  6
CONTINUOUS
 62
    7
 10
252.37802208183788
 20
131.58614699904984
 11
220.3780154834426
 21
99.586152772645704
  0
LINE
  8
_1-1_
  6
CONTINUOUS
 62
    7
 10
139.84641164449624
 20
131.58614699904984
 11
107.8464174180921
 21
99.586152772645704
  0
LINE
  8
_1-1_
  6
CONTINUOUS
 62
    7
 10
142.10914984656549
 20
131.58614699904984
 11
110.10915562016135
 21
99.586152772645704
  0
LINE
  8
_1-1_
  6
CONTINUOUS
 62
    7
 10
144.37188804863476
 20
131.58614699904984
 11
112.37189382223062
 21
99.586152772645704
  0
LINE
  8
_1-1_
  6
CONTINUOUS
 62
    7
 10
290.96777180470531
 20
125.58615194784629
 11
293.01711790373395
 21
127.635498046875
  0
LINE
  8
_1-1_
  6
CONTINUOUS
 62
    7
 10
288.70503360263604
 20
125.58615194784629
 11
293.01711790373395
 21
129.89823624894427
  0
LINE
  8
_1-1_
  6
CONTINUOUS
 62
    7
 10
286.44229540056676
 20
125.58615194784629
 11
292.4422904517703
 21
131.58614699904984
  0
LINE
  8
_1-1_
  6
CONTINUOUS
 62
    7
 10
284.17955719849749
 20
125.58615194784629
 11
290.17955224970103
 21
131.58614699904984
  0
LINE
  8
_1-1_
  6
CONTINUOUS
 62
    7
 10
281.91684374041051
 20
125.58615194784629
 11
287.91683879161405
 21
131.58614699904984
  0
LINE
  8
_1-1_
  6
CONTINUOUS
 62
    7
 10
279.65410553834124
 20
125.58615194784629
 11
285.65410058954478
 21
131.58614699904984
  0
LINE
  8
_1-1_
  6
CONTINUOUS
 62
    7
 10
277.39136733627197
 20
125.58615194784629
 11
283.39136238747551
 21
131.58614699904984
  0
LINE
  8
_1-1_
  6
CONTINUOUS
 62
    7
 10
275.1286291342027
 20
125.58615194784629
 11
281.12862418540624
 21
131.58614699904984
  0
LINE
  8
_1-1_
  6
CONTINUOUS
 62
    7
 10
275.01710800614114
 20
127.73736902185389
 11
278.86588598333708
 21
131.58614699904984
  0
LINE
  8
_1-1_
  6
CONTINUOUS
 62
    7
 10
275.01710800614114
 20
130.00010722392315
 11
276.60314778126781
 21
131.58614699904984
  0
LINE
  8
_1-1_
  6
CONTINUOUS
 62
    7
 10
282.01710635654229
 20
137.03661532015414
 11
291.01711130533874
 21
139.14299629830026
  0
LINE
  8
_1-1_
  6
CONTINUOUS
 62
    7
 10
282.01710635654229
 20
137.03661532015414
 11
282.01710635654229
 21
131.58614699904984
  0
LINE
  8
_1-1_
  6
CONTINUOUS
 62
    7
 10
291.01711130533874
 20
139.14299629830026
 11
291.01711130533874
 21
131.58614699904984
  0
LINE
  8
_1-1_
  6
CONTINUOUS
 62
    7
 10
282.01710635654229
 20
137.03661532015414
 11
291.01711130533874
 21
131.58614699904984
  0
LINE
  8
_1-1_
  6
CONTINUOUS
 62
    7
 10
274.43121999410562
 20
136.72626392261404
 11
281.64124526595947
 21
136.72626392261404
  0
LINE
  8
_1-1_
  6
DASHED1
 62
    3
 10
99.19005689497132
 20
132.29050919816302
 11
281.64124526595947
 21
132.29050919816302
  0
LINE
  8
_1-1_
  6
CONTINUOUS
 62
    7
 10
274.43121999410562
 20
133.72626639701227
 11
281.64124526595947
 21
133.72626639701227
  0
LINE
  8
_1-1_
  6
CONTINUOUS
 62
    7
 10
274.43121999410562
 20
133.12626194309544
 11
281.64124526595947
 21
133.12626194309544
  0
LINE
  8
_1-1_
  6
CONTINUOUS
 62
    7
 10
281.64124526595947
 20
136.72626392261404
 11
281.64124526595947
 21
131.58614699904984
  0
LINE
  8
_1-1_
  6
CONTINUOUS
 62
    7
 10
276.84123437860728
 20
133.12654649889149
 11
276.84123437860728
 21
133.72655095280828
  0
LINE
  8
_1-1_
  6
CONTINUOUS
 62
    7
 10
276.84123437860728
 20
133.72655095280828
 11
281.64124526595947
 21
133.72655095280828
  0
LINE
  8
_1-1_
  6
CONTINUOUS
 62
    7
 10
281.64124526595947
 20
133.72655095280828
 11
281.64124526595947
 21
133.12654649889149
  0
LINE
  8
_1-1_
  6
CONTINUOUS
 62
    7
 10
281.64124526595947
 20
133.12654649889149
 11
276.84123437860728
 21
133.12654649889149
  0
LINE
  8
_1-1_
  6
CONTINUOUS
 62
    7
 10
276.84123437860728
 20
133.12654649889149
 11
281.64124526595947
 21
133.72655095280828
  0
LINE
  8
_1-1_
  6
CONTINUOUS
 62
    7
 10
297.01710635654229
 20
84.324324324324323
 11
293.01711790373395
 21
84.324324324324323
  0
LINE
  8
_1-1_
  6
CONTINUOUS
 62
    7
 10
297.01710635654229
 20
94.054054054054063
 11
297.01710635654229
 21
84.324324324324323
  0
LINE
  8
_1-1_
  6
CONTINUOUS
 62
    7
 10
293.01711790373395
 20
94.054054054054063
 11
293.01711790373395
 21
84.324324324324323
  0
LINE
  8
_1-1_
  6
CONTINUOUS
 62
    7
 10
293.01711790373395
 20
84.324324324324323
 11
290.01710800614114
 21
84.324324324324323
  0
LINE
  8
_1-1_
  6
CONTINUOUS
 62
    7
 10
290.01710800614114
 20
94.054054054054063
 11
290.01710800614114
 21
84.324324324324323
  0
LINE
  8
_1-1_
  6
CONTINUOUS
 62
    7
 10
292.33715327113259
 20
127.4333397117821
 11
306.14521090151698
 21
89.496014569256758
  0
LINE
  8
_1-1_
  6
CONTINUOUS
 62
    7
 10
306.14521090151698
 20
89.496014569256758
 11
309.40226128686322
 21
89.496014569256758
  0
LINE
  8
_1-1_
  6
CONTINUOUS
 62
    7
 10
289.40046322415208
 20
135.41629275760135
 11
309.94296678728551
 21
191.85627705342063
  0
LINE
  8
_1-1_
  6
CONTINUOUS
 62
    7
 10
309.94296678728551
 20
191.85627705342063
 11
312.97202612005583
 21
191.85627705342063
  0
LINE
  8
_1-1_
  6
CONTINUOUS
 62
    7
 10
265.60660039159291
 20
131.58614699904984
 11
264.6065970923953
 21
125.58615194784629
  0
LINE
  8
_1-1_
  6
CONTINUOUS
 62
    7
 10
271.60662018677874
 20
131.58614699904984
 11
272.60662348597634
 21
125.58615194784629
  0
LINE
  8
_1-1_
  6
CONTINUOUS
 62
    7
 10
264.6065970923953
 20
125.58615194784629
 11
272.60662348597634
 21
125.58615194784629
  0
LINE
  8
_1-1_
  6
CONTINUOUS
 62
    7
 10
265.60660039159291
 20
131.58614699904984
 11
271.60662018677874
 21
131.58614699904984
  0
LINE
  8
_1-1_
  6
CONTINUOUS
 62
    7
 10
264.70705766038515
 20
126.18889061180322
 11
265.30979632434207
 21
125.58615194784629
  0
LINE
  8
_1-1_
  6
CONTINUOUS
 62
    7
 10
264.90909227556676
 20
127.40107355891048
 11
266.72401388663093
 21
125.58615194784629
  0
LINE
  8
_1-1_
  6
CONTINUOUS
 62
    7
 10
265.11112689074832
 20
128.61326887800888
 11
268.13823144891978
 21
125.58615194784629
  0
LINE
  8
_1-1_
  6
CONTINUOUS
 62
    7
 10
265.31316150592994
 20
129.82545182511615
 11
269.55244901120864
 21
125.58615194784629
  0
LINE
  8
_1-1_
  6
CONTINUOUS
 62
    7
 10
265.51517137712926
 20
131.03763477222341
 11
270.96666657349749
 21
125.58615194784629
  0
LINE
  8
_1-1_
  6
CONTINUOUS
 62
    7
 10
266.3808890845828
 20
131.58614699904984
 11
272.38088413578635
 21
125.58615194784629
  0
LINE
  8
_1-1_
  6
CONTINUOUS
 62
    7
 10
267.79510664687166
 20
131.58614699904984
 11
272.36893279235306
 21
127.01232085356843
  0
LINE
  8
_1-1_
  6
CONTINUOUS
 62
    7
 10
269.20932420916051
 20
131.58614699904984
 11
272.08608433109885
 21
128.70938687711148
  0
LINE
  8
_1-1_
  6
CONTINUOUS
 62
    7
 10
270.62354177144931
 20
131.58614699904984
 11
271.80323586984463
 21
130.40645290065456
  0
LINE
  8
_1-1_
  6
CONTINUOUS
 62
    7
 10
176.074979231859
 20
131.58614699904984
 11
175.07497593266135
 21
125.58615194784629
  0
LINE
  8
_1-1_
  6
CONTINUOUS
 62
    7
 10
182.07499902704481
 20
131.58614699904984
 11
183.07500232624244
 21
125.58615194784629
  0
LINE
  8
_1-1_
  6
CONTINUOUS
 62
    7
 10
175.07497593266135
 20
125.58615194784629
 11
183.07500232624244
 21
125.58615194784629
  0
LINE
  8
_1-1_
  6
CONTINUOUS
 62
    7
 10
176.074979231859
 20
131.58614699904984
 11
182.07499902704481
 21
131.58614699904984
  0
LINE
  8
_1-1_
  6
CONTINUOUS
 62
    7
 10
175.17543650065122
 20
126.18889061180322
 11
175.77817516460814
 21
125.58615194784629
  0
LINE
  8
_1-1_
  6
CONTINUOUS
 62
    7
 10
175.3774711158328
 20
127.40107355891048
 11
177.192392726897
 21
125.58615194784629
  0
LINE
  8
_1-1_
  6
CONTINUOUS
 62
    7
 10
175.57950573101439
 20
128.61326887800888
 11
178.60661028918585
 21
125.58615194784629
  0
LINE
  8
_1-1_
  6
CONTINUOUS
 62
    7
 10
175.78154034619598
 20
129.82545182511615
 11
180.02082785147471
 21
125.58615194784629
  0
LINE
  8
_1-1_
  6
CONTINUOUS
 62
    7
 10
175.9835502173953
 20
131.03763477222341
 11
181.43504541376356
 21
125.58615194784629
  0
LINE
  8
_1-1_
  6
CONTINUOUS
 62
    7
 10
176.84926792484885
 20
131.58614699904984
 11
182.84926297605242
 21
125.58615194784629
  0
LINE
  8
_1-1_
  6
CONTINUOUS
 62
    7
 10
178.2634854871377
 20
131.58614699904984
 11
182.83731163261913
 21
127.01232085356843
  0
LINE
  8
_1-1_
  6
CONTINUOUS
 62
    7
 10
179.67770304942655
 20
131.58614699904984
 11
182.55446317136492
 21
128.70938687711148
  0
LINE
  8
_1-1_
  6
CONTINUOUS
 62
    7
 10
181.09192061171541
 20
131.58614699904984
 11
182.27161471011067
 21
130.40645290065456
  0
LINE
  8
ADD_LINE
  6
DOT
 62
    7
 10
264.6065970923953
 20
125.58615194784629
 11
272.60662348597634
 21
125.58615194784629
  0
LINE
  8
_1-1_
  6
CONTINUOUS
 62
    7
 10
178.60661028918585
 20
79.459459459459467
 11
268.60661028918582
 21
79.459459459459467
  0
LINE
  8
_1-1_
  6
CONTINUOUS
 62
    7
 10
178.60661028918585
 20
115.13513513513514
 11
178.60661028918585
 21
79.459459459459467
  0
LINE
  8
_1-1_
  6
CONTINUOUS
 62
    7
 10
268.60661028918582
 20
115.13513513513514
 11
268.60661028918582
 21
79.459459459459467
  0
ARC
  8
_1-0_
  6
CONTINUOUS
 62
    3
 10
138.78775273534293
 20
146.14047076251057
 40
1.0402513194728542
 50
309.08184814453125
 51
1.6144714355468908
  0
ARC
  8
_1-0_
  6
CONTINUOUS
 62
    3
 10
140.7285717281639
 20
146.60362862251901
 40
3.0627306731971538
 50
42.6905517578125
 51
126.92074584960937
  0
ARC
  8
_1-0_
  6
CONTINUOUS
 62
    3
 10
191.78775438494176
 20
146.14047076251057
 40
1.0402513194728542
 50
309.08184814453125
 51
1.6144714355468908
  0
ARC
  8
_1-0_
  6
CONTINUOUS
 62
    3
 10
170.34979084767403
 20
185.99196562895904
 40
46.274049088761615
 50
233.73811340332031
 51
298.51937866210937
  0
ARC
  8
_1-0_
  6
CONTINUOUS
 62
    3
 10
140.5418536380034
 20
141.67720072978253
 40
4.6263270764737516
 50
47.123046875000007
 51
126.50717163085939
  0
ARC
  8
_1-0_
  6
CONTINUOUS
 62
    3
 10
170.65669045968838
 20
185.43134122281461
 40
48.543530025997683
 50
236.25315856933597
 51
299.03501892089844
  0
ARC
  8
_1-0_
  6
CONTINUOUS
 62
    3
 10
193.7285733777627
 20
146.60362862251901
 40
3.0627306731971538
 50
42.6905517578125
 51
126.92074584960937
  0
ARC
  8
_1-0_
  6
CONTINUOUS
 62
    3
 10
244.78775603454059
 20
146.14045839051943
 40
1.0402513194728542
 50
309.08184814453125
 51
1.6144714355468908
  0
ARC
  8
_1-0_
  6
CONTINUOUS
 62
    3
 10
223.34976775329059
 20
185.99196562895904
 40
46.274049088761615
 50
233.73811340332031
 51
298.51937866210937
  0
ARC
  8
_1-0_
  6
CONTINUOUS
 62
    3
 10
193.54185528760223
 20
141.67718835779138
 40
4.6263270764737516
 50
47.123046875000007
 51
126.50717163085939
  0
ARC
  8
_1-0_
  6
CONTINUOUS
 62
    3
 10
223.65669210928721
 20
185.43134122281461
 40
48.543530025997683
 50
236.25315856933597
 51
299.03501892089844
  0
ARC
  8
_1-0_
  6
CONTINUOUS
 62
    3
 10
246.72855028337929
 20
146.60362862251901
 40
3.0627306731971538
 50
42.6905517578125
 51
126.92074584960937
  0
ARC
  8
_1-0_
  6
CONTINUOUS
 62
    3
 10
246.54183219321877
 20
141.67718835779138
 40
4.6263270764737516
 50
47.123046875000007
 51
126.50717163085939
  0
ARC
  8
_1-0_
  6
CONTINUOUS
 62
    3
 10
276.50936808848905
 20
186.42752157675255
 40
46.719762441274284
 50
233.89616394042969
 51
300.49382019042969
  0
ARC
  8
_1-0_
  6
CONTINUOUS
 62
    3
 10
276.65666901490374
 20
185.43134122281461
 40
48.543530025997683
 50
236.25315856933597
 51
294.79837036132812
  0
ARC
  8
_1-0_
  6
CONTINUOUS
 62
    3
 10
117.34976445409293
 20
185.99196562895904
 40
46.274049088761615
 50
246.89369201660159
 51
298.51937866210937
  0
ARC
  8
_1-0_
  6
CONTINUOUS
 62
    3
 10
117.65668881008955
 20
185.43134122281461
 40
48.543530025997683
 50
247.64067077636722
 51
299.03501892089844
  0
TEXT
  8
_1-2_
 62
    7
 10
267.84209546919004
 20
192.19962455130914
 40
2.5
 41
1
 50
0
  1
305
  0
TEXT
  8
_1-2_
 62
    7
 10
210.84213011076525
 20
192.19962455130914
 40
2.5
 41
1
 50
0
  1
265
  0
TEXT
  8
_1-2_
 62
    7
 10
157.84210371718416
 20
192.19962455130914
 40
2.5
 41
1
 50
0
  1
265
  0
TEXT
  8
_1-2_
 62
    7
 10
319.04343230407187
 20
169.12685084987331
 40
2.5
 41
1
 50
0
  1
右袖瓦
  0
TEXT
  8
_1-2_
 62
    7
 10
162.85279930351754
 20
171.46692636850719
 40
2.5
 41
1
 50
0
  1
桟瓦
  0
TEXT
  8
_1-1_
 62
    7
 10
290.26712532692864
 20
84.824325973923152
 40
2.5
 41
1
 50
0
  1
15
  0
TEXT
  8
_1-1_
 62
    7
 10
311.63698517701312
 20
88.021038158519858
 40
2.5
 41
1
 50
0
  1
登り淀　30ｘ90　（防腐処理）
  0
TEXT
  8
_1-1_
 62
    7
 10
315.68378924426395
 20
190.27752438107052
 40
2.5
 41
1
 50
0
  1
瓦座
  0
TEXT
  8
_1-1_
 62
    7
 10
221.73161028918585
 20
79.959461109058282
 40
2.5
 41
1
 50
0
  1
450
  0
POINT
  8
_1-2_
 62
    7
 10
300.21709711878884
 20
191.69962290171031
  0
POINT
  8
_1-2_
 62
    7
 10
239.21709381959127
 20
191.69962290171031
  0
POINT
  8
_1-2_
 62
    7
 10
186.21716640193924
 20
191.69962290171031
  0
POINT
  8
_1-2_
 62
    7
 10
133.21704103242908
 20
191.69962290171031
  0
POINT
  8
_1-1_
 62
    7
 10
297.01710635654229
 20
84.324324324324323
  0
POINT
  8
_1-1_
 62
    7
 10
293.01711790373395
 20
84.324324324324323
  0
POINT
  8
_1-1_
 62
    7
 10
290.01710800614114
 20
84.324324324324323
  0
POINT
  8
_1-1_
 62
    7
 10
178.60661028918585
 20
79.459459459459467
  0
POINT
  8
_1-1_
 62
    7
 10
268.60661028918582
 20
79.459459459459467
  0
TEXT
  8
_1-1_
 62
    7
 10
91.140222846593502
 20
85.790871287731761
 40
2.5
 41
1
 50
0
  1
※　地域により瓦桟木の大きさは、異なります
  0
TEXT
  8
_1-1_
 62
    7
 10
99.579172991766825
 20
65.829509013407943
 40
2.5
 41
1
 50
0
  1
防腐処理
  0
TEXT
  8
_1-1_
 62
    7
 10
113.74175002803162
 20
65.829509013407943
 40
2.5
 41
1
 50
0
  1
＠450
  0
TEXT
  8
_1-1_
 62
    7
 10
87.613488424485041
 20
89.905394780191628
 40
2.5
 41
1
 50
0
  1
瓦桟　　15×21以上　（防腐処理）
  0
LINE
  8
_1-1_
  6
CONTINUOUS
 62
    7
 10
294.86640300667057
 20
84.27517780958523
 11
298.36784680112299
 21
70.969691390666128
  0
LINE
  8
_1-1_
  6
CONTINUOUS
 62
    7
 10
294.86640300667057
 20
84.27517780958523
 11
296.47046833317853
 21
81.405418312795362
  0
LINE
  8
_1-1_
  6
CONTINUOUS
 62
    7
 10
298.36784680112299
 20
70.969691390666128
 11
300.29255077481076
 21
70.969691390666128
  0
LINE
  8
_1-1_
  6
CONTINUOUS
 62
    7
 10
296.47046833317853
 20
81.405418312795362
 11
295.60257001642333
 21
81.477743172524967
  0
TEXT
  8
_1-1_
 62
    7
 10
300.79545635923603
 20
69.939170987898692
 40
2.5
 41
1
 50
0
  1
仕上材に依る
  0
TEXT
  8
_1-2_
 62
    7
 10
87.809418114602181
 20
82.068207175506146
 40
2.5
 41
1
 50
0
  1
縦桟
  0
TEXT
  8
_1-1_
 62
    7
 10
86.927734509075066
 20
74.035089880703538
 40
2.5
 41
1
 50
0
  1
ルーフィング
  0
TEXT
  8
_1-1_
 62
    7
 10
87.49743217765176
 20
66.201099941583763
 40
2.5
 41
1
 50
0
  1
木煉瓦
  0
ENDSEC
  0
EOF
