  0
SECTION
  2
HEADER
  9
$ACADVER
  1
AC1009
  9
$INSBASE
 10
0
 20
0
 30
0
  9
$EXTMIN
 10
0
 20
0
  9
$EXTMAX
 10
420
 20
297
  9
$LIMMIN
 10
0
 20
0
  9
$LIMMAX
 10
420
 20
297
  9
$LTSCALE
 40
1
  0
ENDSEC
  0
SECTION
  2
TABLES
  0
TABLE
  2
LTYPE
 70
     9
  0
LTYPE
  2
CONTINUOUS
 70
    64
  3
実線
 72
    65
 73
     0
 40
0.0
  0
LTYPE
  2
DASHED1
 70
    64
  3
--  --  --  --  --  --  --  --  
 72
    65
 73
     2
 40
2.5
 49
1.25
 49
-1.25
  0
LTYPE
  2
DASHED2
 70
    64
  3
----    ----    ----    ----    
 72
    65
 73
     2
 40
5.0
 49
2.5
 49
-2.5
  0
LTYPE
  2
DASHED3
 70
    64
  3
------  ------  ------  ------  
 72
    65
 73
     2
 40
5.0
 49
3.75
 49
-1.25
  0
LTYPE
  2
CENTER1
 70
    64
  3
----- - ----- - ----- - ----- - 
 72
    65
 73
     4
 40
10.0
 49
6.25
 49
-1.25
 49
1.25
 49
-1.25
  0
LTYPE
  2
CENTER2
 70
    64
  3
----------  --  ----------  --  
 72
    65
 73
     4
 40
20.0
 49
12.5
 49
-2.5
 49
2.5
 49
-2.5
  0
LTYPE
  2
PHANTOM1
 70
    64
  3
--- - - --- - - --- - - --- - - 
 72
    65
 73
     6
 40
10.0
 49
3.25
 49
-1.25
 49
1.25
 49
-1.25
 49
1.25
 49
-1.25
  0
LTYPE
  2
PHANTOM2
 70
    64
  3
--------  -  -  --------  -  -  
 72
    65
 73
     6
 40
20.0
 49
10.0
 49
-2.5
 49
1.25
 49
-2.5
 49
1.25
 49
-2.5
  0
LTYPE
  2
DOT
 70
    64
  3
-   -   -   -   -   -   -   -   
 72
    65
 73
     2
 40
2.5
 49
0.625
 49
-1.875
  0
LTYPE
  2
DUMMY
 70
    64
  3
ダミー
 72
    65
 73
     0
 40
0.0
  0
LTYPE
  2
RAND1
 70
    64
  3
ランダム線1
 72
    65
 73
     4
 40
10.0
 49
1.0
 49
-2.0
 49
3.0
 49
-4.0
  0
LTYPE
  2
RAND2
 70
    64
  3
ランダム線2
 72
    65
 73
     4
 40
14.0
 49
2.0
 49
-3.0
 49
4.0
 49
-5.0
  0
LTYPE
  2
RAND3
 70
    64
  3
ランダム線3
 72
    65
 73
     4
 40
18.0
 49
3.0
 49
-4.0
 49
5.0
 49
-6.0
  0
LTYPE
  2
RAND4
 70
    64
  3
ランダム線4
 72
    65
 73
     4
 40
22.0
 49
4.0
 49
-5.0
 49
6.0
 49
-7.0
  0
LTYPE
  2
RAND5
 70
    64
  3
ランダム線5
 72
    65
 73
     4
 40
26.0
 49
5.0
 49
-6.0
 49
7.0
 49
-8.0
  0
LTYPE
  2
LONG1
 70
    64
  3
----------  --  ----------  --  
 72
    65
 73
     4
 40
40.0
 49
32.5
 49
-2.5
 49
2.5
 49
-2.5
  0
LTYPE
  2
LONG2
 70
    64
  3
--------  -  -  --------  -  -  
 72
    65
 73
     6
 40
40.0
 49
30.0
 49
-2.5
 49
1.25
 49
-2.5
 49
1.25
 49
-2.5
  0
LTYPE
  2
LONG3
 70
    64
  3
+++++++++++++++..+++++++++++++++
 72
    65
 73
     2
 40
40.0
 49
37.5
 49
-2.5
  0
LTYPE
  2
LONG4
 70
    64
  3
+++++++++++++++..+++++++++++++++
 72
    65
 73
     2
 40
80.0
 49
75.0
 49
-5.0
  0
LTYPE
  2
LONG5
 70
    64
  3
----------  --  ----------  --  
 72
    65
 73
     4
 40
60.0
 49
37.5
 49
-7.5
 49
7.5
 49
-7.5
  0
LTYPE
  2
dashed
 70
   64
  3
-------   -------------   ------
 72
   65
 73
    2
 40
7.5
 49
6
 49
-1.5
  0
LTYPE
  2
dashed_spaced
 70
   64
  3
----        --------        ----
 72
   65
 73
    2
 40
12
 49
6
 49
-6
  0
LTYPE
  2
long_dashed_dotted
 70
   64
  3
------------- --- --------------
 72
   65
 73
    4
 40
15.25
 49
12
 49
-1.5
 49
0.25
 49
-1.5
  0
LTYPE
  2
long_dashed_double-dotted
 70
   64
  3
----------- --- --- ------------
 72
   65
 73
    6
 40
17
 49
12
 49
-1.5
 49
0.25
 49
-1.5
 49
0.25
 49
-1.5
  0
LTYPE
  2
long_dashed_triplicate-dotted
 70
   64
  3
--------- --- --- --- ----------
 72
   65
 73
    8
 40
18.75
 49
12
 49
-1.5
 49
0.25
 49
-1.5
 49
0.25
 49
-1.5
 49
0.25
 49
-1.5
  0
LTYPE
  2
dotted
 70
   64
  3
   -       -       -       -    
 72
   65
 73
    2
 40
1.75
 49
0.25
 49
-1.5
  0
LTYPE
  2
chain
 70
   64
  3
-------------- -- --------------
 72
   65
 73
    4
 40
18.5
 49
12
 49
-1.5
 49
3.5
 49
-1.5
  0
LTYPE
  2
chain_double_dash
 70
   64
  3
------------ -- -- -------------
 72
   65
 73
    6
 40
23.5
 49
12
 49
-1.5
 49
3.5
 49
-1.5
 49
3.5
 49
-1.5
  0
LTYPE
  2
dashed_dotted
 70
   64
  3
-----------     -     ----------
 72
   65
 73
    4
 40
9.25
 49
6
 49
-1.5
 49
0.25
 49
-1.5
  0
LTYPE
  2
double-dashed_dotted
 70
   64
  3
------   -----------   -   -----
 72
   65
 73
    6
 40
16.75
 49
6
 49
-1.5
 49
6
 49
-1.5
 49
0.25
 49
-1.5
  0
LTYPE
  2
dashed_double-dotted
 70
   64
  3
---------    -    -    ---------
 72
   65
 73
    6
 40
11
 49
6
 49
-1.5
 49
0.25
 49
-1.5
 49
0.25
 49
-1.5
  0
LTYPE
  2
double-dashed_double-dotted
 70
   64
  3
-----   ---------   -   -   ----
 72
   65
 73
    8
 40
18.5
 49
6
 49
-1.5
 49
6
 49
-1.5
 49
0.25
 49
-1.5
 49
0.25
 49
-1.5
  0
LTYPE
  2
dashed_triplicate-dotted
 70
   64
  3
-------    -    -    -    ------
 72
   65
 73
    8
 40
12.75
 49
6
 49
-1.5
 49
0.25
 49
-1.5
 49
0.25
 49
-1.5
 49
0.25
 49
-1.5
  0
LTYPE
  2
double-dashed_triplicate-dotted
 70
   64
  3
-----  ---------  -  -  -  -----
 72
   65
 73
   10
 40
20.25
 49
6
 49
-1.5
 49
6
 49
-1.5
 49
0.25
 49
-1.5
 49
0.25
 49
-1.5
 49
0.25
 49
-1.5
  0
LTYPE
  2
undefined
 70
   64
  3
--------------------------------
 72
   65
 73
    0
 40
0
  0
ENDTAB
  0
TABLE
  2
STYLE
  5
3
100
AcDbSymbolTable
 70
     1
  0
STYLE
  5
10
100
AcDbSymbolTableRecord
100
AcDbTextStyleTableRecord
  2
STANDARD
 70
     0
 40
0.0
 41
1.0
 50
0.0
 71
     0
 42
0.2
  3
txt
  4
bigfont.shx
  0
STYLE
  5
26
100
AcDbSymbolTableRecord
100
AcDbTextStyleTableRecord
  2
TATEGAKI
 70
    68
 40
0.0
 41
1.0
 50
0.0
 71
     0
 42
1.0
  3
txt
  4
bigfont.shx
  0
ENDTAB
  0
TABLE
  2
LAYER
 70
    7
  0
LAYER
  2
_0-0_
 70
   64
 62
    7
  6
CONTINUOUS
  0
LAYER
  2
_0-1_
 70
   64
 62
    7
  6
CONTINUOUS
  0
LAYER
  2
_1-0_
 70
   64
 62
    7
  6
CONTINUOUS
  0
LAYER
  2
_1-1_
 70
   64
 62
    7
  6
CONTINUOUS
  0
LAYER
  2
_1-2_
 70
   64
 62
    7
  6
CONTINUOUS
  0
LAYER
  2
_1-3_
 70
   64
 62
    7
  6
CONTINUOUS
  0
LAYER
  2
ADD_LINE
 70
   64
 62
    7
  6
CONTINUOUS
  0
ENDTAB
  0
ENDSEC
  0
SECTION
  2
BLOCKS
  0
ENDSEC
  0
SECTION
  2
ENTITIES
  0
LINE
  8
_0-0_
  6
CONTINUOUS
 62
    5
 10
12.432428308435391
 20
278.51351351351354
 11
412.43244892842063
 21
278.51351351351354
  0
LINE
  8
_0-0_
  6
CONTINUOUS
 62
    5
 10
412.43244892842063
 20
8.5135135135135158
 11
12.432428308435391
 21
8.5135135135135158
  0
LINE
  8
_0-0_
  6
CONTINUOUS
 62
    5
 10
412.43244892842063
 20
28.513511451515001
 11
12.432415936444272
 21
28.513511451515001
  0
LINE
  8
_0-0_
  6
CONTINUOUS
 62
    5
 10
377.43248192039698
 20
8.5135135135135158
 11
377.43248192039698
 21
28.513511451515001
  0
LINE
  8
_0-0_
  6
CONTINUOUS
 62
    5
 10
142.70271507469386
 20
28.513511451515001
 11
142.70271507469386
 21
8.5135135135135158
  0
LINE
  8
_0-0_
  6
CONTINUOUS
 62
    5
 10
220.54054054054055
 20
28.513511451515001
 11
220.54054054054055
 21
8.5135135135135158
  0
LINE
  8
_0-0_
  6
CONTINUOUS
 62
    5
 10
142.70271507469386
 20
18.513512482514244
 11
220.54054054054055
 21
18.513512482514244
  0
LINE
  8
_0-0_
  6
CONTINUOUS
 62
    5
 10
402.16218690614443
 20
24.324325870823216
 11
389.59456985061234
 21
11.756758303255651
  0
LINE
  8
_1-0_
  6
CONTINUOUS
 62
    7
 10
136.33641011006125
 20
150.88619335277662
 11
136.33641011006125
 21
150.28618889885982
  0
LINE
  8
_1-0_
  6
CONTINUOUS
 62
    7
 10
136.33641011006125
 20
150.28618889885982
 11
136.33641011006125
 21
150.88619335277662
  0
LINE
  8
_1-0_
  6
CONTINUOUS
 62
    7
 10
136.33641011006125
 20
150.88619335277662
 11
141.13640862542229
 21
150.88619335277662
  0
LINE
  8
_1-0_
  6
CONTINUOUS
 62
    7
 10
141.13640862542229
 20
150.88619335277662
 11
141.13640862542229
 21
150.28618889885982
  0
LINE
  8
_1-0_
  6
CONTINUOUS
 62
    7
 10
141.13640862542229
 20
150.28618889885982
 11
136.33641011006125
 21
150.28618889885982
  0
LINE
  8
_1-0_
  6
CONTINUOUS
 62
    7
 10
136.33641011006125
 20
150.88619335277662
 11
141.13640862542229
 21
150.28618889885982
  0
LINE
  8
_1-0_
  6
CONTINUOUS
 62
    7
 10
183.14594990498313
 20
150.28618889885982
 11
183.14594990498313
 21
150.88619335277662
  0
LINE
  8
_1-0_
  6
CONTINUOUS
 62
    7
 10
183.14594990498313
 20
150.88619335277662
 11
187.94594842034419
 21
150.88619335277662
  0
LINE
  8
_1-0_
  6
CONTINUOUS
 62
    7
 10
187.94594842034419
 20
150.88619335277662
 11
187.94594842034419
 21
150.28618889885982
  0
LINE
  8
_1-0_
  6
CONTINUOUS
 62
    7
 10
187.94594842034419
 20
150.28618889885982
 11
183.14594990498313
 21
150.28618889885982
  0
LINE
  8
_1-0_
  6
CONTINUOUS
 62
    7
 10
183.14594990498313
 20
150.88619335277662
 11
187.94594842034419
 21
150.28618889885982
  0
LINE
  8
_1-0_
  6
CONTINUOUS
 62
    7
 10
243.7459419869088
 20
150.28618889885982
 11
243.7459419869088
 21
150.88619335277662
  0
LINE
  8
_1-0_
  6
CONTINUOUS
 62
    7
 10
243.7459419869088
 20
150.88619335277662
 11
248.54592813027872
 21
150.88619335277662
  0
LINE
  8
_1-0_
  6
CONTINUOUS
 62
    7
 10
248.54592813027872
 20
150.88619335277662
 11
248.54592813027872
 21
150.28618889885982
  0
LINE
  8
_1-0_
  6
CONTINUOUS
 62
    7
 10
248.54592813027872
 20
150.28618889885982
 11
243.7459419869088
 21
150.28618889885982
  0
LINE
  8
_1-0_
  6
CONTINUOUS
 62
    7
 10
243.7459419869088
 20
150.88619335277662
 11
248.54592813027872
 21
150.28618889885982
  0
LINE
  8
_1-0_
  6
CONTINUOUS
 62
    7
 10
304.34593406883448
 20
150.28618889885982
 11
304.34593406883448
 21
150.88619335277662
  0
LINE
  8
_1-0_
  6
CONTINUOUS
 62
    7
 10
304.34593406883448
 20
150.88619335277662
 11
309.14592021220443
 21
150.88619335277662
  0
LINE
  8
_1-0_
  6
CONTINUOUS
 62
    7
 10
309.14592021220443
 20
150.88619335277662
 11
309.14592021220443
 21
150.28618889885982
  0
LINE
  8
_1-0_
  6
CONTINUOUS
 62
    7
 10
309.14592021220443
 20
150.28618889885982
 11
304.34593406883448
 21
150.28618889885982
  0
LINE
  8
_1-0_
  6
CONTINUOUS
 62
    7
 10
304.34593406883448
 20
150.88619335277662
 11
309.14592021220443
 21
150.28618889885982
  0
LINE
  8
_1-0_
  6
CONTINUOUS
 62
    7
 10
364.94592615076016
 20
150.28618889885982
 11
364.94592615076016
 21
150.88619335277662
  0
LINE
  8
_1-0_
  6
CONTINUOUS
 62
    7
 10
364.94592615076016
 20
150.88619335277662
 11
369.74591229413011
 21
150.88619335277662
  0
LINE
  8
_1-0_
  6
CONTINUOUS
 62
    7
 10
369.74591229413011
 20
150.88619335277662
 11
369.74591229413011
 21
150.28618889885982
  0
LINE
  8
_1-0_
  6
CONTINUOUS
 62
    7
 10
369.74591229413011
 20
150.28618889885982
 11
364.94592615076016
 21
150.28618889885982
  0
LINE
  8
_1-0_
  6
CONTINUOUS
 62
    7
 10
364.94592615076016
 20
150.88619335277662
 11
369.74591229413011
 21
150.28618889885982
  0
LINE
  8
_1-1_
  6
CONTINUOUS
 62
    3
 10
116.94594924514358
 20
156.48618955869932
 11
116.94594924514358
 21
153.88619087837839
  0
LINE
  8
_1-1_
  6
CONTINUOUS
 62
    3
 10
124.74594528610642
 20
159.48619945629224
 11
124.74594528610642
 21
155.88619747677365
  0
LINE
  8
_1-1_
  6
CONTINUOUS
 62
    3
 10
185.94592944995779
 20
159.48619945629224
 11
185.94592944995779
 21
157.08619401261615
  0
LINE
  8
_1-1_
  6
CONTINUOUS
 62
    3
 10
124.74594528610642
 20
159.48619945629224
 11
125.94595419394004
 21
159.48619945629224
  0
LINE
  8
_1-1_
  6
CONTINUOUS
 62
    3
 10
176.08372043918919
 20
159.48619945629224
 11
185.94592944995779
 21
159.48619945629224
  0
LINE
  8
_1-1_
  6
CONTINUOUS
 62
    3
 10
177.94592780035896
 20
157.08619401261615
 11
174.94591790276607
 21
153.88619087837839
  0
LINE
  8
_1-1_
  6
CONTINUOUS
 62
    3
 10
184.34593406883448
 20
157.08619401261615
 11
184.34593406883448
 21
156.68619516733531
  0
LINE
  8
_1-1_
  6
CONTINUOUS
 62
    3
 10
183.54593637827281
 20
157.08619401261615
 11
183.54593637827281
 21
156.68619516733531
  0
LINE
  8
_1-1_
  6
CONTINUOUS
 62
    3
 10
181.94594099714951
 20
157.08619401261615
 11
181.94594099714951
 21
156.68619516733531
  0
LINE
  8
_1-1_
  6
CONTINUOUS
 62
    3
 10
181.14594330658784
 20
157.08619401261615
 11
181.14594330658784
 21
156.68619516733531
  0
LINE
  8
_1-1_
  6
CONTINUOUS
 62
    3
 10
177.94592780035896
 20
157.08619401261615
 11
181.14594330658784
 21
157.08619401261615
  0
LINE
  8
_1-1_
  6
CONTINUOUS
 62
    3
 10
181.94594099714951
 20
157.08619401261615
 11
183.54593637827281
 21
157.08619401261615
  0
LINE
  8
_1-1_
  6
CONTINUOUS
 62
    3
 10
184.34593406883448
 20
157.08619401261615
 11
185.94592944995779
 21
157.08619401261615
  0
LINE
  8
_1-1_
  6
CONTINUOUS
 62
    3
 10
181.14594330658784
 20
156.68619516733531
 11
181.94594099714951
 21
156.68619516733531
  0
LINE
  8
_1-1_
  6
CONTINUOUS
 62
    3
 10
183.54593637827281
 20
156.68619516733531
 11
184.34593406883448
 21
156.68619516733531
  0
LINE
  8
_1-1_
  6
CONTINUOUS
 62
    3
 10
129.54595617345862
 20
156.88618840398016
 11
173.34592252164273
 21
156.88618840398016
  0
LINE
  8
_1-1_
  6
CONTINUOUS
 62
    3
 10
118.14593340899494
 20
156.48618955869932
 11
118.43001906936233
 21
155.88619747677365
  0
LINE
  8
_1-1_
  6
CONTINUOUS
 62
    3
 10
116.94594924514358
 20
156.48618955869932
 11
118.14593340899494
 21
156.48618955869932
  0
LINE
  8
_1-1_
  6
CONTINUOUS
 62
    3
 10
118.43001906936233
 20
155.88619747677365
 11
124.74594528610642
 21
155.88619747677365
  0
LINE
  8
_1-1_
  6
CONTINUOUS
 62
    3
 10
178.14593340899495
 20
156.48618955869932
 11
178.14593340899495
 21
153.88619087837839
  0
LINE
  8
_1-1_
  6
CONTINUOUS
 62
    3
 10
185.94592944995779
 20
159.48619945629224
 11
185.94592944995779
 21
155.88619747677365
  0
LINE
  8
_1-1_
  6
CONTINUOUS
 62
    3
 10
247.14591361380914
 20
159.48619945629224
 11
247.14591361380914
 21
157.08619401261615
  0
LINE
  8
_1-1_
  6
CONTINUOUS
 62
    3
 10
178.14593340899495
 20
153.88619087837839
 11
236.14592681059966
 21
153.88619087837839
  0
LINE
  8
_1-1_
  6
CONTINUOUS
 62
    3
 10
185.94592944995779
 20
159.48619945629224
 11
187.14595072978253
 21
159.48619945629224
  0
LINE
  8
_1-1_
  6
CONTINUOUS
 62
    3
 10
237.28370460304055
 20
159.48619945629224
 11
247.14591361380914
 21
159.48619945629224
  0
LINE
  8
_1-1_
  6
CONTINUOUS
 62
    3
 10
239.14591196421031
 20
157.08619401261615
 11
236.14592681059966
 21
153.88619087837839
  0
LINE
  8
_1-1_
  6
CONTINUOUS
 62
    3
 10
245.54591823268584
 20
157.08619401261615
 11
245.54591823268584
 21
156.68619516733531
  0
LINE
  8
_1-1_
  6
CONTINUOUS
 62
    3
 10
244.74592054212417
 20
157.08619401261615
 11
244.74592054212417
 21
156.68619516733531
  0
LINE
  8
_1-1_
  6
CONTINUOUS
 62
    3
 10
243.14592516100086
 20
157.08619401261615
 11
243.14592516100086
 21
156.68619516733531
  0
LINE
  8
_1-1_
  6
CONTINUOUS
 62
    3
 10
242.34592747043919
 20
157.08619401261615
 11
242.34592747043919
 21
156.68619516733531
  0
LINE
  8
_1-1_
  6
CONTINUOUS
 62
    3
 10
239.14591196421031
 20
157.08619401261615
 11
242.34592747043919
 21
157.08619401261615
  0
LINE
  8
_1-1_
  6
CONTINUOUS
 62
    3
 10
243.14592516100086
 20
157.08619401261615
 11
244.74592054212417
 21
157.08619401261615
  0
LINE
  8
_1-1_
  6
CONTINUOUS
 62
    3
 10
245.54591823268584
 20
157.08619401261615
 11
247.14591361380914
 21
157.08619401261615
  0
LINE
  8
_1-1_
  6
CONTINUOUS
 62
    3
 10
242.34592747043919
 20
156.68619516733531
 11
243.14592516100086
 21
156.68619516733531
  0
LINE
  8
_1-1_
  6
CONTINUOUS
 62
    3
 10
244.74592054212417
 20
156.68619516733531
 11
245.54591823268584
 21
156.68619516733531
  0
LINE
  8
_1-1_
  6
CONTINUOUS
 62
    3
 10
190.74594033730997
 20
156.88618840398016
 11
234.54590668549409
 21
156.88618840398016
  0
LINE
  8
_1-1_
  6
CONTINUOUS
 62
    3
 10
179.3459175728463
 20
156.48618955869932
 11
179.6300032332137
 21
155.88619747677365
  0
LINE
  8
_1-1_
  6
CONTINUOUS
 62
    3
 10
178.14593340899495
 20
156.48618955869932
 11
179.3459175728463
 21
156.48618955869932
  0
LINE
  8
_1-1_
  6
CONTINUOUS
 62
    3
 10
179.6300032332137
 20
155.88619747677365
 11
185.94592944995779
 21
155.88619747677365
  0
LINE
  8
_1-1_
  6
CONTINUOUS
 62
    3
 10
239.3459175728463
 20
156.48618955869932
 11
239.3459175728463
 21
153.88619087837839
  0
LINE
  8
_1-1_
  6
CONTINUOUS
 62
    3
 10
247.14591361380914
 20
159.48619945629224
 11
247.14591361380914
 21
155.88619747677365
  0
LINE
  8
_1-1_
  6
CONTINUOUS
 62
    3
 10
308.34589777766047
 20
159.48619945629224
 11
308.34589777766047
 21
157.08619401261615
  0
LINE
  8
_1-0_
  6
CONTINUOUS
 62
    3
 10
239.3459175728463
 20
153.88619087837839
 11
297.34591097445104
 21
153.88619087837839
  0
LINE
  8
_1-1_
  6
CONTINUOUS
 62
    3
 10
247.14591361380914
 20
159.48619945629224
 11
248.345947265625
 21
159.48619945629224
  0
LINE
  8
_1-1_
  6
CONTINUOUS
 62
    3
 10
298.48371351087417
 20
159.48619945629224
 11
308.34589777766047
 21
159.48619945629224
  0
LINE
  8
_1-1_
  6
CONTINUOUS
 62
    3
 10
300.34592087204396
 20
157.08619401261615
 11
297.34591097445104
 21
153.88619087837839
  0
LINE
  8
_1-1_
  6
CONTINUOUS
 62
    3
 10
306.74590239653719
 20
157.08619401261615
 11
306.74590239653719
 21
156.68619516733531
  0
LINE
  8
_1-1_
  6
CONTINUOUS
 62
    3
 10
305.94592944995776
 20
157.08619401261615
 11
305.94592944995776
 21
156.68619516733531
  0
LINE
  8
_1-1_
  6
CONTINUOUS
 62
    3
 10
304.34593406883448
 20
157.08619401261615
 11
304.34593406883448
 21
156.68619516733531
  0
LINE
  8
_1-1_
  6
CONTINUOUS
 62
    3
 10
303.54591163429058
 20
157.08619401261615
 11
303.54591163429058
 21
156.68619516733531
  0
LINE
  8
_1-1_
  6
CONTINUOUS
 62
    3
 10
300.34592087204396
 20
157.08619401261615
 11
303.54591163429058
 21
157.08619401261615
  0
LINE
  8
_1-1_
  6
CONTINUOUS
 62
    3
 10
304.34593406883448
 20
157.08619401261615
 11
305.94592944995776
 21
157.08619401261615
  0
LINE
  8
_1-1_
  6
CONTINUOUS
 62
    3
 10
306.74590239653719
 20
157.08619401261615
 11
308.34589777766047
 21
157.08619401261615
  0
LINE
  8
_1-1_
  6
CONTINUOUS
 62
    3
 10
303.54591163429058
 20
156.68619516733531
 11
304.34593406883448
 21
156.68619516733531
  0
LINE
  8
_1-1_
  6
CONTINUOUS
 62
    3
 10
305.94592944995776
 20
156.68619516733531
 11
306.74590239653719
 21
156.68619516733531
  0
LINE
  8
_1-1_
  6
CONTINUOUS
 62
    3
 10
251.94594924514359
 20
156.88618840398016
 11
295.74591559332771
 21
156.88618840398016
  0
LINE
  8
_1-1_
  6
CONTINUOUS
 62
    3
 10
240.54590173669766
 20
156.48618955869932
 11
240.83001214104732
 21
155.88619747677365
  0
LINE
  8
_1-1_
  6
CONTINUOUS
 62
    3
 10
239.3459175728463
 20
156.48618955869932
 11
240.54590173669766
 21
156.48618955869932
  0
LINE
  8
_1-1_
  6
CONTINUOUS
 62
    3
 10
240.83001214104732
 20
155.88619747677365
 11
247.14591361380914
 21
155.88619747677365
  0
LINE
  8
_1-1_
  6
CONTINUOUS
 62
    3
 10
300.5459264806799
 20
156.48618955869932
 11
300.5459264806799
 21
153.88619087837839
  0
LINE
  8
_1-1_
  6
CONTINUOUS
 62
    3
 10
308.34592252164276
 20
159.48619945629224
 11
308.34592252164276
 21
155.88619747677365
  0
LINE
  8
_1-1_
  6
CONTINUOUS
 62
    3
 10
369.54590668549412
 20
159.48619945629224
 11
369.54590668549412
 21
157.08619401261615
  0
LINE
  8
_1-0_
  6
CONTINUOUS
 62
    3
 10
300.5459264806799
 20
153.88619087837839
 11
358.5458951383024
 21
153.88619087837839
  0
LINE
  8
_1-1_
  6
CONTINUOUS
 62
    3
 10
308.34592252164276
 20
159.48619945629224
 11
309.54593142947635
 21
159.48619945629224
  0
LINE
  8
_1-1_
  6
CONTINUOUS
 62
    3
 10
359.68372241870782
 20
159.48619945629224
 11
369.54590668549412
 21
159.48619945629224
  0
LINE
  8
_1-1_
  6
CONTINUOUS
 62
    3
 10
361.54590503589532
 20
157.08619401261615
 11
358.5458951383024
 21
153.88619087837839
  0
LINE
  8
_1-1_
  6
CONTINUOUS
 62
    3
 10
367.94591130437078
 20
157.08619401261615
 11
367.94591130437078
 21
156.68619516733531
  0
LINE
  8
_1-1_
  6
CONTINUOUS
 62
    3
 10
367.14591361380911
 20
157.08619401261615
 11
367.14591361380911
 21
156.68619516733531
  0
LINE
  8
_1-1_
  6
CONTINUOUS
 62
    3
 10
365.54591823268584
 20
157.08619401261615
 11
365.54591823268584
 21
156.68619516733531
  0
LINE
  8
_1-1_
  6
CONTINUOUS
 62
    3
 10
364.74592054212417
 20
157.08619401261615
 11
364.74592054212417
 21
156.68619516733531
  0
LINE
  8
_1-1_
  6
CONTINUOUS
 62
    3
 10
361.54590503589532
 20
157.08619401261615
 11
364.74592054212417
 21
157.08619401261615
  0
LINE
  8
_1-1_
  6
CONTINUOUS
 62
    3
 10
365.54591823268584
 20
157.08619401261615
 11
367.14591361380911
 21
157.08619401261615
  0
LINE
  8
_1-1_
  6
CONTINUOUS
 62
    3
 10
367.94591130437078
 20
157.08619401261615
 11
369.54590668549412
 21
157.08619401261615
  0
LINE
  8
_1-1_
  6
CONTINUOUS
 62
    3
 10
364.74592054212417
 20
156.68619516733531
 11
365.54591823268584
 21
156.68619516733531
  0
LINE
  8
_1-1_
  6
CONTINUOUS
 62
    3
 10
367.14591361380911
 20
156.68619516733531
 11
367.94591130437078
 21
156.68619516733531
  0
LINE
  8
_1-1_
  6
CONTINUOUS
 62
    3
 10
313.14593340899495
 20
156.88618840398016
 11
356.94589975717906
 21
156.88618840398016
  0
LINE
  8
_1-1_
  6
CONTINUOUS
 62
    3
 10
301.74591064453125
 20
156.48618955869932
 11
302.02999630489865
 21
155.88619747677365
  0
LINE
  8
_1-1_
  6
CONTINUOUS
 62
    3
 10
300.5459264806799
 20
156.48618955869932
 11
301.74591064453125
 21
156.48618955869932
  0
LINE
  8
_1-1_
  6
CONTINUOUS
 62
    3
 10
302.02999630489865
 20
155.88619747677365
 11
308.34592252164276
 21
155.88619747677365
  0
LINE
  8
_1-1_
  6
CONTINUOUS
 62
    3
 10
361.74593538851354
 20
156.48618955869932
 11
361.74593538851354
 21
153.88619087837839
  0
LINE
  8
_1-1_
  6
CONTINUOUS
 62
    3
 10
369.54593142947635
 20
159.48619945629224
 11
369.54593142947635
 21
155.88619747677365
  0
LINE
  8
_1-1_
  6
CONTINUOUS
 62
    3
 10
369.54593142947635
 20
159.48619945629224
 11
370.74596508129224
 21
159.48619945629224
  0
LINE
  8
_1-1_
  6
CONTINUOUS
 62
    3
 10
362.9459195523649
 20
156.48618955869932
 11
363.23000521273229
 21
155.88619747677365
  0
LINE
  8
_1-1_
  6
CONTINUOUS
 62
    3
 10
361.74593538851354
 20
156.48618955869932
 11
362.9459195523649
 21
156.48618955869932
  0
LINE
  8
_1-1_
  6
CONTINUOUS
 62
    3
 10
363.23000521273229
 20
155.88619747677365
 11
369.54593142947635
 21
155.88619747677365
  0
LINE
  8
_1-1_
  6
CONTINUOUS
 62
    7
 10
358.5458951383024
 20
153.88619087837839
 11
361.74593538851354
 21
153.88619087837839
  0
LINE
  8
_1-0_
  6
CONTINUOUS
 62
    3
 10
300.5459264806799
 20
153.88619087837839
 11
358.5458951383024
 21
153.88619087837839
  0
LINE
  8
_1-1_
  6
CONTINUOUS
 62
    7
 10
297.34591097445104
 20
153.88619087837839
 11
300.5459264806799
 21
153.88619087837839
  0
LINE
  8
_1-0_
  6
CONTINUOUS
 62
    3
 10
239.3459175728463
 20
153.88619087837839
 11
297.34591097445104
 21
153.88619087837839
  0
LINE
  8
_1-1_
  6
CONTINUOUS
 62
    7
 10
236.14592681059966
 20
153.88619087837839
 11
239.3459175728463
 21
153.88619087837839
  0
LINE
  8
_1-0_
  6
CONTINUOUS
 62
    3
 10
122.5459454510663
 20
153.88619087837839
 11
174.94591790276607
 21
153.88619087837839
  0
LINE
  8
_1-0_
  6
CONTINUOUS
 62
    3
 10
178.14593340899495
 20
153.88619087837839
 11
236.14592681059966
 21
153.88619087837839
  0
LINE
  8
_1-1_
  6
CONTINUOUS
 62
    7
 10
178.14593340899495
 20
153.88619087837839
 11
174.94591790276607
 21
153.88619087837839
  0
LINE
  8
_1-2_
  6
CONTINUOUS
 62
    7
 10
241.36648642050255
 20
156.79749359955659
 11
272.99367543813344
 21
69.902535515862553
  0
LINE
  8
_1-2_
  6
CONTINUOUS
 62
    7
 10
272.99367543813344
 20
69.902535515862553
 11
278.91891891891896
 21
69.902535515862553
  0
LINE
  8
_0-1_
  6
CONTINUOUS
 62
    7
 10
260.25470630542651
 20
104.90253345386402
 11
278.91891891891896
 21
104.90253345386402
  0
LINE
  8
_0-1_
  6
CONTINUOUS
 62
    7
 10
262.80249518317146
 20
97.902535103462839
 11
278.91891891891896
 21
97.902535103462839
  0
LINE
  8
_0-1_
  6
CONTINUOUS
 62
    7
 10
265.35030880489865
 20
90.902536753061653
 11
278.91891891891896
 21
90.902536753061653
  0
LINE
  8
_0-1_
  6
CONTINUOUS
 62
    7
 10
267.89809768264359
 20
83.902538402660483
 11
278.91891891891896
 21
83.902538402660483
  0
LINE
  8
_0-1_
  6
CONTINUOUS
 62
    7
 10
270.44588656038854
 20
76.902533866263724
 11
278.91891891891896
 21
76.902533866263724
  0
LINE
  8
_1-0_
  6
CONTINUOUS
 62
    3
 10
361.74593538851354
 20
153.88619087837839
 11
381.08108108108109
 21
153.88619087837839
  0
LINE
  8
_1-1_
  6
CONTINUOUS
 62
    3
 10
374.34594231682854
 20
156.88618840398016
 11
381.08108108108109
 21
156.88618840398016
  0
LINE
  8
_1-0_
  6
CONTINUOUS
 62
    3
 10
361.74593538851354
 20
153.88619087837839
 11
381.08108108108109
 21
153.88619087837839
  0
LINE
  8
_1-0_
  6
DASHED1
 62
    3
 10
116.25048250765414
 20
149.686184444943
 11
381.08108108108109
 21
149.686184444943
  0
LINE
  8
_1-1_
  6
CONTINUOUS
 62
    7
 10
136.33641011006125
 20
153.88619087837839
 11
136.33641011006125
 21
150.28618889885982
  0
LINE
  8
_1-0_
  6
CONTINUOUS
 62
    7
 10
136.33641011006125
 20
150.88619335277662
 11
381.08108108108109
 21
150.88619335277662
  0
LINE
  8
_1-0_
  6
CONTINUOUS
 62
    7
 10
136.33641011006125
 20
150.28618889885982
 11
381.08108108108109
 21
150.28618889885982
  0
LINE
  8
_1-1_
  6
CONTINUOUS
 62
    2
 10
134.94594677074537
 20
150.03410957955026
 11
116.50439288165119
 21
150.03410957955026
  0
LINE
  8
_1-1_
  6
CONTINUOUS
 62
    2
 10
116.50439288165119
 20
150.03410957955026
 11
116.50439288165119
 21
180.03410957955026
  0
LINE
  8
_1-1_
  6
CONTINUOUS
 62
    2
 10
116.50439288165119
 20
180.03410957955026
 11
117.03324601456926
 21
176.82936797270904
  0
LINE
  8
_1-1_
  6
CONTINUOUS
 62
    2
 10
134.94594677074537
 20
153.28172013566302
 11
132.21929601720862
 21
153.28172013566302
  0
LINE
  8
_1-1_
  6
CONTINUOUS
 62
    2
 10
134.94594677074537
 20
153.28172013566302
 11
134.94594677074537
 21
150.03410957955026
  0
LINE
  8
_1-1_
  6
DASHED1
 62
    3
 10
116.25048250765414
 20
149.686184444943
 11
116.07486209353885
 21
149.686184444943
  0
LINE
  8
_1-0_
  6
CONTINUOUS
 62
    7
 10
115.74595270930111
 20
149.0861799910262
 11
381.08108108108109
 21
149.0861799910262
  0
LINE
  8
_1-1_
  6
DASHED1
 62
    3
 10
116.07486209353885
 20
149.686184444943
 11
116.07486209353885
 21
209.68617207295188
  0
LINE
  8
_1-1_
  6
CONTINUOUS
 62
    2
 10
138.22565027185388
 20
162.48619698189401
 11
138.22565027185388
 21
159.95543196394638
  0
LINE
  8
_1-1_
  6
CONTINUOUS
 62
    2
 10
117.54565677127323
 20
162.48619698189401
 11
138.22565027185388
 21
162.48619698189401
  0
LINE
  8
_1-0_
  6
CONTINUOUS
 62
    7
 10
115.74595270930111
 20
85.032125936972136
 11
115.74595270930111
 21
221.35899724187078
  0
LINE
  8
_1-2_
  6
CONTINUOUS
 62
    7
 10
122.66550837336361
 20
167.48620110589107
 11
122.66550837336361
 21
221.35899724187078
  0
LINE
  8
_1-2_
  6
CONTINUOUS
 62
    7
 10
120.2655029296875
 20
167.48620110589107
 11
122.66550837336361
 21
167.48620110589107
  0
LINE
  8
_1-2_
  6
CONTINUOUS
 62
    7
 10
120.2655029296875
 20
167.48620110589107
 11
120.2655029296875
 21
221.35899724187078
  0
LINE
  8
_1-2_
  6
CONTINUOUS
 62
    7
 10
129.54595617345862
 20
156.88618840398016
 11
129.54595617345862
 21
162.48619698189401
  0
LINE
  8
_1-2_
  6
CONTINUOUS
 62
    7
 10
134.54596029745568
 20
156.88618840398016
 11
134.54596029745568
 21
162.48619698189401
  0
LINE
  8
_1-2_
  6
CONTINUOUS
 62
    7
 10
129.54595617345862
 20
157.24788356471706
 11
129.90765133419552
 21
156.88618840398016
  0
LINE
  8
_1-2_
  6
CONTINUOUS
 62
    7
 10
129.54595617345862
 20
158.09640420449747
 11
130.75615960198479
 21
156.88618840398016
  0
LINE
  8
_1-2_
  6
CONTINUOUS
 62
    7
 10
129.54595617345862
 20
158.94491247228675
 11
131.60468024176521
 21
156.88618840398016
  0
LINE
  8
_1-2_
  6
CONTINUOUS
 62
    7
 10
129.54595617345862
 20
159.79343311206716
 11
132.45320088154563
 21
156.88618840398016
  0
LINE
  8
_1-2_
  6
CONTINUOUS
 62
    7
 10
129.54595617345862
 20
160.64194137985643
 11
133.30172152132602
 21
156.88618840398016
  0
LINE
  8
_1-2_
  6
CONTINUOUS
 62
    7
 10
129.54595617345862
 20
161.49046201963682
 11
134.15022978911529
 21
156.88618840398016
  0
LINE
  8
_1-2_
  6
CONTINUOUS
 62
    7
 10
129.54595617345862
 20
162.33898265941724
 11
134.54596029745568
 21
157.33897853542018
  0
LINE
  8
_1-2_
  6
CONTINUOUS
 62
    7
 10
130.24726249076227
 20
162.48619698189401
 11
134.54596029745568
 21
158.18748680320948
  0
LINE
  8
_1-2_
  6
CONTINUOUS
 62
    7
 10
131.09578313054266
 20
162.48619698189401
 11
134.54596029745568
 21
159.03600744298987
  0
LINE
  8
_1-2_
  6
CONTINUOUS
 62
    7
 10
131.94429139833193
 20
162.48619698189401
 11
134.54596029745568
 21
159.88452808277029
  0
LINE
  8
_1-2_
  6
CONTINUOUS
 62
    7
 10
132.7927996661212
 20
162.48619698189401
 11
134.54596029745568
 21
160.73304872255068
  0
LINE
  8
_1-2_
  6
CONTINUOUS
 62
    7
 10
133.64132030590162
 20
162.48619698189401
 11
134.54596029745568
 21
161.58156936233109
  0
LINE
  8
_1-2_
  6
CONTINUOUS
 62
    7
 10
134.489840945682
 20
162.48619698189401
 11
134.54596029745568
 21
162.43007763012037
  0
LINE
  8
_1-2_
  6
CONTINUOUS
 62
    7
 10
133.98453171188768
 20
156.88618840398016
 11
134.54596029745568
 21
157.44761698954815
  0
LINE
  8
_1-2_
  6
CONTINUOUS
 62
    7
 10
133.13599870011615
 20
156.88618840398016
 11
134.54596029745568
 21
158.29616237331081
  0
LINE
  8
_1-2_
  6
CONTINUOUS
 62
    7
 10
132.28746568834461
 20
156.88618840398016
 11
134.54596029745568
 21
159.14468301309122
  0
LINE
  8
_1-2_
  6
CONTINUOUS
 62
    7
 10
131.43893267657307
 20
156.88618840398016
 11
134.54596029745568
 21
159.99320365287164
  0
LINE
  8
_1-2_
  6
CONTINUOUS
 62
    7
 10
130.59041203679266
 20
156.88618840398016
 11
134.54596029745568
 21
160.8417490366343
  0
LINE
  8
_1-2_
  6
CONTINUOUS
 62
    7
 10
129.74186665303
 20
156.88618840398016
 11
134.54596029745568
 21
161.69026967641472
  0
LINE
  8
_1-2_
  6
CONTINUOUS
 62
    7
 10
129.54595617345862
 20
157.53879856418919
 11
134.49335459116344
 21
162.48619698189401
  0
LINE
  8
_1-2_
  6
CONTINUOUS
 62
    7
 10
129.54595617345862
 20
158.38731920396961
 11
133.6448215793919
 21
162.48619698189401
  0
LINE
  8
_1-2_
  6
CONTINUOUS
 62
    7
 10
129.54595617345862
 20
159.23586458773227
 11
132.79630093961148
 21
162.48619698189401
  0
LINE
  8
_1-2_
  6
CONTINUOUS
 62
    7
 10
129.54595617345862
 20
160.08438522751268
 11
131.94775555584883
 21
162.48619698189401
  0
LINE
  8
_1-2_
  6
CONTINUOUS
 62
    7
 10
129.54595617345862
 20
160.93291823928422
 11
131.09923491606841
 21
162.48619698189401
  0
LINE
  8
_1-2_
  6
CONTINUOUS
 62
    7
 10
129.54595617345862
 20
161.78145125105576
 11
130.25071427628802
 21
162.48619698189401
  0
LINE
  8
_1-0_
  6
CONTINUOUS
 62
    7
 10
115.74595270930111
 20
134.68617207295188
 11
115.74595270930111
 21
146.68617454735011
  0
LINE
  8
_1-3_
  6
CONTINUOUS
 62
    7
 10
70.540540540540547
 20
150.03410957955026
 11
70.540540540540547
 21
180.03410957955026
  0
LINE
  8
_1-3_
  6
CONTINUOUS
 62
    7
 10
107.83783783783784
 20
150.03410957955026
 11
70.540540540540547
 21
150.03410957955026
  0
LINE
  8
_1-3_
  6
CONTINUOUS
 62
    7
 10
107.83783783783784
 20
180.03410957955026
 11
70.540540540540547
 21
180.03410957955026
  0
LINE
  8
_1-3_
  6
CONTINUOUS
 62
    7
 10
62.987483256572006
 20
150.03410957955026
 11
62.987483256572006
 21
209.68617207295188
  0
LINE
  8
_1-3_
  6
CONTINUOUS
 62
    7
 10
107.83783783783784
 20
150.03410957955026
 11
62.987483256572006
 21
150.03410957955026
  0
LINE
  8
_1-3_
  6
CONTINUOUS
 62
    7
 10
107.83783783783784
 20
209.68617207295188
 11
62.987483256572006
 21
209.68617207295188
  0
LINE
  8
_1-3_
  6
CONTINUOUS
 62
    7
 10
82.630147160710521
 20
162.48619698189401
 11
82.630147160710521
 21
184.48619533229518
  0
LINE
  8
_1-3_
  6
CONTINUOUS
 62
    7
 10
107.83783783783784
 20
162.48619698189401
 11
82.630147160710521
 21
162.48619698189401
  0
LINE
  8
_0-1_
  6
CONTINUOUS
 62
    7
 10
125.94595419394004
 20
162.48619698189401
 11
143.63689938107052
 21
211.09167975348396
  0
LINE
  8
_0-1_
  6
CONTINUOUS
 62
    7
 10
132.83053423907307
 20
159.82942323426943
 11
144.84117662584461
 21
192.82839388460727
  0
LINE
  8
_0-1_
  6
CONTINUOUS
 62
    7
 10
122.43243243243244
 20
198.54563945048565
 11
132.26585181983742
 21
225.56275238861909
  0
LINE
  8
_1-3_
  6
CONTINUOUS
 62
    7
 10
115.74595270930111
 20
119.48704487568624
 11
155.74594858530406
 21
119.48704487568624
  0
LINE
  8
_1-3_
  6
CONTINUOUS
 62
    7
 10
115.74595270930111
 20
130.30873891469597
 11
115.74595270930111
 21
119.48704487568624
  0
LINE
  8
_1-3_
  6
CONTINUOUS
 62
    7
 10
155.74594858530406
 20
130.30873891469597
 11
155.74594858530406
 21
119.48704487568624
  0
LINE
  8
_1-3_
  6
CONTINUOUS
 62
    7
 10
155.74594858530406
 20
102.96973151129646
 11
151.88432848131336
 21
100.7402244774071
  0
LINE
  8
_1-3_
  6
CONTINUOUS
 62
    7
 10
155.74594858530406
 20
102.96973151129646
 11
151.88432848131336
 21
105.19923854518582
  0
LINE
  8
_1-3_
  6
CONTINUOUS
 62
    7
 10
110.53146774704392
 20
102.96973151129646
 11
155.74594858530406
 21
102.96973151129646
  0
LINE
  8
_1-3_
  6
CONTINUOUS
 62
    7
 10
155.74594858530406
 20
119.48704487568624
 11
155.74594858530406
 21
102.96973151129646
  0
LINE
  8
_1-3_
  6
CONTINUOUS
 62
    7
 10
100.5314656850454
 20
209.68617207295188
 11
98.847087138407943
 21
206.76873284417232
  0
LINE
  8
_1-3_
  6
CONTINUOUS
 62
    7
 10
100.5314656850454
 20
209.68617207295188
 11
102.21584423168287
 21
206.76873284417232
  0
LINE
  8
_1-3_
  6
CONTINUOUS
 62
    7
 10
100.5314656850454
 20
112.96972738729941
 11
100.5314656850454
 21
209.68617207295188
  0
LINE
  8
_1-3_
  6
CONTINUOUS
 62
    7
 10
98.918918918918919
 20
118.27536918021538
 11
95.274965440904779
 21
120.93945477459883
  0
LINE
  8
_1-3_
  6
CONTINUOUS
 62
    7
 10
133.91662185256547
 20
149.85376306482263
 11
144.1756872228674
 21
178.04031372070312
  0
LINE
  8
_1-3_
  6
CONTINUOUS
 62
    7
 10
132.26585181983742
 20
225.56275238861909
 11
134.59459459459461
 21
225.56275238861909
  0
LINE
  8
_1-3_
  6
CONTINUOUS
 62
    7
 10
143.63689938107052
 20
211.09167975348396
 11
147.56756756756758
 21
211.09167975348396
  0
LINE
  8
_1-3_
  6
CONTINUOUS
 62
    7
 10
144.84117662584461
 20
192.82839388460727
 11
149.18918918918919
 21
192.82839388460727
  0
LINE
  8
_1-3_
  6
CONTINUOUS
 62
    7
 10
144.1756872228674
 20
178.04031372070312
 11
147.56756756756758
 21
178.04031372070312
  0
LINE
  8
_1-3_
  6
CONTINUOUS
 62
    7
 10
83.513513513513516
 20
118.27536918021538
 11
98.918918918918919
 21
118.27536918021538
  0
LINE
  8
_1-0_
  6
CONTINUOUS
 62
    7
 10
115.74595270930111
 20
145.4861780115076
 11
381.08108108108109
 21
145.4861780115076
  0
LINE
  8
_1-0_
  6
CONTINUOUS
 62
    7
 10
115.74595270930111
 20
125.48617388751056
 11
381.08108108108109
 21
125.48617388751056
  0
LINE
  8
_1-0_
  6
CONTINUOUS
 62
    3
 10
125.34592499604096
 20
141.4861771867082
 11
125.74593621331293
 21
141.4861771867082
  0
LINE
  8
_1-0_
  6
CONTINUOUS
 62
    3
 10
125.74593621331293
 20
129.48617471230997
 11
125.34592499604096
 21
129.48617471230997
  0
LINE
  8
_1-0_
  6
CONTINUOUS
 62
    3
 10
124.34592169684333
 20
145.08617916622677
 11
117.1459672257707
 21
145.08617916622677
  0
LINE
  8
_1-0_
  6
CONTINUOUS
 62
    3
 10
125.34592499604096
 20
144.08617586702914
 11
125.34592499604096
 21
141.4861771867082
  0
LINE
  8
_1-0_
  6
CONTINUOUS
 62
    3
 10
125.74593621331293
 20
144.48617471230997
 11
125.74593621331293
 21
141.4861771867082
  0
LINE
  8
_1-0_
  6
CONTINUOUS
 62
    3
 10
124.7459329141153
 20
145.4861780115076
 11
116.74595600849874
 21
145.4861780115076
  0
LINE
  8
_1-0_
  6
CONTINUOUS
 62
    3
 10
125.34592499604096
 20
126.88617603198902
 11
125.34592499604096
 21
129.48617471230997
  0
LINE
  8
_1-0_
  6
CONTINUOUS
 62
    3
 10
125.74593621331293
 20
126.4861771867082
 11
125.74593621331293
 21
129.48617471230997
  0
LINE
  8
_1-0_
  6
CONTINUOUS
 62
    3
 10
117.1459672257707
 20
125.88617273279139
 11
124.34592169684333
 21
125.88617273279139
  0
LINE
  8
_1-0_
  6
CONTINUOUS
 62
    3
 10
116.14596392657306
 20
126.88617603198902
 11
116.14596392657306
 21
144.08617586702914
  0
LINE
  8
_1-0_
  6
CONTINUOUS
 62
    3
 10
115.74595270930111
 20
126.4861771867082
 11
115.74595270930111
 21
144.48617471230997
  0
LINE
  8
_1-0_
  6
CONTINUOUS
 62
    3
 10
116.74595600849874
 20
125.48618625950169
 11
124.7459329141153
 21
125.48618625950169
  0
LINE
  8
ADD_LINE
  6
DOT
 62
    3
 10
116.74595600849874
 20
145.4861780115076
 11
115.34769831476986
 21
145.4861780115076
  0
LINE
  8
ADD_LINE
  6
DOT
 62
    3
 10
115.74595270930111
 20
144.48617471230997
 11
115.74595270930111
 21
145.99742580104518
  0
LINE
  8
ADD_LINE
  6
DOT
 62
    3
 10
116.74595600849874
 20
125.48618625950169
 11
114.84665741791596
 21
125.48618625950169
  0
LINE
  8
ADD_LINE
  6
DOT
 62
    3
 10
115.74595270930111
 20
126.4861771867082
 11
115.74595270930111
 21
125.0544903729413
  0
LINE
  8
_1-0_
  6
CONTINUOUS
 62
    3
 10
305.34591262404984
 20
141.4861771867082
 11
305.74592384132183
 21
141.4861771867082
  0
LINE
  8
_1-0_
  6
CONTINUOUS
 62
    3
 10
305.74592384132183
 20
129.48617471230997
 11
305.34591262404984
 21
129.48617471230997
  0
LINE
  8
_1-0_
  6
CONTINUOUS
 62
    3
 10
304.34590932485219
 20
145.08617916622677
 11
297.14595485377959
 21
145.08617916622677
  0
LINE
  8
_1-0_
  6
CONTINUOUS
 62
    3
 10
305.34591262404984
 20
144.08617586702914
 11
305.34591262404984
 21
141.4861771867082
  0
LINE
  8
_1-0_
  6
CONTINUOUS
 62
    3
 10
305.74592384132183
 20
144.48617471230997
 11
305.74592384132183
 21
141.4861771867082
  0
LINE
  8
_1-0_
  6
CONTINUOUS
 62
    3
 10
304.74592054212417
 20
145.4861780115076
 11
296.7459436365076
 21
145.4861780115076
  0
LINE
  8
_1-0_
  6
CONTINUOUS
 62
    3
 10
305.34591262404984
 20
126.88617603198902
 11
305.34591262404984
 21
129.48617471230997
  0
LINE
  8
_1-0_
  6
CONTINUOUS
 62
    3
 10
305.74592384132183
 20
126.4861771867082
 11
305.74592384132183
 21
129.48617471230997
  0
LINE
  8
_1-0_
  6
CONTINUOUS
 62
    3
 10
297.14595485377959
 20
125.88617273279139
 11
304.34590932485219
 21
125.88617273279139
  0
LINE
  8
_1-0_
  6
CONTINUOUS
 62
    3
 10
296.14595155458193
 20
126.88617603198902
 11
296.14595155458193
 21
144.08617586702914
  0
LINE
  8
_1-0_
  6
CONTINUOUS
 62
    3
 10
295.74594033731
 20
126.4861771867082
 11
295.74594033731
 21
144.48617471230997
  0
LINE
  8
_1-0_
  6
CONTINUOUS
 62
    3
 10
296.7459436365076
 20
125.48618625950169
 11
304.74592054212417
 21
125.48618625950169
  0
LINE
  8
ADD_LINE
  6
DOT
 62
    3
 10
296.7459436365076
 20
145.4861780115076
 11
295.34768594277875
 21
145.4861780115076
  0
LINE
  8
ADD_LINE
  6
DOT
 62
    3
 10
295.74594033731
 20
144.48617471230997
 11
295.74594033731
 21
145.99742580104518
  0
LINE
  8
ADD_LINE
  6
DOT
 62
    3
 10
296.7459436365076
 20
125.48618625950169
 11
294.84664504592484
 21
125.48618625950169
  0
LINE
  8
ADD_LINE
  6
DOT
 62
    3
 10
295.74594033731
 20
126.4861771867082
 11
295.74594033731
 21
125.0544903729413
  0
LINE
  8
_1-0_
  6
CONTINUOUS
 62
    7
 10
380.81993309227198
 20
145.4861780115076
 11
381.08108108108109
 21
145.74733837230787
  0
LINE
  8
_1-0_
  6
CONTINUOUS
 62
    7
 10
377.99149796769427
 20
145.4861780115076
 11
381.08108108108109
 21
148.57576112489443
  0
LINE
  8
_1-0_
  6
CONTINUOUS
 62
    7
 10
375.16311233108109
 20
145.4861780115076
 11
378.7630895666174
 21
149.0861799910262
  0
LINE
  8
_1-0_
  6
CONTINUOUS
 62
    7
 10
372.33467720650339
 20
145.4861780115076
 11
375.93467918602198
 21
149.0861799910262
  0
LINE
  8
_1-0_
  6
CONTINUOUS
 62
    7
 10
369.50624208192568
 20
145.4861780115076
 11
373.10624406144427
 21
149.0861799910262
  0
LINE
  8
_1-0_
  6
CONTINUOUS
 62
    7
 10
366.6778564453125
 20
145.4861780115076
 11
370.27783368084886
 21
149.0861799910262
  0
LINE
  8
_1-0_
  6
CONTINUOUS
 62
    7
 10
363.84942132073479
 20
145.4861780115076
 11
367.44942330025339
 21
149.0861799910262
  0
LINE
  8
_1-0_
  6
CONTINUOUS
 62
    7
 10
361.02098619615714
 20
145.4861780115076
 11
364.62098817567568
 21
149.0861799910262
  0
LINE
  8
_1-0_
  6
CONTINUOUS
 62
    7
 10
358.19260055954396
 20
145.4861780115076
 11
361.79257779508026
 21
149.0861799910262
  0
LINE
  8
_1-0_
  6
CONTINUOUS
 62
    7
 10
355.36416543496625
 20
145.4861780115076
 11
358.96416741448479
 21
149.0861799910262
  0
LINE
  8
_1-0_
  6
CONTINUOUS
 62
    7
 10
352.53573031038854
 20
145.4861780115076
 11
356.13573228990714
 21
149.0861799910262
  0
LINE
  8
_1-0_
  6
CONTINUOUS
 62
    7
 10
349.70734467377537
 20
145.4861780115076
 11
353.30734665329396
 21
149.0861799910262
  0
LINE
  8
_1-0_
  6
CONTINUOUS
 62
    7
 10
346.87886006123313
 20
145.4861780115076
 11
350.47888678473396
 21
149.0861799910262
  0
LINE
  8
_1-0_
  6
CONTINUOUS
 62
    7
 10
344.05047442461995
 20
145.4861780115076
 11
347.65047640413854
 21
149.0861799910262
  0
LINE
  8
_1-0_
  6
CONTINUOUS
 62
    7
 10
341.22203930004224
 20
145.4861780115076
 11
344.82206602354307
 21
149.0861799910262
  0
LINE
  8
_1-0_
  6
CONTINUOUS
 62
    7
 10
338.39365366342906
 20
145.4861780115076
 11
341.99365564294766
 21
149.0861799910262
  0
LINE
  8
_1-0_
  6
CONTINUOUS
 62
    7
 10
335.56521853885135
 20
145.4861780115076
 11
339.16522051836995
 21
149.0861799910262
  0
LINE
  8
_1-0_
  6
CONTINUOUS
 62
    7
 10
332.73678341427365
 20
145.4861780115076
 11
336.33681013777453
 21
149.0861799910262
  0
LINE
  8
_1-0_
  6
CONTINUOUS
 62
    7
 10
329.90839777766047
 20
145.4861780115076
 11
333.50839975717906
 21
149.0861799910262
  0
LINE
  8
_1-0_
  6
CONTINUOUS
 62
    7
 10
327.07996265308282
 20
145.4861780115076
 11
330.67996463260135
 21
149.0861799910262
  0
LINE
  8
_1-0_
  6
CONTINUOUS
 62
    7
 10
324.25152752850511
 20
145.4861780115076
 11
327.85155425200594
 21
149.0861799910262
  0
LINE
  8
_1-0_
  6
CONTINUOUS
 62
    7
 10
321.42314189189193
 20
145.4861780115076
 11
325.02314387141047
 21
149.0861799910262
  0
LINE
  8
_1-0_
  6
CONTINUOUS
 62
    7
 10
318.59470676731422
 20
145.4861780115076
 11
322.19470874683282
 21
149.0861799910262
  0
LINE
  8
_1-0_
  6
CONTINUOUS
 62
    7
 10
315.76629638671875
 20
145.4861780115076
 11
319.36629836623734
 21
149.0861799910262
  0
LINE
  8
_1-0_
  6
CONTINUOUS
 62
    7
 10
312.93788600612334
 20
145.4861780115076
 11
316.53788798564193
 21
149.0861799910262
  0
LINE
  8
_1-0_
  6
CONTINUOUS
 62
    7
 10
310.10945088154563
 20
145.4861780115076
 11
313.70945286106422
 21
149.0861799910262
  0
LINE
  8
_1-0_
  6
CONTINUOUS
 62
    7
 10
307.28101575696792
 20
145.4861780115076
 11
310.88101773648651
 21
149.0861799910262
  0
LINE
  8
_1-0_
  6
CONTINUOUS
 62
    7
 10
304.45258063239021
 20
145.4861780115076
 11
308.0525826119088
 21
149.0861799910262
  0
LINE
  8
_1-0_
  6
CONTINUOUS
 62
    7
 10
301.6241455078125
 20
145.4861780115076
 11
305.22414748733109
 21
149.0861799910262
  0
LINE
  8
_1-0_
  6
CONTINUOUS
 62
    7
 10
298.79571038323479
 20
145.4861780115076
 11
302.39573710673568
 21
149.0861799910262
  0
LINE
  8
_1-0_
  6
CONTINUOUS
 62
    7
 10
295.96727525865714
 20
145.4861780115076
 11
299.56730198215797
 21
149.0861799910262
  0
LINE
  8
_1-0_
  6
CONTINUOUS
 62
    7
 10
293.13886487806167
 20
145.4861780115076
 11
296.73886685758026
 21
149.0861799910262
  0
LINE
  8
_1-0_
  6
CONTINUOUS
 62
    7
 10
290.31045449746625
 20
145.4861780115076
 11
293.91045647698479
 21
149.0861799910262
  0
LINE
  8
_1-0_
  6
CONTINUOUS
 62
    7
 10
287.48201937288854
 20
145.4861780115076
 11
291.08202135240714
 21
149.0861799910262
  0
LINE
  8
_1-0_
  6
CONTINUOUS
 62
    7
 10
284.65358424831084
 20
145.4861780115076
 11
288.25358622782943
 21
149.0861799910262
  0
LINE
  8
_1-0_
  6
CONTINUOUS
 62
    7
 10
281.82517386771536
 20
145.4861780115076
 11
285.42517584723396
 21
149.0861799910262
  0
LINE
  8
_1-0_
  6
CONTINUOUS
 62
    7
 10
278.99671399915542
 20
145.4861780115076
 11
282.59671597867401
 21
149.0861799910262
  0
LINE
  8
_1-0_
  6
CONTINUOUS
 62
    7
 10
276.16827887457771
 20
145.4861780115076
 11
279.76830559807854
 21
149.0861799910262
  0
LINE
  8
_1-0_
  6
CONTINUOUS
 62
    7
 10
273.33989323796453
 20
145.4861780115076
 11
276.93989521748313
 21
149.0861799910262
  0
LINE
  8
_1-0_
  6
CONTINUOUS
 62
    7
 10
270.51145811338682
 20
145.4861780115076
 11
274.11146009290542
 21
149.0861799910262
  0
LINE
  8
_1-0_
  6
CONTINUOUS
 62
    7
 10
267.68304773279141
 20
145.4861780115076
 11
271.28302496832771
 21
149.0861799910262
  0
LINE
  8
_1-0_
  6
CONTINUOUS
 62
    7
 10
264.85458786423146
 20
145.4861780115076
 11
268.45458984375
 21
149.0861799910262
  0
LINE
  8
_1-0_
  6
CONTINUOUS
 62
    7
 10
262.02615273965375
 20
145.4861780115076
 11
265.62620420713682
 21
149.0861799910262
  0
LINE
  8
_1-0_
  6
CONTINUOUS
 62
    7
 10
259.19774235905828
 20
145.4861780115076
 11
262.79776908255911
 21
149.0861799910262
  0
LINE
  8
_1-0_
  6
CONTINUOUS
 62
    7
 10
256.36933197846287
 20
145.4861780115076
 11
259.96933395798141
 21
149.0861799910262
  0
LINE
  8
_1-0_
  6
CONTINUOUS
 62
    7
 10
253.54089685388516
 20
145.4861780115076
 11
257.14089883340375
 21
149.0861799910262
  0
LINE
  8
_1-0_
  6
CONTINUOUS
 62
    7
 10
250.71246172930745
 20
145.4861780115076
 11
254.31246370882602
 21
149.0861799910262
  0
LINE
  8
_1-0_
  6
CONTINUOUS
 62
    7
 10
247.88402660472974
 20
145.4861780115076
 11
251.48402858424834
 21
149.0861799910262
  0
LINE
  8
_1-0_
  6
CONTINUOUS
 62
    7
 10
245.05559148015203
 20
145.4861780115076
 11
248.65561820365289
 21
149.0861799910262
  0
LINE
  8
_1-0_
  6
CONTINUOUS
 62
    7
 10
242.22715635557435
 20
145.4861780115076
 11
245.82715833509292
 21
149.0861799910262
  0
LINE
  8
_1-0_
  6
CONTINUOUS
 62
    7
 10
239.39872123099664
 20
145.4861780115076
 11
242.99874795449747
 21
149.0861799910262
  0
LINE
  8
_1-0_
  6
CONTINUOUS
 62
    7
 10
236.57033559438347
 20
145.4861780115076
 11
240.17033757390203
 21
149.0861799910262
  0
LINE
  8
_1-0_
  6
CONTINUOUS
 62
    7
 10
233.74190046980576
 20
145.4861780115076
 11
237.34190244932435
 21
149.0861799910262
  0
LINE
  8
_1-0_
  6
CONTINUOUS
 62
    7
 10
230.91346534522805
 20
145.4861780115076
 11
234.51346732474664
 21
149.0861799910262
  0
LINE
  8
_1-0_
  6
CONTINUOUS
 62
    7
 10
228.08503022065034
 20
145.4861780115076
 11
231.6850569441512
 21
149.0861799910262
  0
LINE
  8
_1-0_
  6
CONTINUOUS
 62
    7
 10
225.25659509607266
 20
145.4861780115076
 11
228.85664656355576
 21
149.0861799910262
  0
LINE
  8
_1-0_
  6
CONTINUOUS
 62
    7
 10
222.42818471547722
 20
145.4861780115076
 11
226.02821143897805
 21
149.0861799910262
  0
LINE
  8
_1-0_
  6
CONTINUOUS
 62
    7
 10
219.59974959089951
 20
145.4861780115076
 11
223.19977631440034
 21
149.0861799910262
  0
LINE
  8
_1-0_
  6
CONTINUOUS
 62
    7
 10
216.77133921030406
 20
145.4861780115076
 11
220.37134118982266
 21
149.0861799910262
  0
LINE
  8
_1-0_
  6
CONTINUOUS
 62
    7
 10
213.94290408572635
 20
145.4861780115076
 11
217.54290606524495
 21
149.0861799910262
  0
LINE
  8
_1-0_
  6
CONTINUOUS
 62
    7
 10
211.11446896114867
 20
145.4861780115076
 11
214.71447094066724
 21
149.0861799910262
  0
LINE
  8
_1-0_
  6
CONTINUOUS
 62
    7
 10
208.28603383657097
 20
145.4861780115076
 11
211.88603581608953
 21
149.0861799910262
  0
LINE
  8
_1-0_
  6
CONTINUOUS
 62
    7
 10
205.45762345597552
 20
145.4861780115076
 11
209.05765017947635
 21
149.0861799910262
  0
LINE
  8
_1-0_
  6
CONTINUOUS
 62
    7
 10
202.62918833139781
 20
145.4861780115076
 11
206.22920268290753
 21
149.0861799910262
  0
LINE
  8
_1-0_
  6
CONTINUOUS
 62
    7
 10
199.80076557881125
 20
145.4861780115076
 11
203.40077993032097
 21
149.0861799910262
  0
LINE
  8
_1-0_
  6
CONTINUOUS
 62
    7
 10
196.97234282622466
 20
145.4861780115076
 11
200.57235717773437
 21
149.0861799910262
  0
LINE
  8
_1-0_
  6
CONTINUOUS
 62
    7
 10
194.14390770164698
 20
145.4861780115076
 11
197.74390968116555
 21
149.0861799910262
  0
LINE
  8
_1-0_
  6
CONTINUOUS
 62
    7
 10
191.31547257706927
 20
145.4861780115076
 11
194.91548692857899
 21
149.0861799910262
  0
LINE
  8
_1-0_
  6
CONTINUOUS
 62
    7
 10
188.48704982448271
 20
145.4861780115076
 11
192.0870641759924
 21
149.0861799910262
  0
LINE
  8
_1-0_
  6
CONTINUOUS
 62
    7
 10
185.658614699905
 20
145.4861780115076
 11
189.25864142340583
 21
149.0861799910262
  0
LINE
  8
_1-0_
  6
CONTINUOUS
 62
    7
 10
182.83020431930956
 20
145.4861780115076
 11
186.43021867081927
 21
149.0861799910262
  0
LINE
  8
_1-0_
  6
CONTINUOUS
 62
    7
 10
180.00176919473185
 20
145.4861780115076
 11
183.60178354624156
 21
149.0861799910262
  0
LINE
  8
_1-0_
  6
CONTINUOUS
 62
    7
 10
177.17334644214529
 20
145.4861780115076
 11
180.773360793655
 21
149.0861799910262
  0
LINE
  8
_1-0_
  6
CONTINUOUS
 62
    7
 10
174.34491131756758
 20
145.4861780115076
 11
177.94492566907729
 21
149.0861799910262
  0
LINE
  8
_1-0_
  6
CONTINUOUS
 62
    7
 10
171.51648856498102
 20
145.4861780115076
 11
175.11650291649073
 21
149.0861799910262
  0
LINE
  8
_1-0_
  6
CONTINUOUS
 62
    7
 10
168.68806581239443
 20
145.4861780115076
 11
172.28806779191302
 21
149.0861799910262
  0
LINE
  8
_1-0_
  6
CONTINUOUS
 62
    7
 10
165.85963068781672
 20
145.4861780115076
 11
169.45965741131758
 21
149.0861799910262
  0
LINE
  8
_1-0_
  6
CONTINUOUS
 62
    7
 10
163.03120793523016
 20
145.4861780115076
 11
166.63122228673987
 21
149.0861799910262
  0
LINE
  8
_1-0_
  6
CONTINUOUS
 62
    7
 10
160.20278518264359
 20
145.4861780115076
 11
163.80278716216216
 21
149.0861799910262
  0
LINE
  8
_1-0_
  6
CONTINUOUS
 62
    7
 10
157.37435005806589
 20
145.4861780115076
 11
160.97437678156672
 21
149.0861799910262
  0
LINE
  8
_1-0_
  6
CONTINUOUS
 62
    7
 10
154.54592730547932
 20
145.4861780115076
 11
158.14594165698904
 21
149.0861799910262
  0
LINE
  8
_1-0_
  6
CONTINUOUS
 62
    7
 10
151.71750455289273
 20
145.4861780115076
 11
155.31753127639359
 21
149.0861799910262
  0
LINE
  8
_1-0_
  6
CONTINUOUS
 62
    7
 10
148.88908180030617
 20
145.4861780115076
 11
152.48909615181589
 21
149.0861799910262
  0
LINE
  8
_1-0_
  6
CONTINUOUS
 62
    7
 10
146.06064667572846
 20
145.4861780115076
 11
149.66066102723818
 21
149.0861799910262
  0
LINE
  8
_1-0_
  6
CONTINUOUS
 62
    7
 10
143.2322239231419
 20
145.4861780115076
 11
146.83222590266047
 21
149.0861799910262
  0
LINE
  8
_1-0_
  6
CONTINUOUS
 62
    7
 10
140.40380117055534
 20
145.4861780115076
 11
144.00379077808279
 21
149.0861799910262
  0
LINE
  8
_1-0_
  6
CONTINUOUS
 62
    7
 10
137.57536604597763
 20
145.4861780115076
 11
141.17538039748734
 21
149.0861799910262
  0
LINE
  8
_1-0_
  6
CONTINUOUS
 62
    7
 10
134.74694329339104
 20
145.4861780115076
 11
138.34694527290964
 21
149.0861799910262
  0
LINE
  8
_1-0_
  6
CONTINUOUS
 62
    7
 10
131.91850816881336
 20
145.4861780115076
 11
135.51851014833193
 21
149.0861799910262
  0
LINE
  8
_1-0_
  6
CONTINUOUS
 62
    7
 10
129.09008541622677
 20
145.4861780115076
 11
132.69009976773648
 21
149.0861799910262
  0
LINE
  8
_1-0_
  6
CONTINUOUS
 62
    7
 10
126.26166266364021
 20
145.4861780115076
 11
129.8616646431588
 21
149.0861799910262
  0
LINE
  8
_1-0_
  6
CONTINUOUS
 62
    7
 10
123.4332275390625
 20
145.4861780115076
 11
127.03325426256335
 21
149.0861799910262
  0
LINE
  8
_1-0_
  6
CONTINUOUS
 62
    7
 10
120.60480478647594
 20
145.4861780115076
 11
124.20481913798565
 21
149.0861799910262
  0
LINE
  8
_1-0_
  6
CONTINUOUS
 62
    7
 10
117.77636966189823
 20
145.4861780115076
 11
121.37638401340794
 21
149.0861799910262
  0
LINE
  8
_1-0_
  6
CONTINUOUS
 62
    7
 10
115.74595270930111
 20
146.28418381149706
 11
118.54794888883025
 21
149.0861799910262
  0
LINE
  8
_1-0_
  6
CONTINUOUS
 62
    7
 10
115.74595270930111
 20
146.72341424065669
 11
116.98318893845017
 21
145.4861780115076
  0
LINE
  8
_1-0_
  6
CONTINUOUS
 62
    7
 10
116.21159733952703
 20
149.0861799910262
 11
119.81159931904561
 21
145.4861780115076
  0
LINE
  8
_1-0_
  6
CONTINUOUS
 62
    7
 10
119.04000772012247
 20
149.0861799910262
 11
122.64002207163219
 21
145.4861780115076
  0
LINE
  8
_1-0_
  6
CONTINUOUS
 62
    7
 10
121.86846758868244
 20
149.0861799910262
 11
125.46844482421875
 21
145.4861780115076
  0
LINE
  8
_1-0_
  6
CONTINUOUS
 62
    7
 10
124.69690271326014
 20
149.0861799910262
 11
128.29687994879646
 21
145.4861780115076
  0
LINE
  8
_1-0_
  6
CONTINUOUS
 62
    7
 10
127.52533783783784
 20
149.0861799910262
 11
131.12531507337417
 21
145.4861780115076
  0
LINE
  8
_1-0_
  6
CONTINUOUS
 62
    7
 10
130.35374821843328
 20
149.0861799910262
 11
133.95375019795188
 21
145.4861780115076
  0
LINE
  8
_1-0_
  6
CONTINUOUS
 62
    7
 10
133.18220808699326
 20
149.0861799910262
 11
136.78218532252956
 21
145.4861780115076
  0
LINE
  8
_1-0_
  6
CONTINUOUS
 62
    7
 10
136.0106184675887
 20
149.0861799910262
 11
139.61062044710727
 21
145.4861780115076
  0
LINE
  8
_1-0_
  6
CONTINUOUS
 62
    7
 10
138.83905359216638
 20
149.0861799910262
 11
142.43905557168497
 21
145.4861780115076
  0
LINE
  8
_1-0_
  6
CONTINUOUS
 62
    7
 10
141.66748871674409
 20
149.0861799910262
 11
145.26749069626268
 21
145.4861780115076
  0
LINE
  8
_1-0_
  6
CONTINUOUS
 62
    7
 10
144.49594858530406
 20
149.0861799910262
 11
148.09592582084039
 21
145.4861780115076
  0
LINE
  8
_1-0_
  6
CONTINUOUS
 62
    7
 10
147.32438370988177
 20
149.0861799910262
 11
150.92436094541807
 21
145.4861780115076
  0
LINE
  8
_1-0_
  6
CONTINUOUS
 62
    7
 10
150.15281883445948
 20
149.0861799910262
 11
153.75280844198693
 21
145.4861780115076
  0
LINE
  8
_1-0_
  6
CONTINUOUS
 62
    7
 10
152.98125395903716
 20
149.0861799910262
 11
156.58123119457349
 21
145.4861780115076
  0
LINE
  8
_1-0_
  6
CONTINUOUS
 62
    7
 10
155.80968908361487
 20
149.0861799910262
 11
159.40967869114232
 21
145.4861780115076
  0
LINE
  8
_1-0_
  6
CONTINUOUS
 62
    7
 10
158.63812420819258
 20
149.0861799910262
 11
162.23811381572003
 21
145.4861780115076
  0
LINE
  8
_1-0_
  6
CONTINUOUS
 62
    7
 10
161.46655933277029
 20
149.0861799910262
 11
165.06654894029774
 21
145.4861780115076
  0
LINE
  8
_1-0_
  6
CONTINUOUS
 62
    7
 10
164.29499445734797
 20
149.0861799910262
 11
167.89499643686656
 21
145.4861780115076
  0
LINE
  8
_1-0_
  6
CONTINUOUS
 62
    7
 10
167.12342958192568
 20
149.0861799910262
 11
170.72343156144427
 21
145.4861780115076
  0
LINE
  8
_1-0_
  6
CONTINUOUS
 62
    7
 10
169.95186470650339
 20
149.0861799910262
 11
173.55186668602198
 21
145.4861780115076
  0
LINE
  8
_1-0_
  6
CONTINUOUS
 62
    7
 10
172.78029983108109
 20
149.0861799910262
 11
176.38030181059966
 21
145.4861780115076
  0
LINE
  8
_1-0_
  6
CONTINUOUS
 62
    7
 10
175.60874732764992
 20
149.0861799910262
 11
179.20873693517737
 21
145.4861780115076
  0
LINE
  8
_1-0_
  6
CONTINUOUS
 62
    7
 10
178.43718245222763
 20
149.0861799910262
 11
182.03717205975508
 21
145.4861780115076
  0
LINE
  8
_1-0_
  6
CONTINUOUS
 62
    7
 10
181.26560520481419
 20
149.0861799910262
 11
184.86560718433279
 21
145.4861780115076
  0
LINE
  8
_1-0_
  6
CONTINUOUS
 62
    7
 10
184.09405270138302
 20
149.0861799910262
 11
187.6940423089105
 21
145.4861780115076
  0
LINE
  8
_1-0_
  6
CONTINUOUS
 62
    7
 10
186.92248782596073
 20
149.0861799910262
 11
190.52246506149706
 21
145.4861780115076
  0
LINE
  8
_1-0_
  6
CONTINUOUS
 62
    7
 10
189.75092295053844
 20
149.0861799910262
 11
193.35091255806589
 21
145.4861780115076
  0
LINE
  8
_1-0_
  6
CONTINUOUS
 62
    7
 10
192.57935807511615
 20
149.0861799910262
 11
196.17934768264359
 21
145.4861780115076
  0
LINE
  8
_1-0_
  6
CONTINUOUS
 62
    7
 10
195.40778082770271
 20
149.0861799910262
 11
199.0077828072213
 21
145.4861780115076
  0
LINE
  8
_1-0_
  6
CONTINUOUS
 62
    7
 10
198.23622832427154
 20
149.0861799910262
 11
201.83621793179898
 21
145.4861780115076
  0
LINE
  8
_1-0_
  6
CONTINUOUS
 62
    7
 10
201.06466344884925
 20
149.0861799910262
 11
204.66465305637669
 21
145.4861780115076
  0
LINE
  8
_1-0_
  6
CONTINUOUS
 62
    7
 10
203.89309857342695
 20
149.0861799910262
 11
207.4930881809544
 21
145.4861780115076
  0
LINE
  8
_1-0_
  6
CONTINUOUS
 62
    7
 10
206.72154606999578
 20
149.0861799910262
 11
210.32152330553211
 21
145.4861780115076
  0
LINE
  8
_1-0_
  6
CONTINUOUS
 62
    7
 10
209.54995645059122
 20
149.0861799910262
 11
213.14995843010982
 21
145.4861780115076
  0
LINE
  8
_1-0_
  6
CONTINUOUS
 62
    7
 10
212.37839157516893
 20
149.0861799910262
 11
215.9783935546875
 21
145.4861780115076
  0
LINE
  8
_1-0_
  6
CONTINUOUS
 62
    7
 10
215.20682669974664
 20
149.0861799910262
 11
218.80682867926521
 21
145.4861780115076
  0
LINE
  8
_1-0_
  6
CONTINUOUS
 62
    7
 10
218.03528656830659
 20
149.0861799910262
 11
221.63526380384292
 21
145.4861780115076
  0
LINE
  8
_1-0_
  6
CONTINUOUS
 62
    7
 10
220.8637216928843
 20
149.0861799910262
 11
224.46369892842063
 21
145.4861780115076
  0
LINE
  8
_1-0_
  6
CONTINUOUS
 62
    7
 10
223.69215681746201
 20
149.0861799910262
 11
227.29213405299834
 21
145.4861780115076
  0
LINE
  8
_1-0_
  6
CONTINUOUS
 62
    7
 10
226.52059194203972
 20
149.0861799910262
 11
230.12056917757602
 21
145.4861780115076
  0
LINE
  8
_1-0_
  6
CONTINUOUS
 62
    7
 10
229.34900232263516
 20
149.0861799910262
 11
232.94900430215372
 21
145.4861780115076
  0
LINE
  8
_1-0_
  6
CONTINUOUS
 62
    7
 10
232.1774621911951
 20
149.0861799910262
 11
235.77743942673143
 21
145.4861780115076
  0
LINE
  8
_1-0_
  6
CONTINUOUS
 62
    7
 10
235.00589731577281
 20
149.0861799910262
 11
238.60587455130914
 21
145.4861780115076
  0
LINE
  8
_1-0_
  6
CONTINUOUS
 62
    7
 10
237.83433244035052
 20
149.0861799910262
 11
241.43430967588685
 21
145.4861780115076
  0
LINE
  8
_1-0_
  6
CONTINUOUS
 62
    7
 10
240.66274282094597
 20
149.0861799910262
 11
244.26274480046453
 21
145.4861780115076
  0
LINE
  8
_1-0_
  6
CONTINUOUS
 62
    7
 10
243.49122743348818
 20
149.0861799910262
 11
247.09120466902451
 21
145.4861780115076
  0
LINE
  8
_1-0_
  6
CONTINUOUS
 62
    7
 10
246.31966255806589
 20
149.0861799910262
 11
249.91963979360222
 21
145.4861780115076
  0
LINE
  8
_1-0_
  6
CONTINUOUS
 62
    7
 10
249.14809768264359
 20
149.0861799910262
 11
252.74807491817992
 21
145.4861780115076
  0
LINE
  8
_1-0_
  6
CONTINUOUS
 62
    7
 10
251.9765328072213
 20
149.0861799910262
 11
255.57648529877534
 21
145.4861780115076
  0
LINE
  8
_1-0_
  6
CONTINUOUS
 62
    7
 10
254.80496793179901
 20
149.0861799910262
 11
258.40494516733531
 21
145.4861780115076
  0
LINE
  8
_1-0_
  6
CONTINUOUS
 62
    7
 10
257.63340305637672
 20
149.0861799910262
 11
261.23340503589526
 21
145.4861780115076
  0
LINE
  8
_1-0_
  6
CONTINUOUS
 62
    7
 10
260.46183818095443
 20
149.0861799910262
 11
264.06181541649073
 21
145.4861780115076
  0
LINE
  8
_1-0_
  6
CONTINUOUS
 62
    7
 10
263.29027330553208
 20
149.0861799910262
 11
266.89022579708615
 21
145.4861780115076
  0
LINE
  8
_1-0_
  6
CONTINUOUS
 62
    7
 10
266.11870843010979
 20
149.0861799910262
 11
269.71871040962839
 21
145.4861780115076
  0
LINE
  8
_1-0_
  6
CONTINUOUS
 62
    7
 10
268.9471435546875
 20
149.0861799910262
 11
272.54714553420609
 21
145.4861780115076
  0
LINE
  8
_1-0_
  6
CONTINUOUS
 62
    7
 10
271.77557867926521
 20
149.0861799910262
 11
275.3755806587838
 21
145.4861780115076
  0
LINE
  8
_1-0_
  6
CONTINUOUS
 62
    7
 10
274.60401380384292
 20
149.0861799910262
 11
278.20401578336151
 21
145.4861780115076
  0
LINE
  8
_1-0_
  6
CONTINUOUS
 62
    7
 10
277.43244892842063
 20
149.0861799910262
 11
281.03245090793922
 21
145.4861780115076
  0
LINE
  8
_1-0_
  6
CONTINUOUS
 62
    7
 10
280.26088405299834
 20
149.0861799910262
 11
283.86088603251693
 21
145.4861780115076
  0
LINE
  8
_1-0_
  6
CONTINUOUS
 62
    7
 10
283.08931917757604
 20
149.0861799910262
 11
286.68932115709458
 21
145.4861780115076
  0
LINE
  8
_1-0_
  6
CONTINUOUS
 62
    7
 10
285.91775430215375
 20
149.0861799910262
 11
289.51775628167229
 21
145.4861780115076
  0
LINE
  8
_1-0_
  6
CONTINUOUS
 62
    7
 10
288.74618942673146
 20
149.0861799910262
 11
292.34619140625
 21
145.4861780115076
  0
LINE
  8
_1-0_
  6
CONTINUOUS
 62
    7
 10
291.57464929529141
 20
149.0861799910262
 11
295.17462653082771
 21
145.4861780115076
  0
LINE
  8
_1-0_
  6
CONTINUOUS
 62
    7
 10
294.40305967588682
 20
149.0861799910262
 11
298.00306165540542
 21
145.4861780115076
  0
LINE
  8
_1-0_
  6
CONTINUOUS
 62
    7
 10
297.23149480046453
 20
149.0861799910262
 11
300.83149677998313
 21
145.4861780115076
  0
LINE
  8
_1-0_
  6
CONTINUOUS
 62
    7
 10
300.05995466902453
 20
149.0861799910262
 11
303.65993190456084
 21
145.4861780115076
  0
LINE
  8
_1-0_
  6
CONTINUOUS
 62
    7
 10
302.88836504961995
 20
149.0861799910262
 11
306.48836702913854
 21
145.4861780115076
  0
LINE
  8
_1-0_
  6
CONTINUOUS
 62
    7
 10
305.71680017419766
 20
149.0861799910262
 11
309.31680215371625
 21
145.4861780115076
  0
LINE
  8
_1-0_
  6
CONTINUOUS
 62
    7
 10
308.5452600427576
 20
149.0861799910262
 11
312.14523727829396
 21
145.4861780115076
  0
LINE
  8
_1-0_
  6
CONTINUOUS
 62
    7
 10
311.37367042335308
 20
149.0861799910262
 11
314.97367240287161
 21
145.4861780115076
  0
LINE
  8
_1-0_
  6
CONTINUOUS
 62
    7
 10
314.20210554793078
 20
149.0861799910262
 11
317.80210752744932
 21
145.4861780115076
  0
LINE
  8
_1-0_
  6
CONTINUOUS
 62
    7
 10
317.03056541649073
 20
149.0861799910262
 11
320.63054265202703
 21
145.4861780115076
  0
LINE
  8
_1-0_
  6
CONTINUOUS
 62
    7
 10
319.85897579708615
 20
149.0861799910262
 11
323.45897777660474
 21
145.4861780115076
  0
LINE
  8
_1-0_
  6
CONTINUOUS
 62
    7
 10
322.68741092166385
 20
149.0861799910262
 11
326.28741290118245
 21
145.4861780115076
  0
LINE
  8
_1-0_
  6
CONTINUOUS
 62
    7
 10
325.51584604624156
 20
149.0861799910262
 11
329.11584802576016
 21
145.4861780115076
  0
LINE
  8
_1-0_
  6
CONTINUOUS
 62
    7
 10
328.34428117081927
 20
149.0861799910262
 11
331.94428315033787
 21
145.4861780115076
  0
LINE
  8
_1-0_
  6
CONTINUOUS
 62
    7
 10
331.17271629539698
 20
149.0861799910262
 11
334.77271827491558
 21
145.4861780115076
  0
LINE
  8
_1-0_
  6
CONTINUOUS
 62
    7
 10
334.00115141997469
 20
149.0861799910262
 11
337.60115339949328
 21
145.4861780115076
  0
LINE
  8
_1-0_
  6
CONTINUOUS
 62
    7
 10
336.8295865445524
 20
149.0861799910262
 11
340.42958852407094
 21
145.4861780115076
  0
LINE
  8
_1-0_
  6
CONTINUOUS
 62
    7
 10
339.65802166913011
 20
149.0861799910262
 11
343.25802364864865
 21
145.4861780115076
  0
LINE
  8
_1-0_
  6
CONTINUOUS
 62
    7
 10
342.48648153769005
 20
149.0861799910262
 11
346.08645877322635
 21
145.4861780115076
  0
LINE
  8
_1-0_
  6
CONTINUOUS
 62
    7
 10
345.31491666226776
 20
149.0861799910262
 11
348.91489389780406
 21
145.4861780115076
  0
LINE
  8
_1-0_
  6
CONTINUOUS
 62
    7
 10
348.14335178684547
 20
149.0861799910262
 11
351.74332902238177
 21
145.4861780115076
  0
LINE
  8
_1-0_
  6
CONTINUOUS
 62
    7
 10
350.97178691142318
 20
149.0861799910262
 11
354.57176414695948
 21
145.4861780115076
  0
LINE
  8
_1-0_
  6
CONTINUOUS
 62
    7
 10
353.80022203600089
 20
149.0861799910262
 11
357.40019927153719
 21
145.4861780115076
  0
LINE
  8
_1-0_
  6
CONTINUOUS
 62
    7
 10
356.62865716057854
 20
149.0861799910262
 11
360.22868388407943
 21
145.4861780115076
  0
LINE
  8
_1-0_
  6
CONTINUOUS
 62
    7
 10
359.45709228515625
 20
149.0861799910262
 11
363.05711900865714
 21
145.4861780115076
  0
LINE
  8
_1-0_
  6
CONTINUOUS
 62
    7
 10
362.28552740973396
 20
149.0861799910262
 11
365.88550464527032
 21
145.4861780115076
  0
LINE
  8
_1-0_
  6
CONTINUOUS
 62
    7
 10
365.11396253431167
 20
149.0861799910262
 11
368.71393976984797
 21
145.4861780115076
  0
LINE
  8
_1-0_
  6
CONTINUOUS
 62
    7
 10
367.94239765888938
 20
149.0861799910262
 11
371.54237489442568
 21
145.4861780115076
  0
LINE
  8
_1-0_
  6
CONTINUOUS
 62
    7
 10
370.77083278346709
 20
149.0861799910262
 11
374.37081001900339
 21
145.4861780115076
  0
LINE
  8
_1-0_
  6
CONTINUOUS
 62
    7
 10
373.59926790804479
 20
149.0861799910262
 11
377.19924514358109
 21
145.4861780115076
  0
LINE
  8
_1-0_
  6
CONTINUOUS
 62
    7
 10
376.42772777660474
 20
149.0861799910262
 11
380.02772975612334
 21
145.4861780115076
  0
LINE
  8
_1-0_
  6
CONTINUOUS
 62
    7
 10
379.25616290118245
 20
149.0861799910262
 11
381.08108108108109
 21
147.26126181112755
  0
LINE
  8
_1-1_
  6
CONTINUOUS
 62
    3
 10
116.94594924514358
 20
153.88619087837839
 11
174.94591790276607
 21
153.88619087837839
  0
LINE
  8
_1-0_
  6
CONTINUOUS
 62
    7
 10
82.630147160710521
 20
184.48619533229518
 11
82.630147160710521
 21
209.68617207295188
  0
LINE
  8
_1-3_
  6
CONTINUOUS
 62
    7
 10
82.630147160710521
 20
209.68617207295188
 11
80.945768614073074
 21
206.76873284417232
  0
LINE
  8
_1-3_
  6
CONTINUOUS
 62
    7
 10
82.630147160710521
 20
209.68617207295188
 11
84.314525707347983
 21
206.76873284417232
  0
LINE
  8
_1-0_
  6
CONTINUOUS
 62
    7
 10
107.83783783783784
 20
186.48618955869932
 11
82.630147160710521
 21
186.48618955869932
  0
LINE
  8
_1-3_
  6
CONTINUOUS
 62
    7
 10
82.630147160710521
 20
186.48618955869932
 11
80.945768614073074
 21
189.40362878747891
  0
LINE
  8
_1-3_
  6
CONTINUOUS
 62
    7
 10
82.630147160710521
 20
186.48618955869932
 11
84.314525707347983
 21
189.40362878747891
  0
LINE
  8
_1-2_
  6
CONTINUOUS
 62
    7
 10
116.2655021048881
 20
189.69324472788219
 11
120.2655029296875
 21
189.69324472788219
  0
LINE
  8
_1-2_
  6
CONTINUOUS
 62
    7
 10
116.2655021048881
 20
197.69324637748102
 11
120.2655029296875
 21
197.69324637748102
  0
LINE
  8
_1-2_
  6
CONTINUOUS
 62
    7
 10
116.2655021048881
 20
189.69324472788219
 11
116.2655021048881
 21
197.69324637748102
  0
LINE
  8
_1-2_
  6
CONTINUOUS
 62
    7
 10
116.2655021048881
 20
197.69324637748102
 11
120.2655029296875
 21
189.69324472788219
  0
LINE
  8
_1-1_
  6
CONTINUOUS
 62
    2
 10
117.54565677127323
 20
162.48619698189401
 11
117.54565677127323
 21
186.48618955869932
  0
LINE
  8
_1-0_
  6
CONTINUOUS
 62
    7
 10
81.399833060599661
 20
169.67063697608742
 11
71.298986898886199
 21
131.97376148120779
  0
LINE
  8
_1-0_
  6
CONTINUOUS
 62
    7
 10
71.298986898886199
 20
131.97376148120779
 11
68.299607972840988
 21
131.97376148120779
  0
LINE
  8
_1-0_
  6
CONTINUOUS
 62
    7
 10
82.672292348500847
 20
197.0422074601457
 11
76.624578527502109
 21
219.61259171769427
  0
LINE
  8
_1-0_
  6
CONTINUOUS
 62
    7
 10
76.624578527502109
 20
219.61259171769427
 11
74.158710789036093
 21
219.61259171769427
  0
ARC
  8
_1-1_
  6
CONTINUOUS
 62
    3
 10
129.7920845650338
 20
161.01926236539273
 40
4.1404008865356445
 50
201.73239135742187
 51
266.59201049804687
  0
ARC
  8
_1-1_
  6
CONTINUOUS
 62
    3
 10
173.34129539695948
 20
159.63253536739865
 40
2.7463450302948824
 50
270.09652709960937
 51
356.94560241699224
  0
ARC
  8
_1-1_
  6
CONTINUOUS
 62
    3
 10
190.99206872888516
 20
161.01926236539273
 40
4.1404008865356445
 50
201.73239135742187
 51
266.59201049804687
  0
ARC
  8
_1-1_
  6
CONTINUOUS
 62
    3
 10
234.54127956081084
 20
159.63253536739865
 40
2.7463450302948824
 50
270.09652709960937
 51
356.94560241699224
  0
ARC
  8
_1-1_
  6
CONTINUOUS
 62
    3
 10
252.19205289273651
 20
161.01926236539273
 40
4.1404008865356445
 50
201.73239135742187
 51
266.59201049804687
  0
ARC
  8
_1-1_
  6
CONTINUOUS
 62
    3
 10
295.74126372466219
 20
159.63253536739865
 40
2.7463450302948824
 50
270.09652709960937
 51
356.94560241699224
  0
ARC
  8
_1-1_
  6
CONTINUOUS
 62
    3
 10
313.3920618005701
 20
161.01926236539273
 40
4.1404008865356445
 50
201.73239135742187
 51
266.59201049804687
  0
ARC
  8
_1-1_
  6
CONTINUOUS
 62
    3
 10
356.94127263249578
 20
159.63253536739865
 40
2.7463450302948824
 50
270.09652709960937
 51
356.94560241699224
  0
ARC
  8
_1-1_
  6
CONTINUOUS
 62
    3
 10
374.59207070840375
 20
161.01926236539273
 40
4.1404008865356445
 50
201.73239135742187
 51
266.59201049804687
  0
ARC
  8
_1-3_
  6
CONTINUOUS
 62
    7
 10
110.53146774704392
 20
112.96972738729941
 40
9.9999997422501856
 50
180
 51
270
  0
ARC
  8
_1-0_
  6
CONTINUOUS
 62
    3
 10
116.74595600849874
 20
144.48617471230997
 40
0.9999999162313101
 50
90
 51
180
  0
ARC
  8
_1-0_
  6
CONTINUOUS
 62
    3
 10
117.1459672257707
 20
144.08617586702914
 40
0.9999999162313101
 50
90
 51
180
  0
ARC
  8
_1-0_
  6
CONTINUOUS
 62
    3
 10
124.34592169684333
 20
144.08617586702914
 40
0.9999999162313101
 50
0
 51
90
  0
ARC
  8
_1-0_
  6
CONTINUOUS
 62
    3
 10
124.7459329141153
 20
144.48617471230997
 40
0.9999999162313101
 50
0
 51
90
  0
ARC
  8
_1-0_
  6
CONTINUOUS
 62
    3
 10
124.34592169684333
 20
126.88617603198902
 40
0.9999999162313101
 50
270
 51
0
  0
ARC
  8
_1-0_
  6
CONTINUOUS
 62
    3
 10
124.7459329141153
 20
126.4861771867082
 40
0.9999999162313101
 50
270
 51
0
  0
ARC
  8
_1-0_
  6
CONTINUOUS
 62
    3
 10
117.1459672257707
 20
126.88617603198902
 40
0.9999999162313101
 50
180
 51
270
  0
ARC
  8
_1-0_
  6
CONTINUOUS
 62
    3
 10
116.74595600849874
 20
126.4861771867082
 40
0.9999999162313101
 50
180
 51
270
  0
ARC
  8
_1-0_
  6
CONTINUOUS
 62
    3
 10
296.7459436365076
 20
144.48617471230997
 40
0.9999999162313101
 50
90
 51
180
  0
ARC
  8
_1-0_
  6
CONTINUOUS
 62
    3
 10
297.14595485377959
 20
144.08617586702914
 40
0.9999999162313101
 50
90
 51
180
  0
ARC
  8
_1-0_
  6
CONTINUOUS
 62
    3
 10
304.34590932485219
 20
144.08617586702914
 40
0.9999999162313101
 50
0
 51
90
  0
ARC
  8
_1-0_
  6
CONTINUOUS
 62
    3
 10
304.74592054212417
 20
144.48617471230997
 40
0.9999999162313101
 50
0
 51
90
  0
ARC
  8
_1-0_
  6
CONTINUOUS
 62
    3
 10
304.34590932485219
 20
126.88617603198902
 40
0.9999999162313101
 50
270
 51
0
  0
ARC
  8
_1-0_
  6
CONTINUOUS
 62
    3
 10
304.74592054212417
 20
126.4861771867082
 40
0.9999999162313101
 50
270
 51
0
  0
ARC
  8
_1-0_
  6
CONTINUOUS
 62
    3
 10
297.14595485377959
 20
126.88617603198902
 40
0.9999999162313101
 50
180
 51
270
  0
ARC
  8
_1-0_
  6
CONTINUOUS
 62
    3
 10
296.7459436365076
 20
126.4861771867082
 40
0.9999999162313101
 50
180
 51
270
  0
TEXT
  8
_0-0_
 62
    7
 10
147.56756962956609
 20
22.702702702702709
 40
2.5
 41
1
 50
0
  1
図名
  0
TEXT
  8
_0-0_
 62
    7
 10
147.56756962956609
 20
12.972972972972968
 40
2.5
 41
1
 50
0
  1
縮尺
  0
TEXT
  8
_0-0_
 62
    7
 10
382.77784605284
 20
21.243871740392734
 40
2.5
 41
1
 50
0
  1
ＮＯ
  0
TEXT
  8
_0-0_
 62
    7
 10
20.270270012520456
 20
22.702702702702709
 40
2.5
 41
1
 50
0
  1
Ｆ形
  0
TEXT
  8
_0-0_
 62
    7
 10
389.99062615471917
 20
16.178650211643514
 40
2.5
 41
1
 50
0
  1
Ｆ
  0
TEXT
  8
_0-0_
 62
    7
 10
171.37221877639359
 20
12.362518826046511
 40
2.5
 41
1
 50
0
  1
1/5
  0
TEXT
  8
_0-1_
 62
    7
 10
45.397583729511979
 20
13.77361400707349
 40
2.5
 41
1
 50
0
  1
壁際　1
  0
TEXT
  8
_0-1_
 62
    7
 10
31.231869362496042
 20
18.589955922719582
 40
2.5
 41
1
 50
0
  1
Ｓ
  0
TEXT
  8
_0-1_
 62
    7
 10
400.56246783282307
 20
14.331627923089115
 40
2.5
 41
1
 50
0
  1
33
  0
TEXT
  8
_0-1_
 62
    7
 10
283.31418836438979
 20
102.9591905748522
 40
2.5
 41
1
 50
0
  1
桟瓦
  0
TEXT
  8
_1-3_
 62
    7
 10
70.040538890941718
 20
163.15910957955026
 40
2.5
 41
1
 50
90
  1
150
  0
TEXT
  8
_1-3_
 62
    7
 10
133.87095683329815
 20
119.98704652528505
 40
2.5
 41
1
 50
0
  1
200
  0
TEXT
  8
_0-1_
 62
    7
 10
135.95325160670927
 20
224.55733015730576
 40
2.5
 41
1
 50
0
  1
外壁
  0
TEXT
  8
_0-1_
 62
    7
 10
148.75091140334672
 20
210.18189301361909
 40
2.5
 41
1
 50
0
  1
壁際水切鉄板
  0
TEXT
  8
_0-1_
 62
    7
 10
151.731190037083
 20
191.77427549619932
 40
2.5
 41
1
 50
0
  1
発泡弾性シール材
  0
TEXT
  8
_0-1_
 62
    7
 10
149.2768468083562
 20
177.22351486618456
 40
2.5
 41
1
 50
0
  1
捨谷
  0
TEXT
  8
_1-0_
 62
    7
 10
297.32651581635349
 20
74.913426992055534
 40
2.5
 41
1
 50
0
  1
硬質木片セメント板　ｔ＝18
  0
TEXT
  8
_1-0_
 62
    7
 10
283.31419248838682
 20
74.75298701105892
 40
2.5
 41
1
 50
0
  1
野地板
  0
TEXT
  8
_1-3_
 62
    7
 10
82.130145511111706
 20
171.61119615709461
 40
2.5
 41
1
 50
90
  1
120
  0
TEXT
  8
_1-3_
 62
    7
 10
62.301592440218542
 20
176.61684190904774
 40
2.5
 41
1
 50
90
  1
300　以上
  0
TEXT
  8
_1-0_
 62
    7
 10
39.000174032675261
 20
130.79254562790331
 40
2.5
 41
1
 50
0
  1
水切り鉄板立上がり寸法
  0
TEXT
  8
_1-0_
 62
    7
 10
51.229228664088907
 20
232.62876768369935
 40
3
 41
1
 50
0
  1
雨押え板上端より50mm以上とする
  0
TEXT
  8
_1-0_
 62
    7
 10
52.92088173531198
 20
217.80860694679055
 40
2.5
 41
1
 50
0
  1
水切鉄板上端より
  0
TEXT
  8
_1-0_
 62
    7
 10
53.407796911291172
 20
215.08189433329815
 40
2.5
 41
1
 50
0
  1
50ｍｍ以上
  0
TEXT
  8
_1-0_
 62
    7
 10
283.31419248838682
 20
95.658750791807435
 40
2.5
 41
1
 50
0
  1
瓦桟　
  0
TEXT
  8
_1-0_
 62
    7
 10
296.36669262035474
 20
92.658400664458412
 40
2.5
 41
1
 50
0
  1
※　地域により瓦桟木の大きさは、異なります
  0
POINT
  8
_1-3_
 62
    7
 10
70.540540540540547
 20
150.03410957955026
  0
POINT
  8
_1-3_
 62
    7
 10
70.540540540540547
 20
180.03410957955026
  0
POINT
  8
_1-3_
 62
    7
 10
62.987483256572006
 20
150.03410957955026
  0
POINT
  8
_1-3_
 62
    7
 10
62.987483256572006
 20
209.68617207295188
  0
POINT
  8
_1-3_
 62
    7
 10
82.630147160710521
 20
162.48619698189401
  0
POINT
  8
_1-3_
 62
    7
 10
115.74595270930111
 20
119.48704487568624
  0
POINT
  8
_1-3_
 62
    7
 10
155.74594858530406
 20
119.48704487568624
  0
POINT
  8
_1-3_
 62
    7
 10
82.630147160710521
 20
186.48618955869932
  0
TEXT
  8
_1-0_
 62
    7
 10
295.95249485325166
 20
95.842481046109597
 40
2.5
 41
1
 50
0
  1
15ｘ21　（防腐処理）
  0
TEXT
  8
_0-1_
 62
    7
 10
283.31419248838682
 20
88.524244153821797
 40
2.5
 41
1
 50
0
  1
縦桟
  0
TEXT
  8
_1-0_
 62
    7
 10
283.31419661238385
 20
81.555658288904141
 40
2.5
 41
1
 50
0
  1
ルーフィング
  0
TEXT
  8
_0-1_
 62
    7
 10
283.31419661238385
 20
67.950315733213685
 40
2.5
 41
1
 50
0
  1
たる木　Ｃ－100ｘ50ｘ20ｘ2.3
  0
TEXT
  8
_1-0_
 62
    7
 10
50.842610230317007
 20
238.27586405986065
 40
3
 41
1
 50
0
  1
ルーフィング立上げ長さは、300ｍｍ以上かつ
  0
TEXT
  8
_1-0_
 62
    7
 10
32.052842095427707
 20
169.55637472463101
 40
2.5
 41
1
 50
0
  1
ルーフィング立上がり寸法
  0
TEXT
  8
_0-1_
 62
    7
 10
72.941497791657525
 20
116.78148190740414
 40
2.5
 41
1
 50
0
  1
２重貼り
  0
TEXT
  8
_1-0_
 62
    7
 10
56.459248983874943
 20
116.78148190740414
 40
2.5
 41
1
 50
0
  1
ルーフィング
  0
ENDSEC
  0
EOF
