  0
SECTION
  2
HEADER
  9
$ACADVER
  1
AC1009
  9
$INSBASE
 10
0
 20
0
 30
0
  9
$EXTMIN
 10
0
 20
0
  9
$EXTMAX
 10
420
 20
297
  9
$LIMMIN
 10
0
 20
0
  9
$LIMMAX
 10
420
 20
297
  9
$LTSCALE
 40
1
  0
ENDSEC
  0
SECTION
  2
TABLES
  0
TABLE
  2
LTYPE
 70
     9
  0
LTYPE
  2
CONTINUOUS
 70
    64
  3
実線
 72
    65
 73
     0
 40
0.0
  0
LTYPE
  2
DASHED1
 70
    64
  3
--  --  --  --  --  --  --  --  
 72
    65
 73
     2
 40
2.5
 49
1.25
 49
-1.25
  0
LTYPE
  2
DASHED2
 70
    64
  3
----    ----    ----    ----    
 72
    65
 73
     2
 40
5.0
 49
2.5
 49
-2.5
  0
LTYPE
  2
DASHED3
 70
    64
  3
------  ------  ------  ------  
 72
    65
 73
     2
 40
5.0
 49
3.75
 49
-1.25
  0
LTYPE
  2
CENTER1
 70
    64
  3
----- - ----- - ----- - ----- - 
 72
    65
 73
     4
 40
10.0
 49
6.25
 49
-1.25
 49
1.25
 49
-1.25
  0
LTYPE
  2
CENTER2
 70
    64
  3
----------  --  ----------  --  
 72
    65
 73
     4
 40
20.0
 49
12.5
 49
-2.5
 49
2.5
 49
-2.5
  0
LTYPE
  2
PHANTOM1
 70
    64
  3
--- - - --- - - --- - - --- - - 
 72
    65
 73
     6
 40
10.0
 49
3.25
 49
-1.25
 49
1.25
 49
-1.25
 49
1.25
 49
-1.25
  0
LTYPE
  2
PHANTOM2
 70
    64
  3
--------  -  -  --------  -  -  
 72
    65
 73
     6
 40
20.0
 49
10.0
 49
-2.5
 49
1.25
 49
-2.5
 49
1.25
 49
-2.5
  0
LTYPE
  2
DOT
 70
    64
  3
-   -   -   -   -   -   -   -   
 72
    65
 73
     2
 40
2.5
 49
0.625
 49
-1.875
  0
LTYPE
  2
DUMMY
 70
    64
  3
ダミー
 72
    65
 73
     0
 40
0.0
  0
LTYPE
  2
RAND1
 70
    64
  3
ランダム線1
 72
    65
 73
     4
 40
10.0
 49
1.0
 49
-2.0
 49
3.0
 49
-4.0
  0
LTYPE
  2
RAND2
 70
    64
  3
ランダム線2
 72
    65
 73
     4
 40
14.0
 49
2.0
 49
-3.0
 49
4.0
 49
-5.0
  0
LTYPE
  2
RAND3
 70
    64
  3
ランダム線3
 72
    65
 73
     4
 40
18.0
 49
3.0
 49
-4.0
 49
5.0
 49
-6.0
  0
LTYPE
  2
RAND4
 70
    64
  3
ランダム線4
 72
    65
 73
     4
 40
22.0
 49
4.0
 49
-5.0
 49
6.0
 49
-7.0
  0
LTYPE
  2
RAND5
 70
    64
  3
ランダム線5
 72
    65
 73
     4
 40
26.0
 49
5.0
 49
-6.0
 49
7.0
 49
-8.0
  0
LTYPE
  2
LONG1
 70
    64
  3
----------  --  ----------  --  
 72
    65
 73
     4
 40
40.0
 49
32.5
 49
-2.5
 49
2.5
 49
-2.5
  0
LTYPE
  2
LONG2
 70
    64
  3
--------  -  -  --------  -  -  
 72
    65
 73
     6
 40
40.0
 49
30.0
 49
-2.5
 49
1.25
 49
-2.5
 49
1.25
 49
-2.5
  0
LTYPE
  2
LONG3
 70
    64
  3
+++++++++++++++..+++++++++++++++
 72
    65
 73
     2
 40
40.0
 49
37.5
 49
-2.5
  0
LTYPE
  2
LONG4
 70
    64
  3
+++++++++++++++..+++++++++++++++
 72
    65
 73
     2
 40
80.0
 49
75.0
 49
-5.0
  0
LTYPE
  2
LONG5
 70
    64
  3
----------  --  ----------  --  
 72
    65
 73
     4
 40
60.0
 49
37.5
 49
-7.5
 49
7.5
 49
-7.5
  0
LTYPE
  2
dashed
 70
   64
  3
-------   -------------   ------
 72
   65
 73
    2
 40
7.5
 49
6
 49
-1.5
  0
LTYPE
  2
dashed_spaced
 70
   64
  3
----        --------        ----
 72
   65
 73
    2
 40
12
 49
6
 49
-6
  0
LTYPE
  2
long_dashed_dotted
 70
   64
  3
------------- --- --------------
 72
   65
 73
    4
 40
15.25
 49
12
 49
-1.5
 49
0.25
 49
-1.5
  0
LTYPE
  2
long_dashed_double-dotted
 70
   64
  3
----------- --- --- ------------
 72
   65
 73
    6
 40
17
 49
12
 49
-1.5
 49
0.25
 49
-1.5
 49
0.25
 49
-1.5
  0
LTYPE
  2
long_dashed_triplicate-dotted
 70
   64
  3
--------- --- --- --- ----------
 72
   65
 73
    8
 40
18.75
 49
12
 49
-1.5
 49
0.25
 49
-1.5
 49
0.25
 49
-1.5
 49
0.25
 49
-1.5
  0
LTYPE
  2
dotted
 70
   64
  3
   -       -       -       -    
 72
   65
 73
    2
 40
1.75
 49
0.25
 49
-1.5
  0
LTYPE
  2
chain
 70
   64
  3
-------------- -- --------------
 72
   65
 73
    4
 40
18.5
 49
12
 49
-1.5
 49
3.5
 49
-1.5
  0
LTYPE
  2
chain_double_dash
 70
   64
  3
------------ -- -- -------------
 72
   65
 73
    6
 40
23.5
 49
12
 49
-1.5
 49
3.5
 49
-1.5
 49
3.5
 49
-1.5
  0
LTYPE
  2
dashed_dotted
 70
   64
  3
-----------     -     ----------
 72
   65
 73
    4
 40
9.25
 49
6
 49
-1.5
 49
0.25
 49
-1.5
  0
LTYPE
  2
double-dashed_dotted
 70
   64
  3
------   -----------   -   -----
 72
   65
 73
    6
 40
16.75
 49
6
 49
-1.5
 49
6
 49
-1.5
 49
0.25
 49
-1.5
  0
LTYPE
  2
dashed_double-dotted
 70
   64
  3
---------    -    -    ---------
 72
   65
 73
    6
 40
11
 49
6
 49
-1.5
 49
0.25
 49
-1.5
 49
0.25
 49
-1.5
  0
LTYPE
  2
double-dashed_double-dotted
 70
   64
  3
-----   ---------   -   -   ----
 72
   65
 73
    8
 40
18.5
 49
6
 49
-1.5
 49
6
 49
-1.5
 49
0.25
 49
-1.5
 49
0.25
 49
-1.5
  0
LTYPE
  2
dashed_triplicate-dotted
 70
   64
  3
-------    -    -    -    ------
 72
   65
 73
    8
 40
12.75
 49
6
 49
-1.5
 49
0.25
 49
-1.5
 49
0.25
 49
-1.5
 49
0.25
 49
-1.5
  0
LTYPE
  2
double-dashed_triplicate-dotted
 70
   64
  3
-----  ---------  -  -  -  -----
 72
   65
 73
   10
 40
20.25
 49
6
 49
-1.5
 49
6
 49
-1.5
 49
0.25
 49
-1.5
 49
0.25
 49
-1.5
 49
0.25
 49
-1.5
  0
LTYPE
  2
undefined
 70
   64
  3
--------------------------------
 72
   65
 73
    0
 40
0
  0
ENDTAB
  0
TABLE
  2
STYLE
  5
3
100
AcDbSymbolTable
 70
     1
  0
STYLE
  5
10
100
AcDbSymbolTableRecord
100
AcDbTextStyleTableRecord
  2
STANDARD
 70
     0
 40
0.0
 41
1.0
 50
0.0
 71
     0
 42
0.2
  3
txt
  4
bigfont.shx
  0
STYLE
  5
26
100
AcDbSymbolTableRecord
100
AcDbTextStyleTableRecord
  2
TATEGAKI
 70
    68
 40
0.0
 41
1.0
 50
0.0
 71
     0
 42
1.0
  3
txt
  4
bigfont.shx
  0
ENDTAB
  0
TABLE
  2
LAYER
 70
   11
  0
LAYER
  2
_0-0_
 70
   64
 62
    7
  6
CONTINUOUS
  0
LAYER
  2
_0-1_
 70
   64
 62
    7
  6
CONTINUOUS
  0
LAYER
  2
_1-0_
 70
   64
 62
    7
  6
CONTINUOUS
  0
LAYER
  2
_1-1_
 70
   64
 62
    7
  6
CONTINUOUS
  0
LAYER
  2
_1-2_
 70
   64
 62
    7
  6
CONTINUOUS
  0
LAYER
  2
_1-3_
 70
   64
 62
    7
  6
CONTINUOUS
  0
LAYER
  2
_1-4_
 70
   64
 62
    7
  6
CONTINUOUS
  0
LAYER
  2
_1-5_
 70
   64
 62
    7
  6
CONTINUOUS
  0
LAYER
  2
_1-6_
 70
   64
 62
    7
  6
CONTINUOUS
  0
LAYER
  2
_1-7_
 70
   64
 62
    7
  6
CONTINUOUS
  0
LAYER
  2
ADD_LINE
 70
   64
 62
    7
  6
CONTINUOUS
  0
ENDTAB
  0
ENDSEC
  0
SECTION
  2
BLOCKS
  0
ENDSEC
  0
SECTION
  2
ENTITIES
  0
LINE
  8
_0-0_
  6
CONTINUOUS
 62
    5
 10
12.432428308435391
 20
278.51351351351354
 11
412.43244892842063
 21
278.51351351351354
  0
LINE
  8
_0-0_
  6
CONTINUOUS
 62
    5
 10
412.43244892842063
 20
8.5135135135135158
 11
12.432428308435391
 21
8.5135135135135158
  0
LINE
  8
_0-0_
  6
CONTINUOUS
 62
    5
 10
412.43244892842063
 20
28.513511451515001
 11
12.432415936444272
 21
28.513511451515001
  0
LINE
  8
_0-0_
  6
CONTINUOUS
 62
    5
 10
377.43248192039698
 20
8.5135135135135158
 11
377.43248192039698
 21
28.513511451515001
  0
LINE
  8
_0-0_
  6
CONTINUOUS
 62
    5
 10
142.70271507469386
 20
28.513511451515001
 11
142.70271507469386
 21
8.5135135135135158
  0
LINE
  8
_0-0_
  6
CONTINUOUS
 62
    5
 10
220.54054054054055
 20
28.513511451515001
 11
220.54054054054055
 21
8.5135135135135158
  0
LINE
  8
_0-0_
  6
CONTINUOUS
 62
    5
 10
142.70271507469386
 20
18.513512482514244
 11
220.54054054054055
 21
18.513512482514244
  0
LINE
  8
_0-0_
  6
CONTINUOUS
 62
    5
 10
402.16218690614443
 20
24.324325870823216
 11
389.59456985061234
 21
11.756758303255651
  0
TEXT
  8
_0-0_
 62
    7
 10
147.56756962956609
 20
22.702702702702709
 40
2.5
 41
1
 50
0
  1
図名
  0
TEXT
  8
_0-0_
 62
    7
 10
147.56756962956609
 20
12.972972972972968
 40
2.5
 41
1
 50
0
  1
縮尺
  0
TEXT
  8
_0-0_
 62
    7
 10
382.77784605284
 20
21.243871740392734
 40
2.5
 41
1
 50
0
  1
ＮＯ
  0
TEXT
  8
_0-0_
 62
    7
 10
20.270270012520456
 20
22.702702702702709
 40
2.5
 41
1
 50
0
  1
Ｆ形
  0
TEXT
  8
_0-0_
 62
    7
 10
389.99062615471917
 20
16.178650211643514
 40
2.5
 41
1
 50
0
  1
Ｆ
  0
TEXT
  8
_0-0_
 62
    7
 10
171.37221877639359
 20
12.362518826046511
 40
2.5
 41
1
 50
0
  1
1/5
  0
TEXT
  8
_1-0_
 62
    7
 10
139.41949851822659
 20
48.176294280035577
 40
2.5
 41
1
 50
0
  1
棟部分のルーフィングは、両方向へそれぞれ250ｍｍ以上重ね合わせること。
  0
TEXT
  8
_1-0_
 62
    7
 10
139.50729016729753
 20
44.064970279032622
 40
2.5
 41
1
 50
0
  1
隅棟部分のルーフィングは、重ね貼りの上に両方向へそれぞれ250ｍｍ以上増し貼りをすること。
  0
TEXT
  8
_1-4_
 62
    7
 10
45.397582698512736
 20
13.77361400707349
 40
2.5
 41
1
 50
0
  1
片流れ　－　1
  0
LINE
  8
_1-1_
  6
CONTINUOUS
 62
    7
 10
80.080159004162738
 20
116.03086557138013
 11
78.84905928261503
 21
118.76663448238098
  0
LINE
  8
_1-1_
  6
CONTINUOUS
 62
    7
 10
78.84905928261503
 20
118.76663448238098
 11
83.226306861003977
 21
120.7363915624591
  0
LINE
  8
_1-1_
  6
CONTINUOUS
 62
    7
 10
83.226306861003977
 20
120.7363915624591
 11
84.457394210560565
 21
118.00062265145826
  0
LINE
  8
_1-1_
  6
CONTINUOUS
 62
    7
 10
84.457394210560565
 20
118.00062265145826
 11
80.080159004162738
 21
116.03086557138013
  0
LINE
  8
_1-1_
  6
CONTINUOUS
 62
    7
 10
131.14775461491024
 20
139.01128235901737
 11
129.91666726535362
 21
141.7470512700182
  0
LINE
  8
_1-1_
  6
CONTINUOUS
 62
    7
 10
129.91666726535362
 20
141.7470512700182
 11
134.29390247175144
 21
143.71680835009633
  0
LINE
  8
_1-1_
  6
CONTINUOUS
 62
    7
 10
134.29390247175144
 20
143.71680835009633
 11
135.52498982130805
 21
140.9810394390955
  0
LINE
  8
_1-1_
  6
CONTINUOUS
 62
    7
 10
135.52498982130805
 20
140.9810394390955
 11
131.14775461491024
 21
139.01128235901737
  0
LINE
  8
_1-1_
  6
CONTINUOUS
 62
    7
 10
131.14775461491024
 20
139.01128235901737
 11
134.29390247175144
 21
143.71680835009633
  0
LINE
  8
_1-1_
  6
CONTINUOUS
 62
    7
 10
182.21535022565769
 20
161.99172389063688
 11
180.98426287610113
 21
164.72749280163771
  0
LINE
  8
_1-1_
  6
CONTINUOUS
 62
    7
 10
180.98426287610113
 20
164.72749280163771
 11
185.36149808249894
 21
166.69723750972474
  0
LINE
  8
_1-1_
  6
CONTINUOUS
 62
    7
 10
185.36149808249894
 20
166.69723750972474
 11
186.5925854320555
 21
163.96146859872385
  0
LINE
  8
_1-1_
  6
CONTINUOUS
 62
    7
 10
186.5925854320555
 20
163.96146859872385
 11
182.21535022565769
 21
161.99172389063688
  0
LINE
  8
_1-1_
  6
CONTINUOUS
 62
    7
 10
182.21535022565769
 20
161.99172389063688
 11
185.36149808249894
 21
166.69723750972474
  0
LINE
  8
_1-1_
  6
CONTINUOUS
 62
    7
 10
233.28294583640519
 20
184.97215305026526
 11
232.05185848684857
 21
187.70792196126609
  0
LINE
  8
_1-1_
  6
CONTINUOUS
 62
    7
 10
232.05185848684857
 20
187.70792196126609
 11
236.42909369324639
 21
189.67766666935313
  0
LINE
  8
_1-1_
  6
CONTINUOUS
 62
    7
 10
236.42909369324639
 20
189.67766666935313
 11
237.66018104280295
 21
186.94189775835224
  0
LINE
  8
_1-1_
  6
CONTINUOUS
 62
    7
 10
237.66018104280295
 20
186.94189775835224
 11
233.28294583640519
 21
184.97215305026526
  0
LINE
  8
_1-1_
  6
CONTINUOUS
 62
    7
 10
233.28294583640519
 20
184.97215305026526
 11
236.42909369324639
 21
189.67766666935313
  0
LINE
  8
_1-2_
  6
CONTINUOUS
 62
    3
 10
82.281507386236242
 20
126.11294960854229
 11
83.609987049982024
 21
126.5547039238928
  0
LINE
  8
_1-2_
  6
CONTINUOUS
 62
    3
 10
80.952582330809719
 20
125.03873910653638
 11
82.163800262608689
 21
125.44149690583959
  0
LINE
  8
_1-2_
  6
CONTINUOUS
 62
    3
 10
82.281507386236242
 20
126.11294960854229
 11
82.163800262608689
 21
125.44149690583959
  0
LINE
  8
_1-2_
  6
CONTINUOUS
 62
    3
 10
80.952582330809719
 20
125.03873910653638
 11
80.571623979880655
 21
123.01517623702624
  0
LINE
  8
_1-2_
  6
CONTINUOUS
 62
    3
 10
83.861484885708379
 20
124.5306461747374
 11
84.24105757363067
 21
124.65686522826357
  0
LINE
  8
_1-2_
  6
CONTINUOUS
 62
    7
 10
83.609987049982024
 20
126.5547039238928
 11
84.24105757363067
 21
124.65686522826357
  0
LINE
  8
_1-2_
  6
CONTINUOUS
 62
    3
 10
83.861484885708379
 20
124.5306461747374
 11
84.934309724707518
 21
121.30435255934465
  0
LINE
  8
_1-2_
  6
CONTINUOUS
 62
    7
 10
84.552905982097727
 20
118.64832113118798
 11
86.071171989804654
 21
119.15318497330158
  0
LINE
  8
_1-2_
  6
CONTINUOUS
 62
    3
 10
83.609987049982024
 20
126.5547039238928
 11
84.24105757363067
 21
124.65686522826357
  0
LINE
  8
_1-2_
  6
CONTINUOUS
 62
    7
 10
84.24105757363067
 20
124.65686522826357
 11
86.071171989804654
 21
119.15318497330158
  0
LINE
  8
ADD_LINE
  6
DOT
 62
    4
 10
83.122431623461765
 20
127.02488907486408
 11
83.798189779078299
 21
127.24958917779905
  0
LINE
  8
ADD_LINE
  6
DOT
 62
    4
 10
83.420670841683872
 20
127.12405058378511
 11
134.29390247175144
 21
143.71680835009633
  0
LINE
  8
_1-2_
  6
CONTINUOUS
 62
    3
 10
133.3800329748131
 20
149.09871109634844
 11
134.71101178076748
 21
149.53281952117953
  0
LINE
  8
_1-2_
  6
CONTINUOUS
 62
    3
 10
132.04494666780295
 20
148.03213411287084
 11
133.25844104597019
 21
148.42792648116685
  0
LINE
  8
_1-2_
  6
CONTINUOUS
 62
    3
 10
133.3800329748131
 20
149.09871109634844
 11
133.25844104597019
 21
148.42792648116685
  0
LINE
  8
_1-2_
  6
CONTINUOUS
 62
    3
 10
132.04494666780295
 20
148.03213411287084
 11
131.65238338919232
 21
146.0107982017644
  0
LINE
  8
_1-2_
  6
CONTINUOUS
 62
    3
 10
134.95087994482998
 20
147.50736373702622
 11
135.33117020823795
 21
147.63139294812208
  0
LINE
  8
_1-2_
  6
CONTINUOUS
 62
    7
 10
134.71101178076748
 20
149.53281952117953
 11
135.33117020823795
 21
147.63139294812208
  0
LINE
  8
_1-2_
  6
CONTINUOUS
 62
    3
 10
134.95087994482998
 20
147.50736373702622
 11
136.00514679713152
 21
144.27494598602328
  0
LINE
  8
_1-2_
  6
CONTINUOUS
 62
    7
 10
134.29390247175144
 20
143.71680835009633
 11
135.60852550542967
 21
141.62115388826146
  0
LINE
  8
_1-2_
  6
CONTINUOUS
 62
    7
 10
135.60852550542967
 20
141.62115388826146
 11
137.12963707109688
 21
142.11728310463602
  0
LINE
  8
_1-2_
  6
CONTINUOUS
 62
    3
 10
70.766016828539875
 20
119.84108005221839
 11
69.793405117707948
 21
124.78309665378089
  0
LINE
  8
_1-2_
  6
CONTINUOUS
 62
    3
 10
72.708345204278885
 20
126.78567662633156
 11
131.65238338919232
 21
146.0107982017644
  0
LINE
  8
_1-2_
  6
CONTINUOUS
 62
    3
 10
70.766016828539875
 20
119.84108005221839
 11
72.239162184589304
 21
120.48434935912294
  0
LINE
  8
_1-2_
  6
CONTINUOUS
 62
    3
 10
73.11540845649597
 20
123.76290226505623
 11
136.00514679713152
 21
144.27494598602328
  0
LINE
  8
_1-2_
  6
CONTINUOUS
 62
    3
 10
72.428577368816491
 20
122.89066451827624
 11
72.239162184589304
 21
120.48434935912294
  0
LINE
  8
_1-2_
  6
CONTINUOUS
 62
    3
 10
134.71101178076748
 20
149.53281952117953
 11
135.33117020823795
 21
147.63139294812208
  0
LINE
  8
_1-2_
  6
CONTINUOUS
 62
    7
 10
135.33117020823795
 20
147.63139294812208
 11
137.12963707109688
 21
142.11728310463602
  0
LINE
  8
_1-2_
  6
CONTINUOUS
 62
    3
 10
184.44762858556055
 20
172.07912788398568
 11
185.77860739151498
 21
172.51326105279907
  0
LINE
  8
_1-2_
  6
CONTINUOUS
 62
    3
 10
183.11254227855045
 20
171.01256327249922
 11
184.32603665671769
 21
171.40836801278635
  0
LINE
  8
_1-2_
  6
CONTINUOUS
 62
    3
 10
184.44762858556055
 20
172.07912788398568
 11
184.32603665671769
 21
171.40836801278635
  0
LINE
  8
_1-2_
  6
CONTINUOUS
 62
    3
 10
183.11254227855045
 20
171.01256327249922
 11
182.71997899993977
 21
168.99122736139282
  0
LINE
  8
_1-2_
  6
CONTINUOUS
 62
    3
 10
186.01847555557748
 20
170.48779289665464
 11
186.3987658189854
 21
170.61183447974162
  0
LINE
  8
_1-2_
  6
CONTINUOUS
 62
    7
 10
185.77860739151498
 20
172.51326105279907
 11
186.3987658189854
 21
170.61183447974162
  0
LINE
  8
_1-2_
  6
CONTINUOUS
 62
    3
 10
186.01847555557748
 20
170.48779289665464
 11
187.07274240787899
 21
167.25538751764282
  0
LINE
  8
_1-2_
  6
CONTINUOUS
 62
    7
 10
185.36149808249894
 20
166.69723750972474
 11
186.67612111617711
 21
164.60159541988099
  0
LINE
  8
_1-2_
  6
CONTINUOUS
 62
    7
 10
186.67612111617711
 20
164.60159541988099
 11
188.19723268184435
 21
165.09771226426443
  0
LINE
  8
_1-2_
  6
CONTINUOUS
 62
    3
 10
121.83362481127848
 20
142.82150921184675
 11
120.86098835646429
 21
147.76352581340925
  0
LINE
  8
_1-2_
  6
CONTINUOUS
 62
    3
 10
123.77592844303523
 20
149.76610578595992
 11
182.71997899993977
 21
168.99122736139282
  0
LINE
  8
_1-2_
  6
CONTINUOUS
 62
    3
 10
121.83362481127848
 20
142.82150921184675
 11
123.30675779533675
 21
143.4647785187513
  0
LINE
  8
_1-2_
  6
CONTINUOUS
 62
    3
 10
124.18301643923455
 20
146.74333142468458
 11
187.07274240787899
 21
167.25538751764282
  0
LINE
  8
_1-2_
  6
CONTINUOUS
 62
    3
 10
123.49617297956395
 20
145.87109367790461
 11
123.30675779533675
 21
143.4647785187513
  0
LINE
  8
_1-2_
  6
CONTINUOUS
 62
    3
 10
185.77860739151498
 20
172.51326105279907
 11
186.3987658189854
 21
170.61183447974162
  0
LINE
  8
_1-2_
  6
CONTINUOUS
 62
    7
 10
186.3987658189854
 20
170.61183447974162
 11
188.19723268184435
 21
165.09771226426443
  0
LINE
  8
_1-2_
  6
CONTINUOUS
 62
    3
 10
235.51522419630805
 20
195.05955704361406
 11
236.84620300226243
 21
195.49369021242745
  0
LINE
  8
_1-2_
  6
CONTINUOUS
 62
    3
 10
234.1801378892979
 20
193.99299243212761
 11
235.39363226746514
 21
194.38879717241474
  0
LINE
  8
_1-2_
  6
CONTINUOUS
 62
    3
 10
235.51522419630805
 20
195.05955704361406
 11
235.39363226746514
 21
194.38879717241474
  0
LINE
  8
_1-2_
  6
CONTINUOUS
 62
    3
 10
234.1801378892979
 20
193.99299243212761
 11
233.78757461068727
 21
191.9716565210212
  0
LINE
  8
_1-2_
  6
CONTINUOUS
 62
    3
 10
237.08607116632493
 20
193.46822205628303
 11
237.46636142973284
 21
193.59226363937
  0
LINE
  8
_1-2_
  6
CONTINUOUS
 62
    7
 10
236.84620300226243
 20
195.49369021242745
 11
237.46636142973284
 21
193.59226363937
  0
LINE
  8
_1-2_
  6
CONTINUOUS
 62
    3
 10
237.08607116632493
 20
193.46822205628303
 11
238.14033801862644
 21
190.2358166772712
  0
LINE
  8
_1-2_
  6
CONTINUOUS
 62
    7
 10
236.42909369324639
 20
189.67766666935313
 11
237.74371672692462
 21
187.58202457950938
  0
LINE
  8
_1-2_
  6
CONTINUOUS
 62
    7
 10
237.74371672692462
 20
187.58202457950938
 11
239.2648282925918
 21
188.07814142389282
  0
LINE
  8
_1-2_
  6
CONTINUOUS
 62
    3
 10
172.90119567804368
 20
165.80192599948401
 11
171.92860871119399
 21
170.74394260104651
  0
LINE
  8
_1-2_
  6
CONTINUOUS
 62
    3
 10
172.90119567804368
 20
165.80192599948401
 11
174.3743534060842
 21
166.44522005037084
  0
LINE
  8
_1-2_
  6
CONTINUOUS
 62
    3
 10
175.25058730599977
 20
169.72374821232188
 11
238.14033801862644
 21
190.2358166772712
  0
LINE
  8
_1-2_
  6
CONTINUOUS
 62
    3
 10
174.56376859031144
 20
168.85152283753303
 11
174.3743534060842
 21
166.44522005037084
  0
LINE
  8
_1-2_
  6
CONTINUOUS
 62
    3
 10
236.84620300226243
 20
195.49369021242745
 11
237.46636142973284
 21
193.59226363937
  0
LINE
  8
_1-2_
  6
CONTINUOUS
 62
    7
 10
237.46636142973284
 20
193.59226363937
 11
239.2648282925918
 21
188.07814142389282
  0
LINE
  8
_0-1_
  6
CONTINUOUS
 62
    7
 10
144.96569746620878
 20
108.70458069886112
 11
161.24491186126792
 21
108.70458069886112
  0
LINE
  8
_0-1_
  6
CONTINUOUS
 62
    7
 10
147.51348634395373
 20
101.70458234845994
 11
161.24491186126792
 21
101.70458234845994
  0
LINE
  8
_0-1_
  6
CONTINUOUS
 62
    7
 10
150.06127522169868
 20
94.704583998058752
 11
161.24491186126792
 21
94.704583998058752
  0
LINE
  8
_0-1_
  6
CONTINUOUS
 62
    7
 10
106.18755943437812
 20
136.18372564581003
 11
98.701366576481163
 21
156.75190109054185
  0
LINE
  8
_1-2_
  6
CONTINUOUS
 62
    3
 10
63.214586461405133
 20
114.08202952830581
 11
84.934309724707518
 21
121.30435255934465
  0
LINE
  8
_1-2_
  6
CONTINUOUS
 62
    3
 10
63.214586461405133
 20
117.24354339813266
 11
80.571623979880655
 21
123.01517623702624
  0
LINE
  8
ADD_LINE
  6
DOT
 62
    4
 10
63.21459883339628
 20
114.08201715631468
 11
83.226306861003977
 21
120.7363915624591
  0
LINE
  8
_1-4_
  6
CONTINUOUS
 62
    7
 10
98.701366576481163
 20
156.75190109054185
 11
95.067873616968924
 21
156.75190109054185
  0
LINE
  8
_1-0_
  6
CONTINUOUS
 62
    7
 10
245.38370580658039
 20
189.75949501869854
 11
245.3836934345893
 21
189.75949501869854
  0
LINE
  8
_1-0_
  6
CONTINUOUS
 62
    7
 10
63.214586461405133
 20
108.44136040153744
 11
231.38369673378691
 21
184.11747115890125
  0
LINE
  8
_1-0_
  6
CONTINUOUS
 62
    7
 10
63.214586461405133
 20
107.78340554115948
 11
231.38369673378691
 21
183.45950392653214
  0
LINE
  8
_1-0_
  6
CONTINUOUS
 62
    7
 10
245.38368106259816
 20
189.75949501869854
 11
245.3836934345893
 21
189.75949501869854
  0
LINE
  8
_1-0_
  6
CONTINUOUS
 62
    7
 10
84.552905982097727
 20
118.64832113118798
 11
83.226306861003977
 21
120.7363915624591
  0
ARC
  8
_1-2_
  6
CONTINUOUS
 62
    3
 10
74.503780929310551
 20
121.04946479804821
 40
6.01062568458351
 50
107.38015747070314
 51
141.59829711914062
  0
ARC
  8
_1-2_
  6
CONTINUOUS
 62
    3
 10
73.425487670231178
 20
122.81218897852752
 40
0.9999999162313101
 50
108.06419372558594
 51
175.49896240234378
  0
ARC
  8
_1-2_
  6
CONTINUOUS
 62
    3
 10
125.57137654005804
 20
144.02989395767656
 40
6.01062568458351
 50
107.38015747070314
 51
141.59829711914062
  0
ARC
  8
_1-2_
  6
CONTINUOUS
 62
    3
 10
124.49308328097864
 20
145.79261813815589
 40
0.9999999162313101
 50
108.06419372558594
 51
175.49896240234378
  0
ARC
  8
_1-2_
  6
CONTINUOUS
 62
    3
 10
176.6389721508055
 20
167.01032311730495
 40
6.01062568458351
 50
107.38015747070314
 51
141.59829711914062
  0
ARC
  8
_1-2_
  6
CONTINUOUS
 62
    3
 10
175.56067889172613
 20
168.77303492579313
 40
0.9999999162313101
 50
108.06419372558594
 51
175.49896240234378
  0
TEXT
  8
_0-1_
 62
    7
 10
82.951104805768821
 20
155.05700016544685
 40
2.5
 41
1
 50
0
  1
桟瓦
  0
TEXT
  8
_0-1_
 62
    7
 10
167.73140040975295
 20
106.81619420445656
 40
2.5
 41
1
 50
0
  1
瓦桟
  0
TEXT
  8
_1-4_
 62
    7
 10
179.43886755787599
 20
103.66593754145515
 40
2.5
 41
1
 50
0
  1
※　地域により瓦桟木の大きさは、異なります
  0
TEXT
  8
_1-4_
 62
    7
 10
179.35594848251316
 20
106.62735194633689
 40
2.5
 41
1
 50
0
  1
１５×２１　（樹脂桟木）
  0
TEXT
  8
_0-1_
 62
    7
 10
167.73139834775441
 20
99.312284655258921
 40
2.5
 41
1
 50
0
  1
縦桟
  0
TEXT
  8
_0-1_
 62
    7
 10
167.73139628575586
 20
92.029066683869573
 40
2.5
 41
1
 50
0
  1
ルーフィング
  0
LINE
  8
ADD_LINE
  6
DOT
 62
    4
 10
245.38370580658039
 20
222.55285556940169
 11
245.38370580658039
 21
148.47631646790418
  0
LINE
  8
_1-5_
  6
CONTINUOUS
 62
    7
 10
222.81657944170158
 20
179.92565519842228
 11
222.93968887217414
 21
179.65207875914302
  0
LINE
  8
_1-5_
  6
CONTINUOUS
 62
    7
 10
222.93968887217414
 20
179.65207875914302
 11
241.81657944170158
 21
188.14668177913833
  0
LINE
  8
_1-5_
  6
CONTINUOUS
 62
    7
 10
241.61657944170159
 20
188.71461524333159
 11
239.81657944170158
 21
188.71461524333159
  0
LINE
  8
_1-5_
  6
CONTINUOUS
 62
    7
 10
240.11657944170159
 20
188.71461524333159
 11
240.11657944170159
 21
187.38168157527514
  0
LINE
  8
_1-5_
  6
CONTINUOUS
 62
    7
 10
222.81657944170158
 20
179.92565519842228
 11
239.81657944170158
 21
187.5756572370544
  0
LINE
  8
ADD_LINE
  6
DOT
 62
    4
 10
240.79883733930066
 20
203.46344205294787
 11
240.79883733930066
 21
175.25950449754367
  0
LINE
  8
ADD_LINE
  6
DOT
 62
    4
 10
240.79883733930066
 20
203.46344205294787
 11
240.79883733930066
 21
229.70488530634685
  0
LINE
  8
ADD_LINE
  6
DOT
 62
    4
 10
240.79883733930066
 20
230.9769160938387
 11
240.79883733930066
 21
210.0234857323502
  0
LINE
  8
ADD_LINE
  6
DOT
 62
    4
 10
238.09340444112223
 20
206.81937121431417
 11
243.48937875319393
 21
206.81937121431417
  0
ARC
  8
_1-6_
  6
CONTINUOUS
 62
    3
 10
240.84699429703934
 20
201.52366952417299
 40
2
 50
66.037511025421807
 51
114.96708551077444
  0
LINE
  8
_1-6_
  6
CONTINUOUS
 62
    3
 10
240.00279919936602
 20
203.33677035894868
 11
224.46526137662161
 21
196.10236121396716
  0
LINE
  8
_1-6_
  6
CONTINUOUS
 62
    3
 10
239.9739050247228
 20
206.63256481494437
 11
221.89883733930066
 21
198.21666028416581
  0
ARC
  8
_1-6_
  6
CONTINUOUS
 62
    3
 10
240.81810012239612
 20
204.81946398016868
 40
2
 50
66.037511025421807
 51
114.96708551077444
  0
LINE
  8
_1-6_
  6
CONTINUOUS
 62
    3
 10
223.04590319952902
 20
190.38095380958504
 11
224.46526137662161
 21
196.10236121396716
  0
ARC
  8
_1-6_
  6
CONTINUOUS
 62
    3
 10
221.88120752584493
 20
190.66988976737082
 40
1.2000000000000002
 50
284.81194969683048
 51
346.06742092223328
  0
LINE
  8
_1-6_
  6
CONTINUOUS
 62
    3
 10
220.54664804206988
 20
189.07573964976689
 11
222.1879843993257
 21
189.50976565767508
  0
LINE
  8
_1-6_
  6
CONTINUOUS
 62
    3
 10
219.81091176848744
 20
189.80026968350768
 11
221.89883733930066
 21
198.21666028416581
  0
ARC
  8
_1-6_
  6
CONTINUOUS
 62
    3
 10
220.39325960532949
 20
189.65580170461476
 40
0.6
 50
166.06742092223325
 51
284.81194969683054
  0
ARC
  8
_1-6_
  6
CONTINUOUS
 62
    3
 10
259.30744043675662
 20
174.81666028416581
 40
0.6
 50
184.84461930953782
 51
270
  0
LINE
  8
_1-6_
  6
CONTINUOUS
 62
    3
 10
261.33156259858345
 20
174.21666028416581
 11
259.30744043675662
 21
174.21666028416581
  0
ARC
  8
_1-6_
  6
CONTINUOUS
 62
    3
 10
261.33156259858345
 20
174.61666028416579
 40
0.4
 50
270
 51
4.8446193095377375
  0
LINE
  8
_1-6_
  6
CONTINUOUS
 62
    3
 10
259.37462725809382
 20
198.76075365359108
 11
241.63037705450301
 21
206.6470870774092
  0
LINE
  8
_1-6_
  6
CONTINUOUS
 62
    3
 10
259.72880061405004
 20
198.26313902874432
 11
261.73013355564228
 21
174.65044182038275
  0
ARC
  8
_1-6_
  6
CONTINUOUS
 62
    3
 10
259.13094417846173
 20
198.21246672441893
 40
0.6
 50
4.8446193095377126
 51
66.037511025421836
  0
LINE
  8
_1-6_
  6
CONTINUOUS
 62
    3
 10
256.53516145389915
 20
196.73978585485665
 11
241.65927122914624
 21
203.35129262141351
  0
LINE
  8
_1-6_
  6
CONTINUOUS
 62
    3
 10
256.88933480985543
 20
196.24217123000989
 11
258.70958400116831
 21
174.76598797984042
  0
ARC
  8
_1-6_
  6
CONTINUOUS
 62
    3
 10
256.29147837426706
 20
196.1914989256845
 40
0.6
 50
4.8446193095377632
 51
66.037511025421836
  0
LINE
  8
_1-5_
  6
CONTINUOUS
 62
    7
 10
237.79883981369886
 20
196.12844279356918
 11
237.79883981369886
 21
202.12843784477275
  0
LINE
  8
_1-5_
  6
CONTINUOUS
 62
    7
 10
237.79883981369886
 20
202.12843784477275
 11
243.79883486490243
 21
202.12843784477275
  0
LINE
  8
_1-5_
  6
CONTINUOUS
 62
    7
 10
243.79883486490243
 20
202.12843784477275
 11
243.79883486490243
 21
196.12844279356918
  0
LINE
  8
_1-5_
  6
CONTINUOUS
 62
    7
 10
243.79883486490243
 20
196.12844279356918
 11
237.79883981369886
 21
196.12844279356918
  0
LINE
  8
_1-5_
  6
CONTINUOUS
 62
    7
 10
237.79883981369886
 20
202.12843784477275
 11
243.79883486490243
 21
196.12844279356918
  0
LINE
  8
_1-5_
  6
CONTINUOUS
 62
    7
 10
243.79883486490243
 20
202.12843784477275
 11
237.79883981369886
 21
196.12844279356918
  0
LINE
  8
_1-5_
  6
DASHED1
 62
    7
 10
237.19883535978207
 20
198.72844147389014
 11
244.39883931881923
 21
198.72844147389014
  0
LINE
  8
_1-5_
  6
DASHED1
 62
    7
 10
237.19883535978207
 20
199.52843916445178
 11
244.39883931881923
 21
199.52843916445178
  0
LINE
  8
_1-5_
  6
DASHED1
 62
    7
 10
240.29049696767902
 20
199.63676831880144
 11
240.79883733930066
 21
198.22843982429131
  0
LINE
  8
_1-5_
  6
DASHED1
 62
    7
 10
240.79883733930066
 20
198.22843982429131
 11
241.29883898889946
 21
199.62842959677866
  0
LINE
  8
_1-5_
  6
DASHED1
 62
    7
 10
240.29883568970183
 20
199.63676831880144
 11
241.30717771092228
 21
199.63676831880144
  0
LINE
  8
_1-5_
  6
CONTINUOUS
 62
    7
 10
244.19883486490244
 20
195.72844279356917
 11
237.39883981369886
 21
195.72844279356917
  0
LINE
  8
_1-5_
  6
CONTINUOUS
 62
    7
 10
237.39883981369886
 20
200.71263666761902
 11
237.81747203234329
 21
200.71263666761902
  0
LINE
  8
_1-5_
  6
CONTINUOUS
 62
    7
 10
243.79883486490243
 20
200.71263666761902
 11
244.19883486490244
 21
200.71263666761902
  0
LINE
  8
_1-5_
  6
CONTINUOUS
 62
    7
 10
244.19883486490244
 20
200.71263666761902
 11
244.19883486490244
 21
195.72088466170686
  0
LINE
  8
_1-5_
  6
CONTINUOUS
 62
    7
 10
237.39883981369886
 20
195.72088466170686
 11
237.39883981369886
 21
200.71263666761902
  0
LINE
  8
_1-5_
  6
CONTINUOUS
 62
    7
 10
237.39883981369886
 20
199.52843916445178
 11
237.39883981369886
 21
198.72844147389014
  0
LINE
  8
_1-5_
  6
CONTINUOUS
 62
    7
 10
237.19883535978207
 20
199.52843916445178
 11
237.19883535978207
 21
198.72844147389014
  0
LINE
  8
_1-5_
  6
CONTINUOUS
 62
    7
 10
244.39883931881923
 20
199.52843916445178
 11
244.39883931881923
 21
198.72844147389014
  0
LINE
  8
_1-5_
  6
CONTINUOUS
 62
    7
 10
239.81657944170158
 20
195.72844279356917
 11
239.81657944170158
 21
187.5756572370544
  0
LINE
  8
_1-5_
  6
CONTINUOUS
 62
    7
 10
241.61657944170159
 20
195.72844279356917
 11
241.61657944170159
 21
188.05668175515444
  0
LINE
  8
_1-5_
  6
CONTINUOUS
 62
    7
 10
241.81657944170158
 20
195.72844279356917
 11
241.81657944170158
 21
188.47565747689347
  0
LINE
  8
_1-5_
  6
DASHED1
 62
    7
 10
241.29883898889946
 20
206.59098214607315
 11
241.29883898889946
 21
199.62842959677866
  0
LINE
  8
_1-5_
  6
DASHED1
 62
    7
 10
240.29883568970183
 20
206.59098214607315
 11
240.29883568970183
 21
199.63676831880144
  0
LINE
  8
_1-5_
  6
CONTINUOUS
 62
    7
 10
240.67199968621787
 20
207.53927052234005
 11
240.93849237519592
 21
207.53927052234005
  0
LINE
  8
_1-5_
  6
CONTINUOUS
 62
    7
 10
239.798834040103
 20
207.00626040040169
 11
241.79884063849829
 21
207.00626040040169
  0
LINE
  8
_1-5_
  6
CONTINUOUS
 62
    7
 10
239.798834040103
 20
206.55812213762721
 11
239.798834040103
 21
207.00626040040169
  0
LINE
  8
_1-5_
  6
CONTINUOUS
 62
    7
 10
241.79884063849829
 20
206.55812213762721
 11
241.79884063849829
 21
207.00626040040169
  0
ARC
  8
_1-5_
  6
CONTINUOUS
 62
    7
 10
240.79883733930066
 20
206.35296978068041
 40
1.1944762113932017
 50
33.155624389648445
 51
146.84437561035156
  0
LINE
  8
_1-5_
  6
DASHED1
 62
    7
 10
239.798834040103
 20
206.55812213762721
 11
241.79884063849829
 21
206.55812213762721
  0
LINE
  8
_1-3_
  6
CONTINUOUS
 62
    7
 10
231.38369673378691
 20
184.11747115890125
 11
239.81657944170158
 21
187.91227471188546
  0
LINE
  8
_1-2_
  6
CONTINUOUS
 62
    3
 10
174.84354879776498
 20
172.74654731757943
 11
224.87759593994588
 21
189.0655891022636
  0
LINE
  8
_1-2_
  6
CONTINUOUS
 62
    3
 10
224.87759593994588
 20
189.0655891022636
 11
224.94035231868023
 21
189.08605764369321
  0
LINE
  8
_1-2_
  6
CONTINUOUS
 62
    3
 10
224.94035231868023
 20
189.08605764369321
 11
233.78757461068727
 21
191.9716565210212
  0
LINE
  8
_1-0_
  6
CONTINUOUS
 62
    7
 10
228.67337220985939
 20
196.30858780354444
 11
230.44362773042252
 21
190.88099901914583
  0
LINE
  8
_1-0_
  6
CONTINUOUS
 62
    7
 10
224.04022210933741
 20
194.38903553603694
 11
225.69007911836547
 21
189.33058759219796
  0
LINE
  8
_1-0_
  6
CONTINUOUS
 62
    7
 10
224.1492014123053
 20
194.82832915549679
 11
228.67337220985939
 21
196.30858780354444
  0
LINE
  8
_1-0_
  6
CONTINUOUS
 62
    7
 10
225.32137807858811
 20
190.46102193065781
 11
226.70563589126309
 21
189.66182030988207
  0
LINE
  8
_1-0_
  6
CONTINUOUS
 62
    7
 10
224.95018743277029
 20
191.59908938064521
 11
227.72805007979844
 21
189.99528963361172
  0
LINE
  8
_1-0_
  6
CONTINUOUS
 62
    7
 10
224.57899678695279
 20
192.73715683063153
 11
228.75046426833293
 21
190.32875895734094
  0
LINE
  8
_1-0_
  6
CONTINUOUS
 62
    7
 10
224.20780614113508
 20
193.87522428061899
 11
229.77287845686837
 21
190.66222828107064
  0
LINE
  8
_1-0_
  6
CONTINUOUS
 62
    7
 10
224.15416638424449
 20
194.82995363940287
 11
230.31595469109388
 21
191.27244350175388
  0
LINE
  8
_1-0_
  6
CONTINUOUS
 62
    7
 10
225.17541612247945
 20
195.16409525882597
 11
229.9447640452768
 21
192.41051095173995
  0
LINE
  8
_1-0_
  6
CONTINUOUS
 62
    7
 10
226.19666586071529
 20
195.49823687824858
 11
229.57357339945941
 21
193.54857840172619
  0
LINE
  8
_1-0_
  6
CONTINUOUS
 62
    7
 10
227.21791559895186
 20
195.83237849767167
 11
229.20238275364218
 21
194.68664585171325
  0
LINE
  8
_1-0_
  6
CONTINUOUS
 62
    7
 10
228.23916533718869
 20
196.16652011709476
 11
228.83119210782434
 21
195.8247133017008
  0
LINE
  8
_1-5_
  6
CONTINUOUS
 62
    7
 10
234.0035626573964
 20
185.95356535161574
 11
234.31292429564598
 21
185.9013431770486
  0
LINE
  8
_1-5_
  6
CONTINUOUS
 62
    7
 10
234.31292429564598
 20
185.9013431770486
 11
234.57972628440228
 21
186.1209955076018
  0
LINE
  8
_1-5_
  6
DASHED1
 62
    7
 10
232.39801225225494
 20
191.47855017530662
 11
234.0035626573964
 21
185.95356535161574
  0
LINE
  8
_1-5_
  6
DASHED1
 62
    7
 10
232.96873220316286
 20
191.66469915387503
 11
234.57972628440228
 21
186.1209955076018
  0
LINE
  8
_1-5_
  6
DASHED1
 62
    7
 10
232.48178300420807
 20
191.1902827819367
 11
233.0514142198964
 21
191.38015572983576
  0
LINE
  8
_1-5_
  6
DASHED1
 62
    7
 10
232.81690312799395
 20
190.03707711655451
 11
233.43088793188963
 21
190.24173459385602
  0
LINE
  8
_1-5_
  6
DASHED1
 62
    7
 10
232.60827424153911
 20
190.81080906994345
 11
233.16312092782505
 21
190.99575796537209
  0
LINE
  8
_1-5_
  6
DASHED1
 62
    7
 10
232.7347654788702
 20
190.43133535795022
 11
233.27482763575364
 21
190.61134782891727
  0
LINE
  8
_1-5_
  6
DASHED1
 62
    7
 10
232.9286098359226
 20
189.65267935209084
 11
233.49824105161093
 21
189.8425522999899
  0
LINE
  8
_1-5_
  6
DASHED1
 62
    7
 10
233.04031654385119
 20
189.26826921563602
 11
233.60994775953958
 21
189.45814216353509
  0
LINE
  8
_1-5_
  6
DASHED1
 62
    7
 10
233.15202325177984
 20
188.88387145117233
 11
233.72165446746817
 21
189.07374439907142
  0
LINE
  8
_1-5_
  6
DASHED1
 62
    7
 10
233.26372995970848
 20
188.49947368670865
 11
233.83336117539682
 21
188.68934663460772
  0
LINE
  8
_1-5_
  6
DASHED1
 62
    7
 10
233.37543666763708
 20
188.11506355025384
 11
233.94506788332546
 21
188.3049364981529
  0
LINE
  8
_1-5_
  6
DASHED1
 62
    7
 10
233.48714337556572
 20
187.73066578579017
 11
234.05677459125405
 21
187.92053873368923
  0
LINE
  8
_1-5_
  6
DASHED1
 62
    7
 10
233.59885008349437
 20
187.34626802132647
 11
234.1684812991827
 21
187.53614096922556
  0
LINE
  8
_1-5_
  6
DASHED1
 62
    7
 10
233.71055679142302
 20
186.96185788487165
 11
234.28018800711135
 21
187.15173083277074
  0
LINE
  8
_1-5_
  6
DASHED1
 62
    7
 10
233.82226349935161
 20
186.57746012040798
 11
234.39189471504
 21
186.76733306830704
  0
LINE
  8
_1-5_
  6
DASHED1
 62
    7
 10
233.93397020728025
 20
186.19306235594431
 11
234.50360142296859
 21
186.38293530384337
  0
LINE
  8
_1-5_
  6
CONTINUOUS
 62
    7
 10
232.49470308982845
 20
191.50192305621982
 11
232.49742492787743
 21
191.4925698309242
  0
ARC
  8
_1-5_
  6
CONTINUOUS
 62
    7
 10
232.7135636129492
 20
191.56524290683214
 40
0.5657173169625772
 50
23.4754702598987
 51
192.65290865747838
  0
LINE
  8
_1-5_
  6
CONTINUOUS
 62
    7
 10
256.44015974526377
 20
227.91633228344011
 11
258.13309352376882
 21
227.91633228344011
  0
LINE
  8
_1-4_
  6
CONTINUOUS
 62
    7
 10
240.66463385316072
 20
207.03498462719006
 11
251.65791503717676
 21
237.23880080909464
  0
LINE
  8
_1-4_
  6
CONTINUOUS
 62
    7
 10
251.65791503717676
 20
237.23880080909464
 11
255.65790348998502
 21
237.23880080909464
  0
LINE
  8
_1-5_
  6
CONTINUOUS
 62
    7
 10
247.714593485428
 20
203.94299088588699
 11
256.44015974526377
 21
227.91633228344011
  0
LINE
  8
_1-4_
  6
CONTINUOUS
 62
    7
 10
227.59540434768547
 20
193.19828902872462
 11
214.88195653335433
 21
228.12819517468563
  0
LINE
  8
_1-4_
  6
CONTINUOUS
 62
    7
 10
214.88195653335433
 20
228.12819517468563
 11
211.55464434725423
 21
228.12819517468563
  0
LINE
  8
_1-4_
  6
CONTINUOUS
 62
    7
 10
239.85219019416883
 20
200.51945641353683
 11
223.79599290964228
 21
244.63349002583055
  0
LINE
  8
_1-4_
  6
CONTINUOUS
 62
    7
 10
223.79599290964228
 20
244.63349002583055
 11
219.28711327053901
 21
244.63349002583055
  0
LINE
  8
_1-4_
  6
CONTINUOUS
 62
    7
 10
223.00416830828368
 20
239.34632164534992
 11
218.46451019359384
 21
239.34632164534992
  0
LINE
  8
_1-4_
  6
CONTINUOUS
 62
    7
 10
237.39883981369886
 20
199.79729198330887
 11
223.00416830828368
 21
239.34632164534992
  0
TEXT
  8
_1-4_
 62
    7
 10
256.50631327197652
 20
236.22042995295817
 40
2.5
 41
1
 50
0
  1
パッキン付きステンレスネジ
  0
TEXT
  8
_1-4_
 62
    7
 10
198.59327327025153
 20
243.29481641468684
 40
2.5
 41
1
 50
0
  1
棟補強芯材40ｘ40
  0
TEXT
  8
_1-4_
 62
    7
 10
205.30464434725423
 20
237.86563610684857
 40
2.5
 41
1
 50
0
  1
棟補強金具
  0
TEXT
  8
_1-4_
 62
    7
 10
258.77206096390825
 20
226.67823426039394
 40
2.5
 41
1
 50
0
  1
片流れ冠瓦
  0
TEXT
  8
_1-4_
 62
    7
 10
200.36724250079959
 20
227.00727549117204
 40
2.5
 41
1
 50
0
  1
シーラー
  0
TEXT
  8
_0-0_
 62
    7
 10
31.231870393495313
 20
18.589955922719582
 40
2.5
 41
1
 50
0
  1
ＲＣ造
  0
TEXT
  8
_1-4_
 62
    7
 10
399.59824433197849
 20
13.997444977631432
 40
2.5
 41
1
 50
0
  1
40
  0
LINE
  8
_1-0_
  6
CONTINUOUS
 62
    7
 10
80.449905613151543
 20
68.166800005816384
 11
218.31139892835196
 21
130.204483701214
  0
TEXT
  8
_1-4_
 62
    7
 10
167.19808361549386
 20
86.749008169966302
 40
2.5
 41
1
 50
0
  1
パーライト系モルタル　ｔ＝50
  0
LINE
  8
_1-3_
  6
CONTINUOUS
 62
    7
 10
133.01596857777446
 20
141.53617068117742
 11
152.6090620822159
 21
87.704585647657581
  0
LINE
  8
_0-1_
  6
CONTINUOUS
 62
    7
 10
152.6090620822159
 20
87.704585647657581
 11
161.24491186126792
 21
87.704585647657581
  0
LINE
  8
_1-5_
  6
CONTINUOUS
 62
    7
 10
241.81657944170158
 20
188.47565747689347
 11
250.84400802131725
 21
192.53800142028558
  0
LINE
  8
_1-5_
  6
CONTINUOUS
 62
    7
 10
241.81657944170158
 20
188.14668177913833
 11
250.96711745178982
 21
192.2644249810063
  0
LINE
  8
_1-4_
  6
CONTINUOUS
 62
    7
 10
250.84400802131725
 20
192.53800142028558
 11
250.96711745178982
 21
192.2644249810063
  0
LINE
  8
_1-0_
  6
CONTINUOUS
 62
    7
 10
63.214586461405133
 20
106.46750200639913
 11
256.05045390239786
 21
193.24365872537541
  0
LINE
  8
_1-0_
  6
DASHED1
 62
    7
 10
256.05045390239786
 20
193.68343204382589
 11
199.66453496568363
 21
168.30976373893023
  0
LINE
  8
_1-0_
  6
DASHED1
 62
    7
 10
63.214586461405133
 20
107.12545686677709
 11
256.05045390239786
 21
193.90160900200269
  0
LINE
  8
_1-0_
  6
CONTINUOUS
 62
    7
 10
256.05045390239786
 20
193.90160900200269
 11
256.05045390239786
 21
193.24365872537541
  0
LINE
  8
_1-0_
  6
CONTINUOUS
 62
    7
 10
68.138963361904104
 20
95.524444291946921
 11
256.05045390239786
 21
180.0846309876506
  0
LINE
  8
_1-7_
  6
CONTINUOUS
 62
    7
 10
111.89826028562815
 20
114.93278628324705
 11
101.33823842449405
 21
77.566551544206121
  0
LINE
  8
_1-7_
  6
CONTINUOUS
 62
    7
 10
201.22086422749484
 20
155.41131097926342
 11
190.56909416818053
 21
117.72044420399294
  0
LINE
  8
_1-7_
  6
CONTINUOUS
 62
    7
 10
205.03071195600378
 20
157.12574278052412
 11
194.37894690403462
 21
119.43487825855937
  0
LINE
  8
_1-7_
  6
CONTINUOUS
 62
    7
 10
113.89493117507855
 20
116.11463369226391
 11
103.24316612310942
 21
78.423769170299195
  0
LINE
  8
_1-7_
  6
CONTINUOUS
 62
    7
 10
110.08508347582016
 20
114.40020190416598
 11
99.433313416505854
 21
76.709335128895503
  0
LINE
  8
_1-0_
  6
CONTINUOUS
 62
    7
 10
218.31139892835196
 20
130.204483701214
 11
218.31139892835196
 21
77.218801996672212
  0
LINE
  8
_1-0_
  6
DASHED1
 62
    7
 10
248.31139892835196
 20
176.60205559233378
 11
248.31139892835196
 21
77.218801996672212
  0
LINE
  8
_1-0_
  6
CONTINUOUS
 62
    7
 10
256.05045390239786
 20
193.24365872537541
 11
256.05045390239786
 21
77.218801996672212
  0
LINE
  8
_1-7_
  6
CONTINUOUS
 62
    7
 10
256.05045390239786
 20
111.18075173327082
 11
246.45251249433548
 21
77.218801996672212
  0
LINE
  8
_1-7_
  6
CONTINUOUS
 62
    7
 10
256.05045390239786
 20
122.94731583219409
 11
243.12717417433015
 21
77.218801996672212
  0
LINE
  8
_1-7_
  6
CONTINUOUS
 62
    7
 10
256.05045390239786
 20
117.06404814051881
 11
244.78984192798168
 21
77.218801996672212
  0
CIRCLE
  8
_1-7_
  6
CONTINUOUS
 62
    7
 10
67.619438897449072
 20
105.33856142529426
 40
0.1643557161898226
  0
CIRCLE
  8
_1-7_
  6
CONTINUOUS
 62
    7
 10
71.39957088185048
 20
105.00985617891017
 40
0.1643557161898226
  0
CIRCLE
  8
_1-7_
  6
CONTINUOUS
 62
    7
 10
67.126377934875165
 20
103.53067329118846
 40
0.1643557161898226
  0
CIRCLE
  8
_1-7_
  6
CONTINUOUS
 62
    7
 10
66.797672688491105
 20
105.99597810405798
 40
0.1643557161898226
  0
CIRCLE
  8
_1-7_
  6
CONTINUOUS
 62
    7
 10
70.577804672892483
 20
106.98209384321022
 40
0.1643557161898226
  0
CIRCLE
  8
_1-7_
  6
CONTINUOUS
 62
    7
 10
78.138065548697512
 20
108.13257767054341
 40
0.1643557161898226
  0
CIRCLE
  8
_1-7_
  6
CONTINUOUS
 62
    7
 10
73.043109485762045
 20
106.65339478282171
 40
0.1643557161898226
  0
CIRCLE
  8
_1-7_
  6
CONTINUOUS
 62
    7
 10
75.508408112635948
 20
108.95434387950139
 40
0.1643557161898226
  0
CIRCLE
  8
_1-7_
  6
CONTINUOUS
 62
    7
 10
80.110315584988683
 20
111.25528679018551
 40
0.1643557161898226
  0
CIRCLE
  8
_1-7_
  6
CONTINUOUS
 62
    7
 10
81.753848002904618
 20
112.8988315800926
 40
0.1643557161898226
  0
CIRCLE
  8
_1-7_
  6
CONTINUOUS
 62
    7
 10
85.04091283873656
 20
111.25528679018551
 40
0.1643557161898226
  0
CIRCLE
  8
_1-7_
  6
CONTINUOUS
 62
    7
 10
83.068668988440976
 20
110.26916486503771
 40
0.1643557161898226
  0
CIRCLE
  8
_1-7_
  6
CONTINUOUS
 62
    7
 10
77.973712925505481
 20
111.25528679018551
 40
0.1643557161898226
  0
CIRCLE
  8
_1-7_
  6
CONTINUOUS
 62
    7
 10
81.096437510136468
 20
112.8988315800926
 40
0.1643557161898226
  0
CIRCLE
  8
_1-7_
  6
CONTINUOUS
 62
    7
 10
83.561729951014883
 20
112.8988315800926
 40
0.1643557161898226
  0
CIRCLE
  8
_1-7_
  6
CONTINUOUS
 62
    7
 10
87.013156689032186
 20
114.37800209582318
 40
0.1643557161898226
  0
CIRCLE
  8
_1-7_
  6
CONTINUOUS
 62
    7
 10
90.957644389623383
 20
115.36412402097099
 40
0.1643557161898226
  0
CIRCLE
  8
_1-7_
  6
CONTINUOUS
 62
    7
 10
89.149750069522028
 20
113.22753064048112
 40
0.1643557161898226
  0
CIRCLE
  8
_1-7_
  6
CONTINUOUS
 62
    7
 10
89.149750069522028
 20
116.35024594611879
 40
0.1643557161898226
  0
CIRCLE
  8
_1-7_
  6
CONTINUOUS
 62
    7
 10
103.77721704455372
 20
121.11650604166356
 40
0.1643557161898226
  0
CIRCLE
  8
_1-7_
  6
CONTINUOUS
 62
    7
 10
100.98321317129567
 20
121.28085557185781
 40
0.1643557161898226
  0
CIRCLE
  8
_1-7_
  6
CONTINUOUS
 62
    7
 10
97.531786433278384
 20
119.47296125175646
 40
0.1643557161898226
  0
CIRCLE
  8
_1-7_
  6
CONTINUOUS
 62
    7
 10
102.13368462663776
 20
118.65118885680292
 40
0.1643557161898226
  0
CIRCLE
  8
_1-7_
  6
CONTINUOUS
 62
    7
 10
97.860497865658019
 20
118.65118885680292
 40
0.1643557161898226
  0
CIRCLE
  8
_1-7_
  6
CONTINUOUS
 62
    7
 10
93.916010165066822
 20
118.81556313097943
 40
0.1643557161898226
  0
CIRCLE
  8
_1-7_
  6
CONTINUOUS
 62
    7
 10
94.244721597446457
 20
116.35024594611879
 40
0.1643557161898226
  0
CIRCLE
  8
_1-7_
  6
CONTINUOUS
 62
    7
 10
92.108115844965468
 20
114.70670115621169
 40
0.1643557161898226
  0
CIRCLE
  8
_1-7_
  6
CONTINUOUS
 62
    7
 10
86.52009572645828
 20
115.36412402097099
 40
0.1643557161898226
  0
CIRCLE
  8
_1-7_
  6
CONTINUOUS
 62
    7
 10
86.52009572645828
 20
112.73448204989835
 40
0.1643557161898226
  0
CIRCLE
  8
_1-7_
  6
CONTINUOUS
 62
    7
 10
89.478461501901705
 20
114.87107543038822
 40
0.1643557161898226
  0
CIRCLE
  8
_1-7_
  6
CONTINUOUS
 62
    7
 10
92.765538709724737
 20
117.33636787126659
 40
0.1643557161898226
  0
CIRCLE
  8
_1-7_
  6
CONTINUOUS
 62
    7
 10
103.94157276074354
 20
121.93826606462596
 40
0.1643557161898226
  0
CIRCLE
  8
_1-7_
  6
CONTINUOUS
 62
    7
 10
107.88606046133475
 20
122.92438798977378
 40
0.1643557161898226
  0
CIRCLE
  8
_1-7_
  6
CONTINUOUS
 62
    7
 10
106.07816614123341
 20
120.78779460928391
 40
0.1643557161898226
  0
CIRCLE
  8
_1-7_
  6
CONTINUOUS
 62
    7
 10
106.07816614123341
 20
123.91050991492158
 40
0.1643557161898226
  0
CIRCLE
  8
_1-7_
  6
CONTINUOUS
 62
    7
 10
117.91162924300706
 20
128.8411195406606
 40
0.1643557161898226
  0
CIRCLE
  8
_1-7_
  6
CONTINUOUS
 62
    7
 10
114.46020250498974
 20
127.03322522055925
 40
0.1643557161898226
  0
CIRCLE
  8
_1-7_
  6
CONTINUOUS
 62
    7
 10
114.78891393736939
 20
126.2114528256057
 40
0.1643557161898226
  0
CIRCLE
  8
_1-7_
  6
CONTINUOUS
 62
    7
 10
110.84442623677816
 20
126.37582709978223
 40
0.1643557161898226
  0
CIRCLE
  8
_1-7_
  6
CONTINUOUS
 62
    7
 10
111.17313766915782
 20
123.91050991492158
 40
0.1643557161898226
  0
CIRCLE
  8
_1-7_
  6
CONTINUOUS
 62
    7
 10
109.03653191667684
 20
122.26696512501448
 40
0.1643557161898226
  0
CIRCLE
  8
_1-7_
  6
CONTINUOUS
 62
    7
 10
103.44851179816963
 20
122.92438798977378
 40
0.1643557161898226
  0
CIRCLE
  8
_1-7_
  6
CONTINUOUS
 62
    7
 10
103.44851179816963
 20
120.29474601870113
 40
0.1643557161898226
  0
CIRCLE
  8
_1-7_
  6
CONTINUOUS
 62
    7
 10
106.40687757361304
 20
122.431339399191
 40
0.1643557161898226
  0
CIRCLE
  8
_1-7_
  6
CONTINUOUS
 62
    7
 10
109.6939547814361
 20
124.89663184006939
 40
0.1643557161898226
  0
CIRCLE
  8
_1-7_
  6
CONTINUOUS
 62
    7
 10
121.36304360903324
 20
128.67675763847521
 40
0.1643557161898226
  0
CIRCLE
  8
_1-7_
  6
CONTINUOUS
 62
    7
 10
125.30753130962445
 20
129.66287956362302
 40
0.1643557161898226
  0
CIRCLE
  8
_1-7_
  6
CONTINUOUS
 62
    7
 10
123.4996369895231
 20
127.52628618313315
 40
0.1643557161898226
  0
CIRCLE
  8
_1-7_
  6
CONTINUOUS
 62
    7
 10
123.4996369895231
 20
130.64900148877084
 40
0.1643557161898226
  0
CIRCLE
  8
_1-7_
  6
CONTINUOUS
 62
    7
 10
135.33309390530118
 20
135.57961111450985
 40
0.1643557161898226
  0
CIRCLE
  8
_1-7_
  6
CONTINUOUS
 62
    7
 10
131.88167953927501
 20
133.77171679440849
 40
0.1643557161898226
  0
CIRCLE
  8
_1-7_
  6
CONTINUOUS
 62
    7
 10
132.2103785996635
 20
132.94994439945495
 40
0.1643557161898226
  0
CIRCLE
  8
_1-7_
  6
CONTINUOUS
 62
    7
 10
128.26589708506788
 20
133.11431867363149
 40
0.1643557161898226
  0
CIRCLE
  8
_1-7_
  6
CONTINUOUS
 62
    7
 10
128.59460851744751
 20
130.64900148877084
 40
0.1643557161898226
  0
CIRCLE
  8
_1-7_
  6
CONTINUOUS
 62
    7
 10
126.45800276496651
 20
129.00545669886372
 40
0.1643557161898226
  0
CIRCLE
  8
_1-7_
  6
CONTINUOUS
 62
    7
 10
120.86998264645933
 20
129.66287956362302
 40
0.1643557161898226
  0
CIRCLE
  8
_1-7_
  6
CONTINUOUS
 62
    7
 10
120.86998264645933
 20
127.03323759255038
 40
0.1643557161898226
  0
CIRCLE
  8
_1-7_
  6
CONTINUOUS
 62
    7
 10
123.82834842190276
 20
129.16983097304026
 40
0.1643557161898226
  0
CIRCLE
  8
_1-7_
  6
CONTINUOUS
 62
    7
 10
127.11542562972581
 20
131.63512341391862
 40
0.1643557161898226
  0
CIRCLE
  8
_1-7_
  6
CONTINUOUS
 62
    7
 10
135.00439484491267
 20
135.08655015193594
 40
0.1643557161898226
  0
CIRCLE
  8
_1-7_
  6
CONTINUOUS
 62
    7
 10
138.94888254550389
 20
136.07267207708375
 40
0.1643557161898226
  0
CIRCLE
  8
_1-7_
  6
CONTINUOUS
 62
    7
 10
137.14098822540254
 20
133.93607869659388
 40
0.1643557161898226
  0
CIRCLE
  8
_1-7_
  6
CONTINUOUS
 62
    7
 10
137.14098822540254
 20
137.05879400223156
 40
0.1643557161898226
  0
CIRCLE
  8
_1-7_
  6
CONTINUOUS
 62
    7
 10
148.97445132717621
 20
141.98940362797057
 40
0.1643557161898226
  0
CIRCLE
  8
_1-7_
  6
CONTINUOUS
 62
    7
 10
145.52302458915887
 20
140.18150930786922
 40
0.1643557161898226
  0
CIRCLE
  8
_1-7_
  6
CONTINUOUS
 62
    7
 10
145.85173602153853
 20
139.35973691291568
 40
0.1643557161898226
  0
CIRCLE
  8
_1-7_
  6
CONTINUOUS
 62
    7
 10
141.9072483209473
 20
139.52411118709219
 40
0.1643557161898226
  0
CIRCLE
  8
_1-7_
  6
CONTINUOUS
 62
    7
 10
142.23595975332697
 20
137.05879400223156
 40
0.1643557161898226
  0
CIRCLE
  8
_1-7_
  6
CONTINUOUS
 62
    7
 10
140.09935400084595
 20
135.41524921232445
 40
0.1643557161898226
  0
CIRCLE
  8
_1-7_
  6
CONTINUOUS
 62
    7
 10
134.51133388233879
 20
136.07267207708375
 40
0.1643557161898226
  0
CIRCLE
  8
_1-7_
  6
CONTINUOUS
 62
    7
 10
134.51133388233879
 20
133.44303010601112
 40
0.1643557161898226
  0
CIRCLE
  8
_1-7_
  6
CONTINUOUS
 62
    7
 10
137.4696996577822
 20
135.57962348650099
 40
0.1643557161898226
  0
CIRCLE
  8
_1-7_
  6
CONTINUOUS
 62
    7
 10
140.75677686560525
 20
138.04491592737938
 40
0.1643557161898226
  0
CIRCLE
  8
_1-7_
  6
CONTINUOUS
 62
    7
 10
148.97443895518506
 20
142.64681412073875
 40
0.1643557161898226
  0
CIRCLE
  8
_1-7_
  6
CONTINUOUS
 62
    7
 10
152.91892665577629
 20
143.63293604588654
 40
0.1643557161898226
  0
CIRCLE
  8
_1-7_
  6
CONTINUOUS
 62
    7
 10
151.11103233567493
 20
141.49634266539667
 40
0.1643557161898226
  0
CIRCLE
  8
_1-7_
  6
CONTINUOUS
 62
    7
 10
151.11103233567493
 20
144.61905797103435
 40
0.1643557161898226
  0
CIRCLE
  8
_1-7_
  6
CONTINUOUS
 62
    7
 10
162.94449543744861
 20
149.54966759677336
 40
0.1643557161898226
  0
CIRCLE
  8
_1-7_
  6
CONTINUOUS
 62
    7
 10
159.49306869943126
 20
147.74177327667201
 40
0.1643557161898226
  0
CIRCLE
  8
_1-7_
  6
CONTINUOUS
 62
    7
 10
159.82178013181093
 20
146.92000088171847
 40
0.1643557161898226
  0
CIRCLE
  8
_1-7_
  6
CONTINUOUS
 62
    7
 10
155.8772924312197
 20
147.084375155895
 40
0.1643557161898226
  0
CIRCLE
  8
_1-7_
  6
CONTINUOUS
 62
    7
 10
156.20600386359934
 20
144.61905797103435
 40
0.1643557161898226
  0
CIRCLE
  8
_1-7_
  6
CONTINUOUS
 62
    7
 10
154.06939811111835
 20
142.97551318112724
 40
0.1643557161898226
  0
CIRCLE
  8
_1-7_
  6
CONTINUOUS
 62
    7
 10
148.48137799261116
 20
143.63293604588654
 40
0.1643557161898226
  0
CIRCLE
  8
_1-7_
  6
CONTINUOUS
 62
    7
 10
148.48137799261116
 20
141.00329407481391
 40
0.1643557161898226
  0
CIRCLE
  8
_1-7_
  6
CONTINUOUS
 62
    7
 10
151.4397437680546
 20
143.13988745530378
 40
0.1643557161898226
  0
CIRCLE
  8
_1-7_
  6
CONTINUOUS
 62
    7
 10
154.72682097587762
 20
145.60517989618216
 40
0.1643557161898226
  0
CIRCLE
  8
_1-7_
  6
CONTINUOUS
 62
    7
 10
166.56027170566017
 20
148.72789520181982
 40
0.1643557161898226
  0
CIRCLE
  8
_1-7_
  6
CONTINUOUS
 62
    7
 10
166.06721074308626
 20
149.71401712696763
 40
0.1643557161898226
  0
CIRCLE
  8
_1-7_
  6
CONTINUOUS
 62
    7
 10
166.06721074308626
 20
147.084375155895
 40
0.1643557161898226
  0
CIRCLE
  8
_1-7_
  6
CONTINUOUS
 62
    7
 10
67.481692241185868
 20
98.642326387155521
 40
0.1643557161898226
  0
CIRCLE
  8
_1-7_
  6
CONTINUOUS
 62
    7
 10
66.002509353464177
 20
100.28587117706263
 40
0.1643557161898226
  0
CIRCLE
  8
_1-7_
  6
CONTINUOUS
 62
    7
 10
69.453936091481495
 20
101.7650416927932
 40
0.1643557161898226
  0
CIRCLE
  8
_1-7_
  6
CONTINUOUS
 62
    7
 10
73.39842379207272
 20
102.751163617941
 40
0.1643557161898226
  0
CIRCLE
  8
_1-7_
  6
CONTINUOUS
 62
    7
 10
71.590529471971365
 20
100.61457023745113
 40
0.1643557161898226
  0
CIRCLE
  8
_1-7_
  6
CONTINUOUS
 62
    7
 10
71.590529471971365
 20
103.7372855430888
 40
0.1643557161898226
  0
CIRCLE
  8
_1-7_
  6
CONTINUOUS
 62
    7
 10
74.548895247414805
 20
102.09374075318171
 40
0.1643557161898226
  0
CIRCLE
  8
_1-7_
  6
CONTINUOUS
 62
    7
 10
68.960875128907617
 20
102.751163617941
 40
0.1643557161898226
  0
CIRCLE
  8
_1-7_
  6
CONTINUOUS
 62
    7
 10
68.960875128907617
 20
100.12152164686837
 40
0.1643557161898226
  0
CIRCLE
  8
_1-7_
  6
CONTINUOUS
 62
    7
 10
71.919240904351
 20
102.25811502735823
 40
0.1643557161898226
  0
CIRCLE
  8
_1-7_
  6
CONTINUOUS
 62
    7
 10
70.959734225125402
 20
101.85739860659176
 40
0.1643557161898226
  0
CIRCLE
  8
_1-7_
  6
CONTINUOUS
 62
    7
 10
72.603266643041337
 20
103.50094339649885
 40
0.1643557161898226
  0
CIRCLE
  8
_1-7_
  6
CONTINUOUS
 62
    7
 10
75.890331478873293
 20
101.85739860659176
 40
0.1643557161898226
  0
CIRCLE
  8
_1-7_
  6
CONTINUOUS
 62
    7
 10
71.945856150273187
 20
103.50094339649885
 40
0.1643557161898226
  0
CIRCLE
  8
_1-7_
  6
CONTINUOUS
 62
    7
 10
74.411148591151573
 20
103.50094339649885
 40
0.1643557161898226
  0
CIRCLE
  8
_1-7_
  6
CONTINUOUS
 62
    7
 10
77.862575329168919
 20
104.98011391222943
 40
0.1643557161898226
  0
CIRCLE
  8
_1-7_
  6
CONTINUOUS
 62
    7
 10
81.807059936762329
 20
105.96623583737724
 40
0.1643557161898226
  0
CIRCLE
  8
_1-7_
  6
CONTINUOUS
 62
    7
 10
79.999165616660974
 20
103.82964245688737
 40
0.1643557161898226
  0
CIRCLE
  8
_1-7_
  6
CONTINUOUS
 62
    7
 10
79.999165616660974
 20
106.95235776252504
 40
0.1643557161898226
  0
CIRCLE
  8
_1-7_
  6
CONTINUOUS
 62
    7
 10
82.957531392104414
 20
105.30881297261794
 40
0.1643557161898226
  0
CIRCLE
  8
_1-7_
  6
CONTINUOUS
 62
    7
 10
77.369514366594984
 20
105.96623583737724
 40
0.1643557161898226
  0
CIRCLE
  8
_1-7_
  6
CONTINUOUS
 62
    7
 10
77.369514366594984
 20
103.3365938663046
 40
0.1643557161898226
  0
CIRCLE
  8
_1-7_
  6
CONTINUOUS
 62
    7
 10
80.327877049040637
 20
105.47318724679447
 40
0.1643557161898226
  0
CIRCLE
  8
_1-7_
  6
CONTINUOUS
 62
    7
 10
76.895243365552432
 20
104.57783862058037
 40
0.1643557161898226
  0
CIRCLE
  8
_1-7_
  6
CONTINUOUS
 62
    7
 10
78.538775783468395
 20
106.22138341048746
 40
0.1643557161898226
  0
CIRCLE
  8
_1-7_
  6
CONTINUOUS
 62
    7
 10
81.825840619300322
 20
104.57783862058037
 40
0.1643557161898226
  0
CIRCLE
  8
_1-7_
  6
CONTINUOUS
 62
    7
 10
77.881365290700245
 20
106.22138341048746
 40
0.1643557161898226
  0
CIRCLE
  8
_1-7_
  6
CONTINUOUS
 62
    7
 10
80.346657731578659
 20
106.22138341048746
 40
0.1643557161898226
  0
CIRCLE
  8
_1-7_
  6
CONTINUOUS
 62
    7
 10
83.798084469595935
 20
107.70055392621803
 40
0.1643557161898226
  0
CIRCLE
  8
_1-7_
  6
CONTINUOUS
 62
    7
 10
87.742572170187174
 20
108.68667585136583
 40
0.1643557161898226
  0
CIRCLE
  8
_1-7_
  6
CONTINUOUS
 62
    7
 10
85.934677850085819
 20
106.55008247087596
 40
0.1643557161898226
  0
CIRCLE
  8
_1-7_
  6
CONTINUOUS
 62
    7
 10
85.934677850085819
 20
109.67279777651363
 40
0.1643557161898226
  0
CIRCLE
  8
_1-7_
  6
CONTINUOUS
 62
    7
 10
88.893043625529216
 20
108.02925298660655
 40
0.1643557161898226
  0
CIRCLE
  8
_1-7_
  6
CONTINUOUS
 62
    7
 10
83.305023507022028
 20
108.68667585136583
 40
0.1643557161898226
  0
CIRCLE
  8
_1-7_
  6
CONTINUOUS
 62
    7
 10
83.305023507022028
 20
106.0570338802932
 40
0.1643557161898226
  0
CIRCLE
  8
_1-7_
  6
CONTINUOUS
 62
    7
 10
86.263389282465468
 20
108.19362726078306
 40
0.1643557161898226
  0
CIRCLE
  8
_1-7_
  6
CONTINUOUS
 62
    7
 10
81.099567623892824
 20
107.05097490383628
 40
0.1643557161898226
  0
CIRCLE
  8
_1-7_
  6
CONTINUOUS
 62
    7
 10
82.743100041808788
 20
108.69451969374337
 40
0.1643557161898226
  0
CIRCLE
  8
_1-7_
  6
CONTINUOUS
 62
    7
 10
86.030164877640715
 20
107.05097490383628
 40
0.1643557161898226
  0
CIRCLE
  8
_1-7_
  6
CONTINUOUS
 62
    7
 10
82.085689549040623
 20
108.69451969374337
 40
0.1643557161898226
  0
CIRCLE
  8
_1-7_
  6
CONTINUOUS
 62
    7
 10
84.550981989919009
 20
108.69451969374337
 40
0.1643557161898226
  0
CIRCLE
  8
_1-7_
  6
CONTINUOUS
 62
    7
 10
88.002408727936341
 20
110.17369020947395
 40
0.1643557161898226
  0
CIRCLE
  8
_1-7_
  6
CONTINUOUS
 62
    7
 10
91.946896428527552
 20
111.15981213462175
 40
0.1643557161898226
  0
CIRCLE
  8
_1-7_
  6
CONTINUOUS
 62
    7
 10
90.139002108426197
 20
109.02321875413188
 40
0.1643557161898226
  0
CIRCLE
  8
_1-7_
  6
CONTINUOUS
 62
    7
 10
90.139002108426197
 20
112.14593405976954
 40
0.1643557161898226
  0
CIRCLE
  8
_1-7_
  6
CONTINUOUS
 62
    7
 10
93.09736788386958
 20
110.50238926986246
 40
0.1643557161898226
  0
CIRCLE
  8
_1-7_
  6
CONTINUOUS
 62
    7
 10
87.509347765362435
 20
111.15981213462175
 40
0.1643557161898226
  0
CIRCLE
  8
_1-7_
  6
CONTINUOUS
 62
    7
 10
87.509347765362435
 20
108.53017016354912
 40
0.1643557161898226
  0
CIRCLE
  8
_1-7_
  6
CONTINUOUS
 62
    7
 10
90.467713540805832
 20
110.66676354403897
 40
0.1643557161898226
  0
CIRCLE
  8
_1-7_
  6
CONTINUOUS
 62
    7
 10
84.809259676785572
 20
109.52409881510106
 40
0.1643557161898226
  0
CIRCLE
  8
_1-7_
  6
CONTINUOUS
 62
    7
 10
86.452792094701508
 20
111.16764360500815
 40
0.1643557161898226
  0
CIRCLE
  8
_1-7_
  6
CONTINUOUS
 62
    7
 10
89.739856930533435
 20
109.52409881510106
 40
0.1643557161898226
  0
CIRCLE
  8
_1-7_
  6
CONTINUOUS
 62
    7
 10
85.795381601933371
 20
111.16764360500815
 40
0.1643557161898226
  0
CIRCLE
  8
_1-7_
  6
CONTINUOUS
 62
    7
 10
88.260674042811758
 20
111.16764360500815
 40
0.1643557161898226
  0
CIRCLE
  8
_1-7_
  6
CONTINUOUS
 62
    7
 10
91.712100780829061
 20
112.64681412073872
 40
0.1643557161898226
  0
CIRCLE
  8
_1-7_
  6
CONTINUOUS
 62
    7
 10
95.656588481420258
 20
113.63293604588652
 40
0.1643557161898226
  0
CIRCLE
  8
_1-7_
  6
CONTINUOUS
 62
    7
 10
93.848694161318903
 20
111.49634266539667
 40
0.1643557161898226
  0
CIRCLE
  8
_1-7_
  6
CONTINUOUS
 62
    7
 10
93.848694161318903
 20
114.61905797103434
 40
0.1643557161898226
  0
CIRCLE
  8
_1-7_
  6
CONTINUOUS
 62
    7
 10
96.807059936762343
 20
112.97551318112724
 40
0.1643557161898226
  0
CIRCLE
  8
_1-7_
  6
CONTINUOUS
 62
    7
 10
91.219039818255155
 20
113.63293604588652
 40
0.1643557161898226
  0
CIRCLE
  8
_1-7_
  6
CONTINUOUS
 62
    7
 10
91.219039818255155
 20
111.00329407481389
 40
0.1643557161898226
  0
CIRCLE
  8
_1-7_
  6
CONTINUOUS
 62
    7
 10
94.17740559369858
 20
113.13988745530376
 40
0.1643557161898226
  0
CIRCLE
  8
_1-7_
  6
CONTINUOUS
 62
    7
 10
89.508203768582447
 20
111.50260289290934
 40
0.1643557161898226
  0
CIRCLE
  8
_1-7_
  6
CONTINUOUS
 62
    7
 10
91.151736186498383
 20
113.14614768281642
 40
0.1643557161898226
  0
CIRCLE
  8
_1-7_
  6
CONTINUOUS
 62
    7
 10
94.43880102233031
 20
111.50260289290934
 40
0.1643557161898226
  0
CIRCLE
  8
_1-7_
  6
CONTINUOUS
 62
    7
 10
90.494325693730246
 20
113.14614768281642
 40
0.1643557161898226
  0
CIRCLE
  8
_1-7_
  6
CONTINUOUS
 62
    7
 10
92.959618134608633
 20
113.14614768281642
 40
0.1643557161898226
  0
CIRCLE
  8
_1-7_
  6
CONTINUOUS
 62
    7
 10
96.411044872625936
 20
114.62531819854701
 40
0.1643557161898226
  0
CIRCLE
  8
_1-7_
  6
CONTINUOUS
 62
    7
 10
100.35553257321713
 20
115.61144012369481
 40
0.1643557161898226
  0
CIRCLE
  8
_1-7_
  6
CONTINUOUS
 62
    7
 10
98.547638253115778
 20
113.47484674320494
 40
0.1643557161898226
  0
CIRCLE
  8
_1-7_
  6
CONTINUOUS
 62
    7
 10
98.547638253115778
 20
116.5975620488426
 40
0.1643557161898226
  0
CIRCLE
  8
_1-7_
  6
CONTINUOUS
 62
    7
 10
101.50600402855922
 20
114.95401725893551
 40
0.1643557161898226
  0
CIRCLE
  8
_1-7_
  6
CONTINUOUS
 62
    7
 10
95.91798391005203
 20
115.61144012369481
 40
0.1643557161898226
  0
CIRCLE
  8
_1-7_
  6
CONTINUOUS
 62
    7
 10
95.91798391005203
 20
112.98179815262218
 40
0.1643557161898226
  0
CIRCLE
  8
_1-7_
  6
CONTINUOUS
 62
    7
 10
98.876349685495441
 20
115.11839153311203
 40
0.1643557161898226
  0
CIRCLE
  8
_1-7_
  6
CONTINUOUS
 62
    7
 10
94.454463963103123
 20
113.23379086799379
 40
0.1643557161898226
  0
CIRCLE
  8
_1-7_
  6
CONTINUOUS
 62
    7
 10
96.097996381019087
 20
114.87733565790089
 40
0.1643557161898226
  0
CIRCLE
  8
_1-7_
  6
CONTINUOUS
 62
    7
 10
99.385061216851014
 20
113.23379086799379
 40
0.1643557161898226
  0
CIRCLE
  8
_1-7_
  6
CONTINUOUS
 62
    7
 10
95.440585888250936
 20
114.87733565790089
 40
0.1643557161898226
  0
CIRCLE
  8
_1-7_
  6
CONTINUOUS
 62
    7
 10
97.905878329129322
 20
114.87733565790089
 40
0.1643557161898226
  0
CIRCLE
  8
_1-7_
  6
CONTINUOUS
 62
    7
 10
101.35730506714661
 20
116.35650617363146
 40
0.1643557161898226
  0
CIRCLE
  8
_1-7_
  6
CONTINUOUS
 62
    7
 10
105.30179276773784
 20
117.34262809877926
 40
0.1643557161898226
  0
CIRCLE
  8
_1-7_
  6
CONTINUOUS
 62
    7
 10
103.49389844763648
 20
115.2060347182894
 40
0.1643557161898226
  0
CIRCLE
  8
_1-7_
  6
CONTINUOUS
 62
    7
 10
103.49389844763648
 20
118.32875002392707
 40
0.1643557161898226
  0
CIRCLE
  8
_1-7_
  6
CONTINUOUS
 62
    7
 10
106.45226422307989
 20
116.68520523401997
 40
0.1643557161898226
  0
CIRCLE
  8
_1-7_
  6
CONTINUOUS
 62
    7
 10
100.86424410457271
 20
117.34262809877926
 40
0.1643557161898226
  0
CIRCLE
  8
_1-7_
  6
CONTINUOUS
 62
    7
 10
100.86424410457271
 20
114.71298612770663
 40
0.1643557161898226
  0
CIRCLE
  8
_1-7_
  6
CONTINUOUS
 62
    7
 10
103.82260988001615
 20
116.8495795081965
 40
0.1643557161898226
  0
CIRCLE
  8
_1-7_
  6
CONTINUOUS
 62
    7
 10
99.400724157623799
 20
115.21229494580207
 40
0.1643557161898226
  0
CIRCLE
  8
_1-7_
  6
CONTINUOUS
 62
    7
 10
101.04425657553979
 20
116.85583973570917
 40
0.1643557161898226
  0
CIRCLE
  8
_1-7_
  6
CONTINUOUS
 62
    7
 10
104.33132141137172
 20
115.21229494580207
 40
0.1643557161898226
  0
CIRCLE
  8
_1-7_
  6
CONTINUOUS
 62
    7
 10
100.38684608277161
 20
116.85583973570917
 40
0.1643557161898226
  0
CIRCLE
  8
_1-7_
  6
CONTINUOUS
 62
    7
 10
102.85213852365
 20
116.85583973570917
 40
0.1643557161898226
  0
CIRCLE
  8
_1-7_
  6
CONTINUOUS
 62
    7
 10
106.30356526166732
 20
118.33501025143974
 40
0.1643557161898226
  0
CIRCLE
  8
_1-7_
  6
CONTINUOUS
 62
    7
 10
110.24805296225853
 20
119.32113217658754
 40
0.1643557161898226
  0
CIRCLE
  8
_1-7_
  6
CONTINUOUS
 62
    7
 10
108.4401586421572
 20
117.18453879609767
 40
0.1643557161898226
  0
CIRCLE
  8
_1-7_
  6
CONTINUOUS
 62
    7
 10
108.4401586421572
 20
120.30725410173534
 40
0.1643557161898226
  0
CIRCLE
  8
_1-7_
  6
CONTINUOUS
 62
    7
 10
111.39852441760061
 20
118.66370931182826
 40
0.1643557161898226
  0
CIRCLE
  8
_1-7_
  6
CONTINUOUS
 62
    7
 10
105.81050429909341
 20
119.32113217658754
 40
0.1643557161898226
  0
CIRCLE
  8
_1-7_
  6
CONTINUOUS
 62
    7
 10
105.81050429909341
 20
116.69149020551491
 40
0.1643557161898226
  0
CIRCLE
  8
_1-7_
  6
CONTINUOUS
 62
    7
 10
108.76887007453684
 20
118.82808358600477
 40
0.1643557161898226
  0
CIRCLE
  8
_1-7_
  6
CONTINUOUS
 62
    7
 10
104.84161037159656
 20
117.68541885706685
 40
0.1643557161898226
  0
CIRCLE
  8
_1-7_
  6
CONTINUOUS
 62
    7
 10
106.48514278951255
 20
119.32896364697395
 40
0.1643557161898226
  0
CIRCLE
  8
_1-7_
  6
CONTINUOUS
 62
    7
 10
109.77220762534446
 20
117.68541885706685
 40
0.1643557161898226
  0
CIRCLE
  8
_1-7_
  6
CONTINUOUS
 62
    7
 10
105.82773229674437
 20
119.32896364697395
 40
0.1643557161898226
  0
CIRCLE
  8
_1-7_
  6
CONTINUOUS
 62
    7
 10
108.29302473762277
 20
119.32896364697395
 40
0.1643557161898226
  0
CIRCLE
  8
_1-7_
  6
CONTINUOUS
 62
    7
 10
111.74445147564009
 20
120.80813416270452
 40
0.1643557161898226
  0
CIRCLE
  8
_1-7_
  6
CONTINUOUS
 62
    7
 10
115.6889391762313
 20
121.79425608785232
 40
0.1643557161898226
  0
CIRCLE
  8
_1-7_
  6
CONTINUOUS
 62
    7
 10
113.88104485612996
 20
119.65766270736246
 40
0.1643557161898226
  0
CIRCLE
  8
_1-7_
  6
CONTINUOUS
 62
    7
 10
113.88104485612996
 20
122.78037801300013
 40
0.1643557161898226
  0
CIRCLE
  8
_1-7_
  6
CONTINUOUS
 62
    7
 10
116.83941063157337
 20
121.13683322309303
 40
0.1643557161898226
  0
CIRCLE
  8
_1-7_
  6
CONTINUOUS
 62
    7
 10
111.25139051306618
 20
121.79425608785232
 40
0.1643557161898226
  0
CIRCLE
  8
_1-7_
  6
CONTINUOUS
 62
    7
 10
111.25139051306618
 20
119.16461411677969
 40
0.1643557161898226
  0
CIRCLE
  8
_1-7_
  6
CONTINUOUS
 62
    7
 10
114.20975628850958
 20
121.30120749726956
 40
0.1643557161898226
  0
CIRCLE
  8
_1-7_
  6
CONTINUOUS
 62
    7
 10
110.52980650229759
 20
121.1478071792269
 40
0.1643557161898226
  0
CIRCLE
  8
_1-7_
  6
CONTINUOUS
 62
    7
 10
112.17333892021355
 20
122.791351969134
 40
0.1643557161898226
  0
CIRCLE
  8
_1-7_
  6
CONTINUOUS
 62
    7
 10
115.46040375604548
 20
121.1478071792269
 40
0.1643557161898226
  0
CIRCLE
  8
_1-7_
  6
CONTINUOUS
 62
    7
 10
111.5159284274454
 20
122.791351969134
 40
0.1643557161898226
  0
CIRCLE
  8
_1-7_
  6
CONTINUOUS
 62
    7
 10
113.98122086832379
 20
122.791351969134
 40
0.1643557161898226
  0
CIRCLE
  8
_1-7_
  6
CONTINUOUS
 62
    7
 10
117.43264760634109
 20
124.27052248486457
 40
0.1643557161898226
  0
CIRCLE
  8
_1-7_
  6
CONTINUOUS
 62
    7
 10
121.3771353069323
 20
125.25664441001237
 40
0.1643557161898226
  0
CIRCLE
  8
_1-7_
  6
CONTINUOUS
 62
    7
 10
119.56924098683098
 20
123.12005102952251
 40
0.1643557161898226
  0
CIRCLE
  8
_1-7_
  6
CONTINUOUS
 62
    7
 10
119.56924098683098
 20
126.24276633516018
 40
0.1643557161898226
  0
CIRCLE
  8
_1-7_
  6
CONTINUOUS
 62
    7
 10
122.52760676227437
 20
124.59922154525309
 40
0.1643557161898226
  0
CIRCLE
  8
_1-7_
  6
CONTINUOUS
 62
    7
 10
116.93958664376719
 20
125.25664441001237
 40
0.1643557161898226
  0
CIRCLE
  8
_1-7_
  6
CONTINUOUS
 62
    7
 10
116.93958664376719
 20
122.62700243893974
 40
0.1643557161898226
  0
CIRCLE
  8
_1-7_
  6
CONTINUOUS
 62
    7
 10
119.8979524192106
 20
124.7635958194296
 40
0.1643557161898226
  0
CIRCLE
  8
_1-7_
  6
CONTINUOUS
 62
    7
 10
115.47606669681829
 20
123.12631125703518
 40
0.1643557161898226
  0
CIRCLE
  8
_1-7_
  6
CONTINUOUS
 62
    7
 10
117.11959911473427
 20
124.76985604694227
 40
0.1643557161898226
  0
CIRCLE
  8
_1-7_
  6
CONTINUOUS
 62
    7
 10
120.40666395056618
 20
123.12631125703518
 40
0.1643557161898226
  0
CIRCLE
  8
_1-7_
  6
CONTINUOUS
 62
    7
 10
116.46218862196609
 20
124.76985604694227
 40
0.1643557161898226
  0
CIRCLE
  8
_1-7_
  6
CONTINUOUS
 62
    7
 10
118.92748106284448
 20
124.76985604694227
 40
0.1643557161898226
  0
CIRCLE
  8
_1-7_
  6
CONTINUOUS
 62
    7
 10
122.37890780086178
 20
126.24902656267285
 40
0.1643557161898226
  0
CIRCLE
  8
_1-7_
  6
CONTINUOUS
 62
    7
 10
126.32339550145302
 20
127.23514848782065
 40
0.1643557161898226
  0
CIRCLE
  8
_1-7_
  6
CONTINUOUS
 62
    7
 10
124.51550118135167
 20
125.09855510733078
 40
0.1643557161898226
  0
CIRCLE
  8
_1-7_
  6
CONTINUOUS
 62
    7
 10
124.51550118135167
 20
128.22127041296847
 40
0.1643557161898226
  0
CIRCLE
  8
_1-7_
  6
CONTINUOUS
 62
    7
 10
127.47386695679506
 20
126.57772562306135
 40
0.1643557161898226
  0
CIRCLE
  8
_1-7_
  6
CONTINUOUS
 62
    7
 10
121.88584683828788
 20
127.23514848782065
 40
0.1643557161898226
  0
CIRCLE
  8
_1-7_
  6
CONTINUOUS
 62
    7
 10
121.88584683828788
 20
124.60550651674801
 40
0.1643557161898226
  0
CIRCLE
  8
_1-7_
  6
CONTINUOUS
 62
    7
 10
124.8442126137313
 20
126.74209989723788
 40
0.1643557161898226
  0
CIRCLE
  8
_1-7_
  6
CONTINUOUS
 62
    7
 10
123.14276690532758
 20
126.58869957919522
 40
0.1643557161898226
  0
CIRCLE
  8
_1-7_
  6
CONTINUOUS
 62
    7
 10
124.78629932324354
 20
128.23224436910232
 40
0.1643557161898226
  0
CIRCLE
  8
_1-7_
  6
CONTINUOUS
 62
    7
 10
128.07336415907548
 20
126.58869957919522
 40
0.1643557161898226
  0
CIRCLE
  8
_1-7_
  6
CONTINUOUS
 62
    7
 10
124.12888883047538
 20
128.23224436910232
 40
0.1643557161898226
  0
CIRCLE
  8
_1-7_
  6
CONTINUOUS
 62
    7
 10
126.59418127135376
 20
128.23224436910232
 40
0.1643557161898226
  0
CIRCLE
  8
_1-7_
  6
CONTINUOUS
 62
    7
 10
130.04560800937108
 20
129.71141488483289
 40
0.1643557161898226
  0
CIRCLE
  8
_1-7_
  6
CONTINUOUS
 62
    7
 10
133.99008952396673
 20
130.6975368099807
 40
0.1643557161898226
  0
CIRCLE
  8
_1-7_
  6
CONTINUOUS
 62
    7
 10
132.18219520386538
 20
128.56094342949083
 40
0.1643557161898226
  0
CIRCLE
  8
_1-7_
  6
CONTINUOUS
 62
    7
 10
132.18219520386538
 20
131.68365873512852
 40
0.1643557161898226
  0
CIRCLE
  8
_1-7_
  6
CONTINUOUS
 62
    7
 10
135.14056097930879
 20
130.04011394522141
 40
0.1643557161898226
  0
CIRCLE
  8
_1-7_
  6
CONTINUOUS
 62
    7
 10
129.55254704679717
 20
130.6975368099807
 40
0.1643557161898226
  0
CIRCLE
  8
_1-7_
  6
CONTINUOUS
 62
    7
 10
129.55254704679717
 20
128.06789483890807
 40
0.1643557161898226
  0
CIRCLE
  8
_1-7_
  6
CONTINUOUS
 62
    7
 10
132.51091900823616
 20
130.20448821939794
 40
0.1643557161898226
  0
CIRCLE
  8
_1-7_
  6
CONTINUOUS
 62
    7
 10
129.82020888893715
 20
128.8145073877362
 40
0.1643557161898226
  0
CIRCLE
  8
_1-7_
  6
CONTINUOUS
 62
    7
 10
131.46374130685314
 20
130.45805217764328
 40
0.1643557161898226
  0
CIRCLE
  8
_1-7_
  6
CONTINUOUS
 62
    7
 10
134.75080614268506
 20
128.8145073877362
 40
0.1643557161898226
  0
CIRCLE
  8
_1-7_
  6
CONTINUOUS
 62
    7
 10
130.80633081408496
 20
130.45805217764328
 40
0.1643557161898226
  0
CIRCLE
  8
_1-7_
  6
CONTINUOUS
 62
    7
 10
133.27162325496334
 20
130.45805217764328
 40
0.1643557161898226
  0
CIRCLE
  8
_1-7_
  6
CONTINUOUS
 62
    7
 10
136.72304999298066
 20
131.93722269337385
 40
0.1643557161898226
  0
CIRCLE
  8
_1-7_
  6
CONTINUOUS
 62
    7
 10
140.66753769357189
 20
132.92334461852167
 40
0.1643557161898226
  0
CIRCLE
  8
_1-7_
  6
CONTINUOUS
 62
    7
 10
138.85964337347053
 20
130.7867512380318
 40
0.1643557161898226
  0
CIRCLE
  8
_1-7_
  6
CONTINUOUS
 62
    7
 10
138.85964337347053
 20
133.90946654366948
 40
0.1643557161898226
  0
CIRCLE
  8
_1-7_
  6
CONTINUOUS
 62
    7
 10
141.81800914891394
 20
132.26592175376237
 40
0.1643557161898226
  0
CIRCLE
  8
_1-7_
  6
CONTINUOUS
 62
    7
 10
136.22998903040676
 20
132.92334461852167
 40
0.1643557161898226
  0
CIRCLE
  8
_1-7_
  6
CONTINUOUS
 62
    7
 10
136.22998903040676
 20
130.29370264744904
 40
0.1643557161898226
  0
CIRCLE
  8
_1-7_
  6
CONTINUOUS
 62
    7
 10
139.18835480585017
 20
132.43029602793891
 40
0.1643557161898226
  0
CIRCLE
  8
_1-7_
  6
CONTINUOUS
 62
    7
 10
133.52990094182991
 20
130.5457077348118
 40
0.1643557161898226
  0
CIRCLE
  8
_1-7_
  6
CONTINUOUS
 62
    7
 10
135.17343335974587
 20
132.18925252471888
 40
0.1643557161898226
  0
CIRCLE
  8
_1-7_
  6
CONTINUOUS
 62
    7
 10
138.4604981955778
 20
130.5457077348118
 40
0.1643557161898226
  0
CIRCLE
  8
_1-7_
  6
CONTINUOUS
 62
    7
 10
134.51602286697772
 20
132.18925252471888
 40
0.1643557161898226
  0
CIRCLE
  8
_1-7_
  6
CONTINUOUS
 62
    7
 10
136.98131530785608
 20
132.18925252471888
 40
0.1643557161898226
  0
CIRCLE
  8
_1-7_
  6
CONTINUOUS
 62
    7
 10
140.4327420458734
 20
133.66842304044945
 40
0.1643557161898226
  0
CIRCLE
  8
_1-7_
  6
CONTINUOUS
 62
    7
 10
144.37722974646465
 20
134.65454496559727
 40
0.1643557161898226
  0
CIRCLE
  8
_1-7_
  6
CONTINUOUS
 62
    7
 10
142.5693354263633
 20
132.5179515851074
 40
0.1643557161898226
  0
CIRCLE
  8
_1-7_
  6
CONTINUOUS
 62
    7
 10
142.5693354263633
 20
135.64066689074508
 40
0.1643557161898226
  0
CIRCLE
  8
_1-7_
  6
CONTINUOUS
 62
    7
 10
145.52770120180668
 20
133.99712210083797
 40
0.1643557161898226
  0
CIRCLE
  8
_1-7_
  6
CONTINUOUS
 62
    7
 10
139.93968108329949
 20
134.65454496559727
 40
0.1643557161898226
  0
CIRCLE
  8
_1-7_
  6
CONTINUOUS
 62
    7
 10
139.93968108329949
 20
132.02490299452464
 40
0.1643557161898226
  0
CIRCLE
  8
_1-7_
  6
CONTINUOUS
 62
    7
 10
142.89804685874293
 20
134.16149637501451
 40
0.1643557161898226
  0
CIRCLE
  8
_1-7_
  6
CONTINUOUS
 62
    7
 10
139.96004538070238
 20
133.26613537680927
 40
0.1643557161898226
  0
CIRCLE
  8
_1-7_
  6
CONTINUOUS
 62
    7
 10
141.60357779861835
 20
134.90968016671636
 40
0.1643557161898226
  0
CIRCLE
  8
_1-7_
  6
CONTINUOUS
 62
    7
 10
144.89064263445027
 20
133.26613537680927
 40
0.1643557161898226
  0
CIRCLE
  8
_1-7_
  6
CONTINUOUS
 62
    7
 10
140.94616730585017
 20
134.90968016671636
 40
0.1643557161898226
  0
CIRCLE
  8
_1-7_
  6
CONTINUOUS
 62
    7
 10
143.41145974672855
 20
134.90968016671636
 40
0.1643557161898226
  0
CIRCLE
  8
_1-7_
  6
CONTINUOUS
 62
    7
 10
146.8628864847459
 20
136.38885068244693
 40
0.1643557161898226
  0
CIRCLE
  8
_1-7_
  6
CONTINUOUS
 62
    7
 10
150.8073741853371
 20
137.37497260759474
 40
0.1643557161898226
  0
CIRCLE
  8
_1-7_
  6
CONTINUOUS
 62
    7
 10
148.99947986523574
 20
135.23837922710487
 40
0.1643557161898226
  0
CIRCLE
  8
_1-7_
  6
CONTINUOUS
 62
    7
 10
148.99947986523574
 20
138.36109453274253
 40
0.1643557161898226
  0
CIRCLE
  8
_1-7_
  6
CONTINUOUS
 62
    7
 10
151.95784564067915
 20
136.71754974283544
 40
0.1643557161898226
  0
CIRCLE
  8
_1-7_
  6
CONTINUOUS
 62
    7
 10
146.36982552217199
 20
137.37497260759474
 40
0.1643557161898226
  0
CIRCLE
  8
_1-7_
  6
CONTINUOUS
 62
    7
 10
146.36982552217199
 20
134.74533063652211
 40
0.1643557161898226
  0
CIRCLE
  8
_1-7_
  6
CONTINUOUS
 62
    7
 10
149.32819129761538
 20
136.88192401701195
 40
0.1643557161898226
  0
CIRCLE
  8
_1-7_
  6
CONTINUOUS
 62
    7
 10
149.35793356429613
 20
138.45971167405378
 40
0.1643557161898226
  0
CIRCLE
  8
_1-7_
  6
CONTINUOUS
 62
    7
 10
151.0014659822121
 20
140.10325646396086
 40
0.1643557161898226
  0
CIRCLE
  8
_1-7_
  6
CONTINUOUS
 62
    7
 10
154.28853081804402
 20
138.45971167405378
 40
0.1643557161898226
  0
CIRCLE
  8
_1-7_
  6
CONTINUOUS
 62
    7
 10
150.34405548944392
 20
140.10325646396086
 40
0.1643557161898226
  0
CIRCLE
  8
_1-7_
  6
CONTINUOUS
 62
    7
 10
152.8093479303223
 20
140.10325646396086
 40
0.1643557161898226
  0
CIRCLE
  8
_1-7_
  6
CONTINUOUS
 62
    7
 10
156.26077466833962
 20
141.58242697969143
 40
0.1643557161898226
  0
CIRCLE
  8
_1-7_
  6
CONTINUOUS
 62
    7
 10
160.20526236893085
 20
142.56854890483925
 40
0.1643557161898226
  0
CIRCLE
  8
_1-7_
  6
CONTINUOUS
 62
    7
 10
158.39736804882949
 20
140.43195552434938
 40
0.1643557161898226
  0
CIRCLE
  8
_1-7_
  6
CONTINUOUS
 62
    7
 10
158.39736804882949
 20
143.55467082998706
 40
0.1643557161898226
  0
CIRCLE
  8
_1-7_
  6
CONTINUOUS
 62
    7
 10
161.3557338242729
 20
141.91112604007995
 40
0.1643557161898226
  0
CIRCLE
  8
_1-7_
  6
CONTINUOUS
 62
    7
 10
155.76771370576571
 20
142.56854890483925
 40
0.1643557161898226
  0
CIRCLE
  8
_1-7_
  6
CONTINUOUS
 62
    7
 10
155.76771370576571
 20
139.93890693376662
 40
0.1643557161898226
  0
CIRCLE
  8
_1-7_
  6
CONTINUOUS
 62
    7
 10
158.72607948120913
 20
142.07550031425649
 40
0.1643557161898226
  0
CIRCLE
  8
_1-7_
  6
CONTINUOUS
 62
    7
 10
156.28271020861624
 20
141.4274677907662
 40
0.1643557161898226
  0
CIRCLE
  8
_1-7_
  6
CONTINUOUS
 62
    7
 10
157.9262426265322
 20
143.07101258067328
 40
0.1643557161898226
  0
CIRCLE
  8
_1-7_
  6
CONTINUOUS
 62
    7
 10
161.21330746236413
 20
141.4274677907662
 40
0.1643557161898226
  0
CIRCLE
  8
_1-7_
  6
CONTINUOUS
 62
    7
 10
157.26883213376405
 20
143.07101258067328
 40
0.1643557161898226
  0
CIRCLE
  8
_1-7_
  6
CONTINUOUS
 62
    7
 10
159.73412457464241
 20
143.07101258067328
 40
0.1643557161898226
  0
CIRCLE
  8
_1-7_
  6
CONTINUOUS
 62
    7
 10
163.18555131265975
 20
144.55018309640386
 40
0.1643557161898226
  0
CIRCLE
  8
_1-7_
  6
CONTINUOUS
 62
    7
 10
167.13003901325095
 20
145.53630502155167
 40
0.1643557161898226
  0
CIRCLE
  8
_1-7_
  6
CONTINUOUS
 62
    7
 10
165.3221446931496
 20
143.3997116410618
 40
0.1643557161898226
  0
CIRCLE
  8
_1-7_
  6
CONTINUOUS
 62
    7
 10
165.3221446931496
 20
146.52242694669945
 40
0.1643557161898226
  0
CIRCLE
  8
_1-7_
  6
CONTINUOUS
 62
    7
 10
168.28051046859301
 20
144.87888215679237
 40
0.1643557161898226
  0
CIRCLE
  8
_1-7_
  6
CONTINUOUS
 62
    7
 10
162.69249035008582
 20
145.53630502155167
 40
0.1643557161898226
  0
CIRCLE
  8
_1-7_
  6
CONTINUOUS
 62
    7
 10
162.69249035008582
 20
142.90666305047904
 40
0.1643557161898226
  0
CIRCLE
  8
_1-7_
  6
CONTINUOUS
 62
    7
 10
165.65085612552923
 20
145.04325643096888
 40
0.1643557161898226
  0
CIRCLE
  8
_1-7_
  6
CONTINUOUS
 62
    7
 10
165.68059839220999
 20
145.38447594638274
 40
0.1643557161898226
  0
CIRCLE
  8
_1-7_
  6
CONTINUOUS
 62
    7
 10
167.32413081012595
 20
147.02802073628985
 40
0.1643557161898226
  0
CIRCLE
  8
_1-7_
  6
CONTINUOUS
 62
    7
 10
166.6667203173578
 20
147.02802073628985
 40
0.1643557161898226
  0
CIRCLE
  8
_1-7_
  6
CONTINUOUS
 62
    7
 10
128.58365311930035
 20
133.01883164607656
 40
0.1643557161898226
  0
CIRCLE
  8
_1-7_
  6
CONTINUOUS
 62
    7
 10
130.22718553721631
 20
134.66237643598367
 40
0.1643557161898226
  0
CIRCLE
  8
_1-7_
  6
CONTINUOUS
 62
    7
 10
133.51425037304824
 20
133.01883164607656
 40
0.1643557161898226
  0
CIRCLE
  8
_1-7_
  6
CONTINUOUS
 62
    7
 10
129.56977504444816
 20
134.66237643598367
 40
0.1643557161898226
  0
CIRCLE
  8
_1-7_
  6
CONTINUOUS
 62
    7
 10
132.03506748532652
 20
134.66237643598367
 40
0.1643557161898226
  0
CIRCLE
  8
_1-7_
  6
CONTINUOUS
 62
    7
 10
135.48649422334384
 20
136.14154695171425
 40
0.1643557161898226
  0
CIRCLE
  8
_1-7_
  6
CONTINUOUS
 62
    7
 10
139.43098192393506
 20
137.12766887686206
 40
0.1643557161898226
  0
CIRCLE
  8
_1-7_
  6
CONTINUOUS
 62
    7
 10
137.62308760383371
 20
134.99107549637219
 40
0.1643557161898226
  0
CIRCLE
  8
_1-7_
  6
CONTINUOUS
 62
    7
 10
137.62308760383371
 20
138.11379080200985
 40
0.1643557161898226
  0
CIRCLE
  8
_1-7_
  6
CONTINUOUS
 62
    7
 10
140.58145337927712
 20
136.47024601210276
 40
0.1643557161898226
  0
CIRCLE
  8
_1-7_
  6
CONTINUOUS
 62
    7
 10
134.99343326076993
 20
137.12766887686206
 40
0.1643557161898226
  0
CIRCLE
  8
_1-7_
  6
CONTINUOUS
 62
    7
 10
134.99343326076993
 20
134.4980269057894
 40
0.1643557161898226
  0
CIRCLE
  8
_1-7_
  6
CONTINUOUS
 62
    7
 10
137.95179903621334
 20
136.63462028627927
 40
0.1643557161898226
  0
CIRCLE
  8
_1-7_
  6
CONTINUOUS
 62
    7
 10
121.16426901351487
 20
128.56720365700352
 40
0.1643557161898226
  0
CIRCLE
  8
_1-7_
  6
CONTINUOUS
 62
    7
 10
122.80780143143083
 20
130.2107484469106
 40
0.1643557161898226
  0
CIRCLE
  8
_1-7_
  6
CONTINUOUS
 62
    7
 10
126.09486626726276
 20
128.56720365700352
 40
0.1643557161898226
  0
CIRCLE
  8
_1-7_
  6
CONTINUOUS
 62
    7
 10
122.15039093866267
 20
130.2107484469106
 40
0.1643557161898226
  0
CIRCLE
  8
_1-7_
  6
CONTINUOUS
 62
    7
 10
124.61568337954105
 20
130.2107484469106
 40
0.1643557161898226
  0
CIRCLE
  8
_1-7_
  6
CONTINUOUS
 62
    7
 10
128.06711011755837
 20
131.68991896264117
 40
0.1643557161898226
  0
CIRCLE
  8
_1-7_
  6
CONTINUOUS
 62
    7
 10
132.0115978181496
 20
132.67604088778899
 40
0.1643557161898226
  0
CIRCLE
  8
_1-7_
  6
CONTINUOUS
 62
    7
 10
130.20370349804824
 20
130.53944750729912
 40
0.1643557161898226
  0
CIRCLE
  8
_1-7_
  6
CONTINUOUS
 62
    7
 10
130.20370349804824
 20
133.6621628129368
 40
0.1643557161898226
  0
CIRCLE
  8
_1-7_
  6
CONTINUOUS
 62
    7
 10
133.16206927349162
 20
132.01861802302969
 40
0.1643557161898226
  0
CIRCLE
  8
_1-7_
  6
CONTINUOUS
 62
    7
 10
127.57404915498448
 20
132.67604088778899
 40
0.1643557161898226
  0
CIRCLE
  8
_1-7_
  6
CONTINUOUS
 62
    7
 10
127.57404915498448
 20
130.04639891671636
 40
0.1643557161898226
  0
CIRCLE
  8
_1-7_
  6
CONTINUOUS
 62
    7
 10
130.53241493042788
 20
132.18299229720623
 40
0.1643557161898226
  0
CIRCLE
  8
_1-7_
  6
CONTINUOUS
 62
    7
 10
167.44316799174157
 20
150.12100756746599
 40
0.1643557161898226
  0
CIRCLE
  8
_1-7_
  6
CONTINUOUS
 62
    7
 10
170.23717805099517
 20
151.60019045518769
 40
0.1643557161898226
  0
CIRCLE
  8
_1-7_
  6
CONTINUOUS
 62
    7
 10
174.01731003539658
 20
151.2714852088036
 40
0.1643557161898226
  0
CIRCLE
  8
_1-7_
  6
CONTINUOUS
 62
    7
 10
169.74411708842126
 20
149.79230232108191
 40
0.1643557161898226
  0
CIRCLE
  8
_1-7_
  6
CONTINUOUS
 62
    7
 10
169.4154118420372
 20
152.25760713395141
 40
0.1643557161898226
  0
CIRCLE
  8
_1-7_
  6
CONTINUOUS
 62
    7
 10
165.14221889506189
 20
151.60019045518769
 40
0.1643557161898226
  0
CIRCLE
  8
_1-7_
  6
CONTINUOUS
 62
    7
 10
173.19554382643861
 20
153.24372287310365
 40
0.1643557161898226
  0
CIRCLE
  8
_1-7_
  6
CONTINUOUS
 62
    7
 10
180.75580470224361
 20
154.39420670043685
 40
0.1643557161898226
  0
CIRCLE
  8
_1-7_
  6
CONTINUOUS
 62
    7
 10
175.66084863930814
 20
152.91502381271513
 40
0.1643557161898226
  0
CIRCLE
  8
_1-7_
  6
CONTINUOUS
 62
    7
 10
178.12614726618204
 20
155.21597290939482
 40
0.1643557161898226
  0
CIRCLE
  8
_1-7_
  6
CONTINUOUS
 62
    7
 10
182.72805473853481
 20
157.51691582007894
 40
0.1643557161898226
  0
CIRCLE
  8
_1-7_
  6
CONTINUOUS
 62
    7
 10
184.37158715645074
 20
159.16046060998605
 40
0.1643557161898226
  0
CIRCLE
  8
_1-7_
  6
CONTINUOUS
 62
    7
 10
187.65865199228267
 20
157.51691582007894
 40
0.1643557161898226
  0
CIRCLE
  8
_1-7_
  6
CONTINUOUS
 62
    7
 10
185.68640814198704
 20
156.53079389493115
 40
0.1643557161898226
  0
CIRCLE
  8
_1-7_
  6
CONTINUOUS
 62
    7
 10
180.59145207905158
 20
157.51691582007894
 40
0.1643557161898226
  0
CIRCLE
  8
_1-7_
  6
CONTINUOUS
 62
    7
 10
183.71417666368257
 20
159.16046060998605
 40
0.1643557161898226
  0
CIRCLE
  8
_1-7_
  6
CONTINUOUS
 62
    7
 10
186.17946910456095
 20
159.16046060998605
 40
0.1643557161898226
  0
CIRCLE
  8
_1-7_
  6
CONTINUOUS
 62
    7
 10
189.6308958425783
 20
160.63963112571662
 40
0.1643557161898226
  0
CIRCLE
  8
_1-7_
  6
CONTINUOUS
 62
    7
 10
193.57538354316949
 20
161.62575305086443
 40
0.1643557161898226
  0
CIRCLE
  8
_1-7_
  6
CONTINUOUS
 62
    7
 10
191.76748922306814
 20
159.48915967037456
 40
0.1643557161898226
  0
CIRCLE
  8
_1-7_
  6
CONTINUOUS
 62
    7
 10
191.76748922306814
 20
162.61187497601222
 40
0.1643557161898226
  0
CIRCLE
  8
_1-7_
  6
CONTINUOUS
 62
    7
 10
206.39495619809981
 20
167.37813507155698
 40
0.1643557161898226
  0
CIRCLE
  8
_1-7_
  6
CONTINUOUS
 62
    7
 10
203.60095232484178
 20
167.54248460175126
 40
0.1643557161898226
  0
CIRCLE
  8
_1-7_
  6
CONTINUOUS
 62
    7
 10
200.1495255868245
 20
165.7345902816499
 40
0.1643557161898226
  0
CIRCLE
  8
_1-7_
  6
CONTINUOUS
 62
    7
 10
204.75142378018387
 20
164.91281788669636
 40
0.1643557161898226
  0
CIRCLE
  8
_1-7_
  6
CONTINUOUS
 62
    7
 10
200.47823701920413
 20
164.91281788669636
 40
0.1643557161898226
  0
CIRCLE
  8
_1-7_
  6
CONTINUOUS
 62
    7
 10
196.53374931861293
 20
165.07719216087287
 40
0.1643557161898226
  0
CIRCLE
  8
_1-7_
  6
CONTINUOUS
 62
    7
 10
196.86246075099257
 20
162.61187497601222
 40
0.1643557161898226
  0
CIRCLE
  8
_1-7_
  6
CONTINUOUS
 62
    7
 10
194.72585499851158
 20
160.96833018610513
 40
0.1643557161898226
  0
CIRCLE
  8
_1-7_
  6
CONTINUOUS
 62
    7
 10
189.13783488000439
 20
161.62575305086443
 40
0.1643557161898226
  0
CIRCLE
  8
_1-7_
  6
CONTINUOUS
 62
    7
 10
189.13783488000439
 20
158.99611107979177
 40
0.1643557161898226
  0
CIRCLE
  8
_1-7_
  6
CONTINUOUS
 62
    7
 10
192.09620065544777
 20
161.13270446028164
 40
0.1643557161898226
  0
CIRCLE
  8
_1-7_
  6
CONTINUOUS
 62
    7
 10
195.38327786327085
 20
163.59799690116003
 40
0.1643557161898226
  0
CIRCLE
  8
_1-7_
  6
CONTINUOUS
 62
    7
 10
206.55931191428965
 20
168.19989509451941
 40
0.1643557161898226
  0
CIRCLE
  8
_1-7_
  6
CONTINUOUS
 62
    7
 10
210.50379961488085
 20
169.18601701966722
 40
0.1643557161898226
  0
CIRCLE
  8
_1-7_
  6
CONTINUOUS
 62
    7
 10
208.69590529477949
 20
167.04942363917735
 40
0.1643557161898226
  0
CIRCLE
  8
_1-7_
  6
CONTINUOUS
 62
    7
 10
208.69590529477949
 20
170.172138944815
 40
0.1643557161898226
  0
CIRCLE
  8
_1-7_
  6
CONTINUOUS
 62
    7
 10
217.07794165853585
 20
173.29485425045269
 40
0.1643557161898226
  0
CIRCLE
  8
_1-7_
  6
CONTINUOUS
 62
    7
 10
217.40665309091548
 20
172.47308185549915
 40
0.1643557161898226
  0
CIRCLE
  8
_1-7_
  6
CONTINUOUS
 62
    7
 10
213.46216539032429
 20
172.63745612967566
 40
0.1643557161898226
  0
CIRCLE
  8
_1-7_
  6
CONTINUOUS
 62
    7
 10
213.79087682270392
 20
170.172138944815
 40
0.1643557161898226
  0
CIRCLE
  8
_1-7_
  6
CONTINUOUS
 62
    7
 10
211.65427107022293
 20
168.52859415490792
 40
0.1643557161898226
  0
CIRCLE
  8
_1-7_
  6
CONTINUOUS
 62
    7
 10
206.06625095171574
 20
169.18601701966722
 40
0.1643557161898226
  0
CIRCLE
  8
_1-7_
  6
CONTINUOUS
 62
    7
 10
206.06625095171574
 20
166.55637504859456
 40
0.1643557161898226
  0
CIRCLE
  8
_1-7_
  6
CONTINUOUS
 62
    7
 10
209.02461672715913
 20
168.69296842908443
 40
0.1643557161898226
  0
CIRCLE
  8
_1-7_
  6
CONTINUOUS
 62
    7
 10
212.3116939349822
 20
171.15826086996282
 40
0.1643557161898226
  0
CIRCLE
  8
_1-7_
  6
CONTINUOUS
 62
    7
 10
223.48772180000543
 20
173.29486662244381
 40
0.1643557161898226
  0
CIRCLE
  8
_1-7_
  6
CONTINUOUS
 62
    7
 10
165.16883414098413
 20
144.90395541704896
 40
0.1643557161898226
  0
CIRCLE
  8
_1-7_
  6
CONTINUOUS
 62
    7
 10
166.81236655890007
 20
146.54750020695607
 40
0.1643557161898226
  0
CIRCLE
  8
_1-7_
  6
CONTINUOUS
 62
    7
 10
170.09943139473199
 20
144.90395541704896
 40
0.1643557161898226
  0
CIRCLE
  8
_1-7_
  6
CONTINUOUS
 62
    7
 10
166.15495606613189
 20
146.54750020695607
 40
0.1643557161898226
  0
CIRCLE
  8
_1-7_
  6
CONTINUOUS
 62
    7
 10
168.62024850701027
 20
146.54750020695607
 40
0.1643557161898226
  0
CIRCLE
  8
_1-7_
  6
CONTINUOUS
 62
    7
 10
172.07167524502762
 20
148.02667072268665
 40
0.1643557161898226
  0
CIRCLE
  8
_1-7_
  6
CONTINUOUS
 62
    7
 10
176.01616294561882
 20
149.01279264783443
 40
0.1643557161898226
  0
CIRCLE
  8
_1-7_
  6
CONTINUOUS
 62
    7
 10
174.20826862551746
 20
146.87619926734456
 40
0.1643557161898226
  0
CIRCLE
  8
_1-7_
  6
CONTINUOUS
 62
    7
 10
174.20826862551746
 20
149.99891457298224
 40
0.1643557161898226
  0
CIRCLE
  8
_1-7_
  6
CONTINUOUS
 62
    7
 10
177.1666344009609
 20
148.35536978307513
 40
0.1643557161898226
  0
CIRCLE
  8
_1-7_
  6
CONTINUOUS
 62
    7
 10
171.57861428245371
 20
149.01279264783443
 40
0.1643557161898226
  0
CIRCLE
  8
_1-7_
  6
CONTINUOUS
 62
    7
 10
171.57861428245371
 20
146.3831506767618
 40
0.1643557161898226
  0
CIRCLE
  8
_1-7_
  6
CONTINUOUS
 62
    7
 10
174.5369800578971
 20
148.51974405725167
 40
0.1643557161898226
  0
CIRCLE
  8
_1-7_
  6
CONTINUOUS
 62
    7
 10
173.57747337867153
 20
148.11902763648519
 40
0.1643557161898226
  0
CIRCLE
  8
_1-7_
  6
CONTINUOUS
 62
    7
 10
175.22100579658746
 20
149.7625724263923
 40
0.1643557161898226
  0
CIRCLE
  8
_1-7_
  6
CONTINUOUS
 62
    7
 10
178.50807063241939
 20
148.11902763648519
 40
0.1643557161898226
  0
CIRCLE
  8
_1-7_
  6
CONTINUOUS
 62
    7
 10
174.56359530381928
 20
149.7625724263923
 40
0.1643557161898226
  0
CIRCLE
  8
_1-7_
  6
CONTINUOUS
 62
    7
 10
177.02888774469767
 20
149.7625724263923
 40
0.1643557161898226
  0
CIRCLE
  8
_1-7_
  6
CONTINUOUS
 62
    7
 10
180.48031448271502
 20
151.24174294212287
 40
0.1643557161898226
  0
CIRCLE
  8
_1-7_
  6
CONTINUOUS
 62
    7
 10
184.42479909030845
 20
152.22786486727068
 40
0.1643557161898226
  0
CIRCLE
  8
_1-7_
  6
CONTINUOUS
 62
    7
 10
182.6169047702071
 20
150.09127148678081
 40
0.1643557161898226
  0
CIRCLE
  8
_1-7_
  6
CONTINUOUS
 62
    7
 10
182.6169047702071
 20
153.21398679241847
 40
0.1643557161898226
  0
CIRCLE
  8
_1-7_
  6
CONTINUOUS
 62
    7
 10
185.57527054565048
 20
151.57044200251138
 40
0.1643557161898226
  0
CIRCLE
  8
_1-7_
  6
CONTINUOUS
 62
    7
 10
179.98725352014111
 20
152.22786486727068
 40
0.1643557161898226
  0
CIRCLE
  8
_1-7_
  6
CONTINUOUS
 62
    7
 10
179.98725352014111
 20
149.59822289619802
 40
0.1643557161898226
  0
CIRCLE
  8
_1-7_
  6
CONTINUOUS
 62
    7
 10
182.94561620258673
 20
151.73481627668789
 40
0.1643557161898226
  0
CIRCLE
  8
_1-7_
  6
CONTINUOUS
 62
    7
 10
179.51298251909856
 20
150.83946765047381
 40
0.1643557161898226
  0
CIRCLE
  8
_1-7_
  6
CONTINUOUS
 62
    7
 10
181.15651493701449
 20
152.48301244038089
 40
0.1643557161898226
  0
CIRCLE
  8
_1-7_
  6
CONTINUOUS
 62
    7
 10
184.44357977284642
 20
150.83946765047381
 40
0.1643557161898226
  0
CIRCLE
  8
_1-7_
  6
CONTINUOUS
 62
    7
 10
180.49910444424637
 20
152.48301244038089
 40
0.1643557161898226
  0
CIRCLE
  8
_1-7_
  6
CONTINUOUS
 62
    7
 10
182.96439688512476
 20
152.48301244038089
 40
0.1643557161898226
  0
CIRCLE
  8
_1-7_
  6
CONTINUOUS
 62
    7
 10
186.41582362314205
 20
153.96218295611146
 40
0.1643557161898226
  0
CIRCLE
  8
_1-7_
  6
CONTINUOUS
 62
    7
 10
190.36031132373324
 20
154.94830488125928
 40
0.1643557161898226
  0
CIRCLE
  8
_1-7_
  6
CONTINUOUS
 62
    7
 10
188.55241700363189
 20
152.81171150076941
 40
0.1643557161898226
  0
CIRCLE
  8
_1-7_
  6
CONTINUOUS
 62
    7
 10
188.55241700363189
 20
155.93442680640706
 40
0.1643557161898226
  0
CIRCLE
  8
_1-7_
  6
CONTINUOUS
 62
    7
 10
191.51078277907533
 20
154.29088201649998
 40
0.1643557161898226
  0
CIRCLE
  8
_1-7_
  6
CONTINUOUS
 62
    7
 10
185.92276266056814
 20
154.94830488125928
 40
0.1643557161898226
  0
CIRCLE
  8
_1-7_
  6
CONTINUOUS
 62
    7
 10
185.92276266056814
 20
152.31866291018665
 40
0.1643557161898226
  0
CIRCLE
  8
_1-7_
  6
CONTINUOUS
 62
    7
 10
188.88112843601158
 20
154.45525629067649
 40
0.1643557161898226
  0
CIRCLE
  8
_1-7_
  6
CONTINUOUS
 62
    7
 10
183.71730677743892
 20
153.31260393372972
 40
0.1643557161898226
  0
CIRCLE
  8
_1-7_
  6
CONTINUOUS
 62
    7
 10
185.36083919535486
 20
154.9561487236368
 40
0.1643557161898226
  0
CIRCLE
  8
_1-7_
  6
CONTINUOUS
 62
    7
 10
188.64790403118678
 20
153.31260393372972
 40
0.1643557161898226
  0
CIRCLE
  8
_1-7_
  6
CONTINUOUS
 62
    7
 10
184.70342870258673
 20
154.9561487236368
 40
0.1643557161898226
  0
CIRCLE
  8
_1-7_
  6
CONTINUOUS
 62
    7
 10
187.16872114346512
 20
154.9561487236368
 40
0.1643557161898226
  0
CIRCLE
  8
_1-7_
  6
CONTINUOUS
 62
    7
 10
190.62014788148241
 20
156.43531923936737
 40
0.1643557161898226
  0
CIRCLE
  8
_1-7_
  6
CONTINUOUS
 62
    7
 10
194.56463558207366
 20
157.42144116451519
 40
0.1643557161898226
  0
CIRCLE
  8
_1-7_
  6
CONTINUOUS
 62
    7
 10
192.75674126197231
 20
155.28484778402532
 40
0.1643557161898226
  0
CIRCLE
  8
_1-7_
  6
CONTINUOUS
 62
    7
 10
192.75674126197231
 20
158.40756308966297
 40
0.1643557161898226
  0
CIRCLE
  8
_1-7_
  6
CONTINUOUS
 62
    7
 10
195.71510703741569
 20
156.76401829975589
 40
0.1643557161898226
  0
CIRCLE
  8
_1-7_
  6
CONTINUOUS
 62
    7
 10
190.1270869189085
 20
157.42144116451519
 40
0.1643557161898226
  0
CIRCLE
  8
_1-7_
  6
CONTINUOUS
 62
    7
 10
190.1270869189085
 20
154.79179919344256
 40
0.1643557161898226
  0
CIRCLE
  8
_1-7_
  6
CONTINUOUS
 62
    7
 10
193.08545269435194
 20
156.9283925739324
 40
0.1643557161898226
  0
CIRCLE
  8
_1-7_
  6
CONTINUOUS
 62
    7
 10
187.42699883033168
 20
155.78572784499448
 40
0.1643557161898226
  0
CIRCLE
  8
_1-7_
  6
CONTINUOUS
 62
    7
 10
189.07053124824762
 20
157.42927263490159
 40
0.1643557161898226
  0
CIRCLE
  8
_1-7_
  6
CONTINUOUS
 62
    7
 10
192.35759608407955
 20
155.78572784499448
 40
0.1643557161898226
  0
CIRCLE
  8
_1-7_
  6
CONTINUOUS
 62
    7
 10
188.41312075547944
 20
157.42927263490159
 40
0.1643557161898226
  0
CIRCLE
  8
_1-7_
  6
CONTINUOUS
 62
    7
 10
190.87841319635783
 20
157.42927263490159
 40
0.1643557161898226
  0
CIRCLE
  8
_1-7_
  6
CONTINUOUS
 62
    7
 10
194.32983993437517
 20
158.90844315063217
 40
0.1643557161898226
  0
CIRCLE
  8
_1-7_
  6
CONTINUOUS
 62
    7
 10
198.27432763496637
 20
159.89456507577995
 40
0.1643557161898226
  0
CIRCLE
  8
_1-7_
  6
CONTINUOUS
 62
    7
 10
196.46643331486501
 20
157.75797169529011
 40
0.1643557161898226
  0
CIRCLE
  8
_1-7_
  6
CONTINUOUS
 62
    7
 10
196.46643331486501
 20
160.88068700092776
 40
0.1643557161898226
  0
CIRCLE
  8
_1-7_
  6
CONTINUOUS
 62
    7
 10
199.42479909030845
 20
159.23714221102068
 40
0.1643557161898226
  0
CIRCLE
  8
_1-7_
  6
CONTINUOUS
 62
    7
 10
193.83677897180127
 20
159.89456507577995
 40
0.1643557161898226
  0
CIRCLE
  8
_1-7_
  6
CONTINUOUS
 62
    7
 10
193.83677897180127
 20
157.26492310470732
 40
0.1643557161898226
  0
CIRCLE
  8
_1-7_
  6
CONTINUOUS
 62
    7
 10
196.79514474724465
 20
159.40151648519719
 40
0.1643557161898226
  0
CIRCLE
  8
_1-7_
  6
CONTINUOUS
 62
    7
 10
192.12594292212856
 20
157.76423192280276
 40
0.1643557161898226
  0
CIRCLE
  8
_1-7_
  6
CONTINUOUS
 62
    7
 10
193.76947534004449
 20
159.40777671270985
 40
0.1643557161898226
  0
CIRCLE
  8
_1-7_
  6
CONTINUOUS
 62
    7
 10
197.05654017587642
 20
157.76423192280276
 40
0.1643557161898226
  0
CIRCLE
  8
_1-7_
  6
CONTINUOUS
 62
    7
 10
193.11206484727632
 20
159.40777671270985
 40
0.1643557161898226
  0
CIRCLE
  8
_1-7_
  6
CONTINUOUS
 62
    7
 10
195.5773572881547
 20
159.40777671270985
 40
0.1643557161898226
  0
CIRCLE
  8
_1-7_
  6
CONTINUOUS
 62
    7
 10
199.02878402617205
 20
160.88694722844045
 40
0.1643557161898226
  0
CIRCLE
  8
_1-7_
  6
CONTINUOUS
 62
    7
 10
202.97327172676324
 20
161.87306915358823
 40
0.1643557161898226
  0
CIRCLE
  8
_1-7_
  6
CONTINUOUS
 62
    7
 10
201.16537740666189
 20
159.73647577309836
 40
0.1643557161898226
  0
CIRCLE
  8
_1-7_
  6
CONTINUOUS
 62
    7
 10
201.16537740666189
 20
162.85919107873605
 40
0.1643557161898226
  0
CIRCLE
  8
_1-7_
  6
CONTINUOUS
 62
    7
 10
204.12374318210533
 20
161.21564628882894
 40
0.1643557161898226
  0
CIRCLE
  8
_1-7_
  6
CONTINUOUS
 62
    7
 10
198.53572306359814
 20
161.87306915358823
 40
0.1643557161898226
  0
CIRCLE
  8
_1-7_
  6
CONTINUOUS
 62
    7
 10
198.53572306359814
 20
159.2434271825156
 40
0.1643557161898226
  0
CIRCLE
  8
_1-7_
  6
CONTINUOUS
 62
    7
 10
201.49408883904152
 20
161.38002056300547
 40
0.1643557161898226
  0
CIRCLE
  8
_1-7_
  6
CONTINUOUS
 62
    7
 10
197.07220311664923
 20
159.49541989788722
 40
0.1643557161898226
  0
CIRCLE
  8
_1-7_
  6
CONTINUOUS
 62
    7
 10
198.71573553456517
 20
161.13896468779433
 40
0.1643557161898226
  0
CIRCLE
  8
_1-7_
  6
CONTINUOUS
 62
    7
 10
202.0028003703971
 20
159.49541989788722
 40
0.1643557161898226
  0
CIRCLE
  8
_1-7_
  6
CONTINUOUS
 62
    7
 10
198.05832504179705
 20
161.13896468779433
 40
0.1643557161898226
  0
CIRCLE
  8
_1-7_
  6
CONTINUOUS
 62
    7
 10
200.52361748267543
 20
161.13896468779433
 40
0.1643557161898226
  0
CIRCLE
  8
_1-7_
  6
CONTINUOUS
 62
    7
 10
203.97504422069272
 20
162.6181352035249
 40
0.1643557161898226
  0
CIRCLE
  8
_1-7_
  6
CONTINUOUS
 62
    7
 10
207.91953192128392
 20
163.60425712867269
 40
0.1643557161898226
  0
CIRCLE
  8
_1-7_
  6
CONTINUOUS
 62
    7
 10
206.11163760118257
 20
161.46766374818284
 40
0.1643557161898226
  0
CIRCLE
  8
_1-7_
  6
CONTINUOUS
 62
    7
 10
206.11163760118257
 20
164.5903790538205
 40
0.1643557161898226
  0
CIRCLE
  8
_1-7_
  6
CONTINUOUS
 62
    7
 10
209.070003376626
 20
162.94683426391342
 40
0.1643557161898226
  0
CIRCLE
  8
_1-7_
  6
CONTINUOUS
 62
    7
 10
203.48198325811882
 20
163.60425712867269
 40
0.1643557161898226
  0
CIRCLE
  8
_1-7_
  6
CONTINUOUS
 62
    7
 10
203.48198325811882
 20
160.97461515760006
 40
0.1643557161898226
  0
CIRCLE
  8
_1-7_
  6
CONTINUOUS
 62
    7
 10
206.44034903356226
 20
163.11120853808993
 40
0.1643557161898226
  0
CIRCLE
  8
_1-7_
  6
CONTINUOUS
 62
    7
 10
202.01846331116991
 20
161.4739239756955
 40
0.1643557161898226
  0
CIRCLE
  8
_1-7_
  6
CONTINUOUS
 62
    7
 10
203.6619957290859
 20
163.11746876560261
 40
0.1643557161898226
  0
CIRCLE
  8
_1-7_
  6
CONTINUOUS
 62
    7
 10
206.94906056491783
 20
161.4739239756955
 40
0.1643557161898226
  0
CIRCLE
  8
_1-7_
  6
CONTINUOUS
 62
    7
 10
203.00458523631772
 20
163.11746876560261
 40
0.1643557161898226
  0
CIRCLE
  8
_1-7_
  6
CONTINUOUS
 62
    7
 10
205.46987767719611
 20
163.11746876560261
 40
0.1643557161898226
  0
CIRCLE
  8
_1-7_
  6
CONTINUOUS
 62
    7
 10
208.9213044152134
 20
164.59663928133318
 40
0.1643557161898226
  0
CIRCLE
  8
_1-7_
  6
CONTINUOUS
 62
    7
 10
212.86579211580465
 20
165.58276120648097
 40
0.1643557161898226
  0
CIRCLE
  8
_1-7_
  6
CONTINUOUS
 62
    7
 10
211.0578977957033
 20
163.4461678259911
 40
0.1643557161898226
  0
CIRCLE
  8
_1-7_
  6
CONTINUOUS
 62
    7
 10
211.0578977957033
 20
166.56888313162878
 40
0.1643557161898226
  0
CIRCLE
  8
_1-7_
  6
CONTINUOUS
 62
    7
 10
214.01626357114668
 20
164.9253383417217
 40
0.1643557161898226
  0
CIRCLE
  8
_1-7_
  6
CONTINUOUS
 62
    7
 10
208.42824345263949
 20
165.58276120648097
 40
0.1643557161898226
  0
CIRCLE
  8
_1-7_
  6
CONTINUOUS
 62
    7
 10
208.42824345263949
 20
162.95311923540834
 40
0.1643557161898226
  0
CIRCLE
  8
_1-7_
  6
CONTINUOUS
 62
    7
 10
211.38660922808293
 20
165.08971261589821
 40
0.1643557161898226
  0
CIRCLE
  8
_1-7_
  6
CONTINUOUS
 62
    7
 10
207.45934952514267
 20
163.94704788696029
 40
0.1643557161898226
  0
CIRCLE
  8
_1-7_
  6
CONTINUOUS
 62
    7
 10
209.10288194305866
 20
165.59059267686737
 40
0.1643557161898226
  0
CIRCLE
  8
_1-7_
  6
CONTINUOUS
 62
    7
 10
212.38994677889059
 20
163.94704788696029
 40
0.1643557161898226
  0
CIRCLE
  8
_1-7_
  6
CONTINUOUS
 62
    7
 10
208.44547145029048
 20
165.59059267686737
 40
0.1643557161898226
  0
CIRCLE
  8
_1-7_
  6
CONTINUOUS
 62
    7
 10
210.91076389116887
 20
165.59059267686737
 40
0.1643557161898226
  0
CIRCLE
  8
_1-7_
  6
CONTINUOUS
 62
    7
 10
214.36219062918616
 20
167.06976319259795
 40
0.1643557161898226
  0
CIRCLE
  8
_1-7_
  6
CONTINUOUS
 62
    7
 10
218.30667832977741
 20
168.05588511774576
 40
0.1643557161898226
  0
CIRCLE
  8
_1-7_
  6
CONTINUOUS
 62
    7
 10
216.49878400967606
 20
165.91929173725589
 40
0.1643557161898226
  0
CIRCLE
  8
_1-7_
  6
CONTINUOUS
 62
    7
 10
216.49878400967606
 20
169.04200704289357
 40
0.1643557161898226
  0
CIRCLE
  8
_1-7_
  6
CONTINUOUS
 62
    7
 10
219.45714978511944
 20
167.39846225298646
 40
0.1643557161898226
  0
CIRCLE
  8
_1-7_
  6
CONTINUOUS
 62
    7
 10
213.86912966661225
 20
168.05588511774576
 40
0.1643557161898226
  0
CIRCLE
  8
_1-7_
  6
CONTINUOUS
 62
    7
 10
213.86912966661225
 20
165.42624314667313
 40
0.1643557161898226
  0
CIRCLE
  8
_1-7_
  6
CONTINUOUS
 62
    7
 10
216.82749544205569
 20
167.562836527163
 40
0.1643557161898226
  0
CIRCLE
  8
_1-7_
  6
CONTINUOUS
 62
    7
 10
213.14754565584371
 20
167.40943620912034
 40
0.1643557161898226
  0
CIRCLE
  8
_1-7_
  6
CONTINUOUS
 62
    7
 10
214.79107807375965
 20
169.05298099902743
 40
0.1643557161898226
  0
CIRCLE
  8
_1-7_
  6
CONTINUOUS
 62
    7
 10
218.07814290959158
 20
167.40943620912034
 40
0.1643557161898226
  0
CIRCLE
  8
_1-7_
  6
CONTINUOUS
 62
    7
 10
214.13366758099153
 20
169.05298099902743
 40
0.1643557161898226
  0
CIRCLE
  8
_1-7_
  6
CONTINUOUS
 62
    7
 10
216.59896002186986
 20
169.05298099902743
 40
0.1643557161898226
  0
CIRCLE
  8
_1-7_
  6
CONTINUOUS
 62
    7
 10
220.0503867598872
 20
170.532151514758
 40
0.1643557161898226
  0
CIRCLE
  8
_1-7_
  6
CONTINUOUS
 62
    7
 10
223.9948744604784
 20
171.51827343990581
 40
0.1643557161898226
  0
CIRCLE
  8
_1-7_
  6
CONTINUOUS
 62
    7
 10
222.18698014037705
 20
169.38168005941594
 40
0.1643557161898226
  0
CIRCLE
  8
_1-7_
  6
CONTINUOUS
 62
    7
 10
222.18698014037705
 20
172.50439536505363
 40
0.1643557161898226
  0
CIRCLE
  8
_1-7_
  6
CONTINUOUS
 62
    7
 10
225.14534591582049
 20
170.86085057514651
 40
0.1643557161898226
  0
CIRCLE
  8
_1-7_
  6
CONTINUOUS
 62
    7
 10
219.5573257973133
 20
171.51827343990581
 40
0.1643557161898226
  0
CIRCLE
  8
_1-7_
  6
CONTINUOUS
 62
    7
 10
219.5573257973133
 20
168.88863146883318
 40
0.1643557161898226
  0
CIRCLE
  8
_1-7_
  6
CONTINUOUS
 62
    7
 10
222.51569157275668
 20
171.02522484932302
 40
0.1643557161898226
  0
CIRCLE
  8
_1-7_
  6
CONTINUOUS
 62
    7
 10
218.09380585036439
 20
169.38794028692863
 40
0.1643557161898226
  0
CIRCLE
  8
_1-7_
  6
CONTINUOUS
 62
    7
 10
219.73733826828038
 20
171.03148507683571
 40
0.1643557161898226
  0
CIRCLE
  8
_1-7_
  6
CONTINUOUS
 62
    7
 10
223.02440310411225
 20
169.38794028692863
 40
0.1643557161898226
  0
CIRCLE
  8
_1-7_
  6
CONTINUOUS
 62
    7
 10
219.0799277755122
 20
171.03148507683571
 40
0.1643557161898226
  0
CIRCLE
  8
_1-7_
  6
CONTINUOUS
 62
    7
 10
221.54522021639059
 20
171.03148507683571
 40
0.1643557161898226
  0
CIRCLE
  8
_1-7_
  6
CONTINUOUS
 62
    7
 10
224.99664695440788
 20
172.51065559256628
 40
0.1643557161898226
  0
CIRCLE
  8
_1-7_
  6
CONTINUOUS
 62
    7
 10
227.13324033489778
 20
171.36018413722422
 40
0.1643557161898226
  0
CIRCLE
  8
_1-7_
  6
CONTINUOUS
 62
    7
 10
230.09160611034116
 20
172.8393546529548
 40
0.1643557161898226
  0
CIRCLE
  8
_1-7_
  6
CONTINUOUS
 62
    7
 10
224.50358599183397
 20
170.86713554664144
 40
0.1643557161898226
  0
CIRCLE
  8
_1-7_
  6
CONTINUOUS
 62
    7
 10
227.46195176727741
 20
173.00372892713131
 40
0.1643557161898226
  0
CIRCLE
  8
_1-7_
  6
CONTINUOUS
 62
    7
 10
225.76050605887366
 20
172.85032860908865
 40
0.1643557161898226
  0
CIRCLE
  8
_1-7_
  6
CONTINUOUS
 62
    7
 10
230.69110331262158
 20
172.85032860908865
 40
0.1643557161898226
  0
CIRCLE
  8
_1-7_
  6
CONTINUOUS
 62
    7
 10
228.74399281618133
 20
178.03719736484038
 40
0.1643557161898226
  0
CIRCLE
  8
_1-7_
  6
CONTINUOUS
 62
    7
 10
232.52412480058274
 20
177.70849211845629
 40
0.1643557161898226
  0
CIRCLE
  8
_1-7_
  6
CONTINUOUS
 62
    7
 10
228.25093185360743
 20
176.2293092307346
 40
0.1643557161898226
  0
CIRCLE
  8
_1-7_
  6
CONTINUOUS
 62
    7
 10
227.92222660722337
 20
178.6946140436041
 40
0.1643557161898226
  0
CIRCLE
  8
_1-7_
  6
CONTINUOUS
 62
    7
 10
231.70235859162472
 20
179.68072978275634
 40
0.1643557161898226
  0
CIRCLE
  8
_1-7_
  6
CONTINUOUS
 62
    7
 10
239.26261946742974
 20
180.83121361008955
 40
0.1643557161898226
  0
CIRCLE
  8
_1-7_
  6
CONTINUOUS
 62
    7
 10
234.16766340449428
 20
179.35203072236783
 40
0.1643557161898226
  0
CIRCLE
  8
_1-7_
  6
CONTINUOUS
 62
    7
 10
236.63296203136821
 20
181.65297981904752
 40
0.1643557161898226
  0
CIRCLE
  8
_1-7_
  6
CONTINUOUS
 62
    7
 10
241.23486950372092
 20
183.95392272973163
 40
0.1643557161898226
  0
CIRCLE
  8
_1-7_
  6
CONTINUOUS
 62
    7
 10
242.87840192163685
 20
185.59746751963874
 40
0.1643557161898226
  0
CIRCLE
  8
_1-7_
  6
CONTINUOUS
 62
    7
 10
246.16546675746881
 20
183.95392272973163
 40
0.1643557161898226
  0
CIRCLE
  8
_1-7_
  6
CONTINUOUS
 62
    7
 10
244.19322290717321
 20
182.96780080458385
 40
0.1643557161898226
  0
CIRCLE
  8
_1-7_
  6
CONTINUOUS
 62
    7
 10
239.09826684423771
 20
183.95392272973163
 40
0.1643557161898226
  0
CIRCLE
  8
_1-7_
  6
CONTINUOUS
 62
    7
 10
242.22099142886873
 20
185.59746751963874
 40
0.1643557161898226
  0
CIRCLE
  8
_1-7_
  6
CONTINUOUS
 62
    7
 10
244.68628386974711
 20
185.59746751963874
 40
0.1643557161898226
  0
CIRCLE
  8
_1-7_
  6
CONTINUOUS
 62
    7
 10
248.13771060776443
 20
187.07663803536931
 40
0.1643557161898226
  0
CIRCLE
  8
_1-7_
  6
CONTINUOUS
 62
    7
 10
252.08219830835563
 20
188.06275996051713
 40
0.1643557161898226
  0
CIRCLE
  8
_1-7_
  6
CONTINUOUS
 62
    7
 10
250.27430398825427
 20
185.92616658002726
 40
0.1643557161898226
  0
CIRCLE
  8
_1-7_
  6
CONTINUOUS
 62
    7
 10
250.27430398825427
 20
189.04888188566491
 40
0.1643557161898226
  0
CIRCLE
  8
_1-7_
  6
CONTINUOUS
 62
    7
 10
255.04056408379907
 20
191.51419907052556
 40
0.1643557161898226
  0
CIRCLE
  8
_1-7_
  6
CONTINUOUS
 62
    7
 10
255.3692755161787
 20
189.04888188566491
 40
0.1643557161898226
  0
CIRCLE
  8
_1-7_
  6
CONTINUOUS
 62
    7
 10
253.23266976369771
 20
187.40533709575783
 40
0.1643557161898226
  0
CIRCLE
  8
_1-7_
  6
CONTINUOUS
 62
    7
 10
247.64464964519053
 20
188.06275996051713
 40
0.1643557161898226
  0
CIRCLE
  8
_1-7_
  6
CONTINUOUS
 62
    7
 10
247.64464964519053
 20
185.43311798944447
 40
0.1643557161898226
  0
CIRCLE
  8
_1-7_
  6
CONTINUOUS
 62
    7
 10
250.60301542063394
 20
187.56971136993434
 40
0.1643557161898226
  0
CIRCLE
  8
_1-7_
  6
CONTINUOUS
 62
    7
 10
253.89009262845698
 20
190.03500381081273
 40
0.1643557161898226
  0
CIRCLE
  8
_1-7_
  6
CONTINUOUS
 62
    7
 10
228.6062461599181
 20
171.34096232670166
 40
0.1643557161898226
  0
CIRCLE
  8
_1-7_
  6
CONTINUOUS
 62
    7
 10
227.12706327219644
 20
172.98450711660877
 40
0.1643557161898226
  0
CIRCLE
  8
_1-7_
  6
CONTINUOUS
 62
    7
 10
230.57849001021373
 20
174.46367763233934
 40
0.1643557161898226
  0
CIRCLE
  8
_1-7_
  6
CONTINUOUS
 62
    7
 10
234.52297771080495
 20
175.44979955748713
 40
0.1643557161898226
  0
CIRCLE
  8
_1-7_
  6
CONTINUOUS
 62
    7
 10
232.7150833907036
 20
173.31320617699726
 40
0.1643557161898226
  0
CIRCLE
  8
_1-7_
  6
CONTINUOUS
 62
    7
 10
232.7150833907036
 20
176.43592148263494
 40
0.1643557161898226
  0
CIRCLE
  8
_1-7_
  6
CONTINUOUS
 62
    7
 10
235.67344916614704
 20
174.79237669272783
 40
0.1643557161898226
  0
CIRCLE
  8
_1-7_
  6
CONTINUOUS
 62
    7
 10
230.08542904763985
 20
175.44979955748713
 40
0.1643557161898226
  0
CIRCLE
  8
_1-7_
  6
CONTINUOUS
 62
    7
 10
230.08542904763985
 20
172.8201575864145
 40
0.1643557161898226
  0
CIRCLE
  8
_1-7_
  6
CONTINUOUS
 62
    7
 10
233.04379482308326
 20
174.95675096690437
 40
0.1643557161898226
  0
CIRCLE
  8
_1-7_
  6
CONTINUOUS
 62
    7
 10
232.08428814385763
 20
174.55603454613788
 40
0.1643557161898226
  0
CIRCLE
  8
_1-7_
  6
CONTINUOUS
 62
    7
 10
233.72782056177357
 20
176.19957933604499
 40
0.1643557161898226
  0
CIRCLE
  8
_1-7_
  6
CONTINUOUS
 62
    7
 10
237.01488539760552
 20
174.55603454613788
 40
0.1643557161898226
  0
CIRCLE
  8
_1-7_
  6
CONTINUOUS
 62
    7
 10
233.07041006900545
 20
176.19957933604499
 40
0.1643557161898226
  0
CIRCLE
  8
_1-7_
  6
CONTINUOUS
 62
    7
 10
235.53570250988383
 20
176.19957933604499
 40
0.1643557161898226
  0
CIRCLE
  8
_1-7_
  6
CONTINUOUS
 62
    7
 10
238.98712924790115
 20
177.67874985177556
 40
0.1643557161898226
  0
CIRCLE
  8
_1-7_
  6
CONTINUOUS
 62
    7
 10
242.93161385549456
 20
178.66487177692338
 40
0.1643557161898226
  0
CIRCLE
  8
_1-7_
  6
CONTINUOUS
 62
    7
 10
241.12371953539321
 20
176.52827839643351
 40
0.1643557161898226
  0
CIRCLE
  8
_1-7_
  6
CONTINUOUS
 62
    7
 10
241.12371953539321
 20
179.65099370207116
 40
0.1643557161898226
  0
CIRCLE
  8
_1-7_
  6
CONTINUOUS
 62
    7
 10
244.08208531083665
 20
178.00744891216408
 40
0.1643557161898226
  0
CIRCLE
  8
_1-7_
  6
CONTINUOUS
 62
    7
 10
238.49406828532722
 20
178.66487177692338
 40
0.1643557161898226
  0
CIRCLE
  8
_1-7_
  6
CONTINUOUS
 62
    7
 10
238.49406828532722
 20
176.03522980585072
 40
0.1643557161898226
  0
CIRCLE
  8
_1-7_
  6
CONTINUOUS
 62
    7
 10
241.45243096777287
 20
178.17182318634059
 40
0.1643557161898226
  0
CIRCLE
  8
_1-7_
  6
CONTINUOUS
 62
    7
 10
238.01979728428466
 20
177.2764745601265
 40
0.1643557161898226
  0
CIRCLE
  8
_1-7_
  6
CONTINUOUS
 62
    7
 10
239.66332970220066
 20
178.92001935003358
 40
0.1643557161898226
  0
CIRCLE
  8
_1-7_
  6
CONTINUOUS
 62
    7
 10
242.95039453803258
 20
177.2764745601265
 40
0.1643557161898226
  0
CIRCLE
  8
_1-7_
  6
CONTINUOUS
 62
    7
 10
239.00591920943248
 20
178.92001935003358
 40
0.1643557161898226
  0
CIRCLE
  8
_1-7_
  6
CONTINUOUS
 62
    7
 10
241.47121165031089
 20
178.92001935003358
 40
0.1643557161898226
  0
CIRCLE
  8
_1-7_
  6
CONTINUOUS
 62
    7
 10
244.92263838832818
 20
180.39918986576416
 40
0.1643557161898226
  0
CIRCLE
  8
_1-7_
  6
CONTINUOUS
 62
    7
 10
248.86712608891941
 20
181.38531179091197
 40
0.1643557161898226
  0
CIRCLE
  8
_1-7_
  6
CONTINUOUS
 62
    7
 10
247.05923176881805
 20
179.2487184104221
 40
0.1643557161898226
  0
CIRCLE
  8
_1-7_
  6
CONTINUOUS
 62
    7
 10
247.05923176881805
 20
182.37143371605976
 40
0.1643557161898226
  0
CIRCLE
  8
_1-7_
  6
CONTINUOUS
 62
    7
 10
250.01759754426146
 20
180.72788892615267
 40
0.1643557161898226
  0
CIRCLE
  8
_1-7_
  6
CONTINUOUS
 62
    7
 10
244.42957742575427
 20
181.38531179091197
 40
0.1643557161898226
  0
CIRCLE
  8
_1-7_
  6
CONTINUOUS
 62
    7
 10
244.42957742575427
 20
178.75566981983934
 40
0.1643557161898226
  0
CIRCLE
  8
_1-7_
  6
CONTINUOUS
 62
    7
 10
247.38794320119771
 20
180.89226320032918
 40
0.1643557161898226
  0
CIRCLE
  8
_1-7_
  6
CONTINUOUS
 62
    7
 10
242.22412154262506
 20
179.74961084338241
 40
0.1643557161898226
  0
CIRCLE
  8
_1-7_
  6
CONTINUOUS
 62
    7
 10
243.86765396054102
 20
181.3931556332895
 40
0.1643557161898226
  0
CIRCLE
  8
_1-7_
  6
CONTINUOUS
 62
    7
 10
247.15471879637295
 20
179.74961084338241
 40
0.1643557161898226
  0
CIRCLE
  8
_1-7_
  6
CONTINUOUS
 62
    7
 10
243.21024346777287
 20
181.3931556332895
 40
0.1643557161898226
  0
CIRCLE
  8
_1-7_
  6
CONTINUOUS
 62
    7
 10
245.67553590865126
 20
181.3931556332895
 40
0.1643557161898226
  0
CIRCLE
  8
_1-7_
  6
CONTINUOUS
 62
    7
 10
249.12696264666857
 20
182.87232614902007
 40
0.1643557161898226
  0
CIRCLE
  8
_1-7_
  6
CONTINUOUS
 62
    7
 10
253.0714503472598
 20
183.85844807416788
 40
0.1643557161898226
  0
CIRCLE
  8
_1-7_
  6
CONTINUOUS
 62
    7
 10
251.26355602715844
 20
181.72185469367801
 40
0.1643557161898226
  0
CIRCLE
  8
_1-7_
  6
CONTINUOUS
 62
    7
 10
251.26355602715844
 20
184.84456999931567
 40
0.1643557161898226
  0
CIRCLE
  8
_1-7_
  6
CONTINUOUS
 62
    7
 10
254.22192180260183
 20
183.20102520940858
 40
0.1643557161898226
  0
CIRCLE
  8
_1-7_
  6
CONTINUOUS
 62
    7
 10
248.63390168409467
 20
183.85844807416788
 40
0.1643557161898226
  0
CIRCLE
  8
_1-7_
  6
CONTINUOUS
 62
    7
 10
248.63390168409467
 20
181.22880610309525
 40
0.1643557161898226
  0
CIRCLE
  8
_1-7_
  6
CONTINUOUS
 62
    7
 10
251.59226745953808
 20
183.36539948358509
 40
0.1643557161898226
  0
CIRCLE
  8
_1-7_
  6
CONTINUOUS
 62
    7
 10
245.93381359551782
 20
182.22273475464718
 40
0.1643557161898226
  0
CIRCLE
  8
_1-7_
  6
CONTINUOUS
 62
    7
 10
247.57734601343375
 20
183.86627954455429
 40
0.1643557161898226
  0
CIRCLE
  8
_1-7_
  6
CONTINUOUS
 62
    7
 10
250.86441084926568
 20
182.22273475464718
 40
0.1643557161898226
  0
CIRCLE
  8
_1-7_
  6
CONTINUOUS
 62
    7
 10
246.9199355206656
 20
183.86627954455429
 40
0.1643557161898226
  0
CIRCLE
  8
_1-7_
  6
CONTINUOUS
 62
    7
 10
249.38522796154399
 20
183.86627954455429
 40
0.1643557161898226
  0
CIRCLE
  8
_1-7_
  6
CONTINUOUS
 62
    7
 10
252.83665469956131
 20
185.34545006028486
 40
0.1643557161898226
  0
CIRCLE
  8
_1-7_
  6
CONTINUOUS
 62
    7
 10
254.97324808005115
 20
184.1949786049428
 40
0.1643557161898226
  0
CIRCLE
  8
_1-7_
  6
CONTINUOUS
 62
    7
 10
254.97324808005115
 20
187.31769391058046
 40
0.1643557161898226
  0
CIRCLE
  8
_1-7_
  6
CONTINUOUS
 62
    7
 10
252.3435937369874
 20
186.33157198543265
 40
0.1643557161898226
  0
CIRCLE
  8
_1-7_
  6
CONTINUOUS
 62
    7
 10
252.3435937369874
 20
183.70193001436002
 40
0.1643557161898226
  0
CIRCLE
  8
_1-7_
  6
CONTINUOUS
 62
    7
 10
255.30195951243081
 20
185.83852339484989
 40
0.1643557161898226
  0
CIRCLE
  8
_1-7_
  6
CONTINUOUS
 62
    7
 10
250.63275768731469
 20
184.20123883245546
 40
0.1643557161898226
  0
CIRCLE
  8
_1-7_
  6
CONTINUOUS
 62
    7
 10
252.27629010523063
 20
185.84478362236254
 40
0.1643557161898226
  0
CIRCLE
  8
_1-7_
  6
CONTINUOUS
 62
    7
 10
255.56335494106256
 20
184.20123883245546
 40
0.1643557161898226
  0
CIRCLE
  8
_1-7_
  6
CONTINUOUS
 62
    7
 10
251.61887961246248
 20
185.84478362236254
 40
0.1643557161898226
  0
CIRCLE
  8
_1-7_
  6
CONTINUOUS
 62
    7
 10
254.08417205334086
 20
185.84478362236254
 40
0.1643557161898226
  0
CIRCLE
  8
_1-7_
  6
CONTINUOUS
 62
    7
 10
255.57901788183537
 20
185.93242680753991
 40
0.1643557161898226
  0
CIRCLE
  8
_1-7_
  6
CONTINUOUS
 62
    7
 10
228.54263453163421
 20
170.14194274217218
 40
0.1643557161898226
  0
CIRCLE
  8
_1-7_
  6
CONTINUOUS
 62
    7
 10
225.09122016560801
 20
168.33404842207082
 40
0.1643557161898226
  0
CIRCLE
  8
_1-7_
  6
CONTINUOUS
 62
    7
 10
221.47543771140087
 20
167.67665030129382
 40
0.1643557161898226
  0
CIRCLE
  8
_1-7_
  6
CONTINUOUS
 62
    7
 10
220.32496625605881
 20
166.19745504158098
 40
0.1643557161898226
  0
CIRCLE
  8
_1-7_
  6
CONTINUOUS
 62
    7
 10
228.21393547124569
 20
169.64888177959827
 40
0.1643557161898226
  0
CIRCLE
  8
_1-7_
  6
CONTINUOUS
 62
    7
 10
230.35052885173556
 20
168.49841032425621
 40
0.1643557161898226
  0
CIRCLE
  8
_1-7_
  6
CONTINUOUS
 62
    7
 10
230.35052885173556
 20
171.6211256298939
 40
0.1643557161898226
  0
CIRCLE
  8
_1-7_
  6
CONTINUOUS
 62
    7
 10
227.72087450867181
 20
170.63500370474608
 40
0.1643557161898226
  0
CIRCLE
  8
_1-7_
  6
CONTINUOUS
 62
    7
 10
227.72087450867181
 20
168.00536173367345
 40
0.1643557161898226
  0
CIRCLE
  8
_1-7_
  6
CONTINUOUS
 62
    7
 10
230.6792402841152
 20
170.14195511416332
 40
0.1643557161898226
  0
CIRCLE
  8
_1-7_
  6
CONTINUOUS
 62
    7
 10
221.79319374563335
 20
167.58116327373889
 40
0.1643557161898226
  0
CIRCLE
  8
_1-7_
  6
CONTINUOUS
 62
    7
 10
223.43672616354931
 20
169.22470806364601
 40
0.1643557161898226
  0
CIRCLE
  8
_1-7_
  6
CONTINUOUS
 62
    7
 10
222.77931567078119
 20
169.22470806364601
 40
0.1643557161898226
  0
CIRCLE
  8
_1-7_
  6
CONTINUOUS
 62
    7
 10
225.24460811165955
 20
169.22470806364601
 40
0.1643557161898226
  0
CIRCLE
  8
_1-7_
  6
CONTINUOUS
 62
    7
 10
228.69603484967686
 20
170.70387857937658
 40
0.1643557161898226
  0
CIRCLE
  8
_1-7_
  6
CONTINUOUS
 62
    7
 10
232.64052255026806
 20
171.69000050452439
 40
0.1643557161898226
  0
CIRCLE
  8
_1-7_
  6
CONTINUOUS
 62
    7
 10
230.8326282301667
 20
169.55340712403452
 40
0.1643557161898226
  0
CIRCLE
  8
_1-7_
  6
CONTINUOUS
 62
    7
 10
228.20297388710296
 20
171.69000050452439
 40
0.1643557161898226
  0
CIRCLE
  8
_1-7_
  6
CONTINUOUS
 62
    7
 10
228.20297388710296
 20
169.06035853345173
 40
0.1643557161898226
  0
CIRCLE
  8
_1-7_
  6
CONTINUOUS
 62
    7
 10
231.16133966254637
 20
171.1969519139416
 40
0.1643557161898226
  0
CIRCLE
  8
_1-7_
  6
CONTINUOUS
 62
    7
 10
221.27665074389137
 20
166.25225059030353
 40
0.1643557161898226
  0
CIRCLE
  8
_1-7_
  6
CONTINUOUS
 62
    7
 10
225.22113844448259
 20
167.23837251545132
 40
0.1643557161898226
  0
CIRCLE
  8
_1-7_
  6
CONTINUOUS
 62
    7
 10
223.41324412438124
 20
168.22449444059913
 40
0.1643557161898226
  0
CIRCLE
  8
_1-7_
  6
CONTINUOUS
 62
    7
 10
220.78358978131749
 20
167.23837251545132
 40
0.1643557161898226
  0
CIRCLE
  8
_1-7_
  6
CONTINUOUS
 62
    7
 10
223.7419555567609
 20
166.74532392486856
 40
0.1643557161898226
  0
CIRCLE
  8
_1-7_
  6
CONTINUOUS
 62
    7
 10
201.99735918632786
 20
158.84226472356204
 40
0.1643557161898226
  0
CIRCLE
  8
_1-7_
  6
CONTINUOUS
 62
    7
 10
198.54594482030166
 20
157.03437040346068
 40
0.1643557161898226
  0
CIRCLE
  8
_1-7_
  6
CONTINUOUS
 62
    7
 10
198.87464388069017
 20
156.21259800850714
 40
0.1643557161898226
  0
CIRCLE
  8
_1-7_
  6
CONTINUOUS
 62
    7
 10
194.93016236609452
 20
156.37697228268368
 40
0.1643557161898226
  0
CIRCLE
  8
_1-7_
  6
CONTINUOUS
 62
    7
 10
193.77969091075246
 20
154.89777702297084
 40
0.1643557161898226
  0
CIRCLE
  8
_1-7_
  6
CONTINUOUS
 62
    7
 10
201.66866012593934
 20
158.34920376098813
 40
0.1643557161898226
  0
CIRCLE
  8
_1-7_
  6
CONTINUOUS
 62
    7
 10
205.61314782653056
 20
159.33532568613595
 40
0.1643557161898226
  0
CIRCLE
  8
_1-7_
  6
CONTINUOUS
 62
    7
 10
203.80525350642921
 20
157.19873230564608
 40
0.1643557161898226
  0
CIRCLE
  8
_1-7_
  6
CONTINUOUS
 62
    7
 10
203.80525350642921
 20
160.32144761128376
 40
0.1643557161898226
  0
CIRCLE
  8
_1-7_
  6
CONTINUOUS
 62
    7
 10
206.76361928187262
 20
158.67790282137665
 40
0.1643557161898226
  0
CIRCLE
  8
_1-7_
  6
CONTINUOUS
 62
    7
 10
201.17559916336546
 20
159.33532568613595
 40
0.1643557161898226
  0
CIRCLE
  8
_1-7_
  6
CONTINUOUS
 62
    7
 10
201.17559916336546
 20
156.70568371506332
 40
0.1643557161898226
  0
CIRCLE
  8
_1-7_
  6
CONTINUOUS
 62
    7
 10
204.13396493880884
 20
158.84227709555319
 40
0.1643557161898226
  0
CIRCLE
  8
_1-7_
  6
CONTINUOUS
 62
    7
 10
206.60394636432616
 20
157.91719857464946
 40
0.1643557161898226
  0
CIRCLE
  8
_1-7_
  6
CONTINUOUS
 62
    7
 10
195.24791840032702
 20
156.28148525512876
 40
0.1643557161898226
  0
CIRCLE
  8
_1-7_
  6
CONTINUOUS
 62
    7
 10
196.89145081824296
 20
157.92503004503587
 40
0.1643557161898226
  0
CIRCLE
  8
_1-7_
  6
CONTINUOUS
 62
    7
 10
200.17851565407489
 20
156.28148525512876
 40
0.1643557161898226
  0
CIRCLE
  8
_1-7_
  6
CONTINUOUS
 62
    7
 10
196.23404032547484
 20
157.92503004503587
 40
0.1643557161898226
  0
CIRCLE
  8
_1-7_
  6
CONTINUOUS
 62
    7
 10
198.69933276635319
 20
157.92503004503587
 40
0.1643557161898226
  0
CIRCLE
  8
_1-7_
  6
CONTINUOUS
 62
    7
 10
202.15075950437051
 20
159.40420056076644
 40
0.1643557161898226
  0
CIRCLE
  8
_1-7_
  6
CONTINUOUS
 62
    7
 10
206.09524720496171
 20
160.39032248591425
 40
0.1643557161898226
  0
CIRCLE
  8
_1-7_
  6
CONTINUOUS
 62
    7
 10
204.28735288486035
 20
158.25372910542438
 40
0.1643557161898226
  0
CIRCLE
  8
_1-7_
  6
CONTINUOUS
 62
    7
 10
207.24571866030379
 20
159.73289962115496
 40
0.1643557161898226
  0
CIRCLE
  8
_1-7_
  6
CONTINUOUS
 62
    7
 10
201.65769854179661
 20
160.39032248591425
 40
0.1643557161898226
  0
CIRCLE
  8
_1-7_
  6
CONTINUOUS
 62
    7
 10
201.65769854179661
 20
157.7606805148416
 40
0.1643557161898226
  0
CIRCLE
  8
_1-7_
  6
CONTINUOUS
 62
    7
 10
204.61606431724002
 20
159.89727389533147
 40
0.1643557161898226
  0
CIRCLE
  8
_1-7_
  6
CONTINUOUS
 62
    7
 10
194.73137539858504
 20
154.95257257169339
 40
0.1643557161898226
  0
CIRCLE
  8
_1-7_
  6
CONTINUOUS
 62
    7
 10
198.67586309917624
 20
155.93869449684118
 40
0.1643557161898226
  0
CIRCLE
  8
_1-7_
  6
CONTINUOUS
 62
    7
 10
196.86796877907489
 20
156.92481642198899
 40
0.1643557161898226
  0
CIRCLE
  8
_1-7_
  6
CONTINUOUS
 62
    7
 10
194.23831443601114
 20
155.93869449684118
 40
0.1643557161898226
  0
CIRCLE
  8
_1-7_
  6
CONTINUOUS
 62
    7
 10
197.19668021145455
 20
155.44564590625842
 40
0.1643557161898226
  0
CIRCLE
  8
_1-7_
  6
CONTINUOUS
 62
    7
 10
166.84280535065187
 20
143.2379474597671
 40
0.1643557161898226
  0
CIRCLE
  8
_1-7_
  6
CONTINUOUS
 62
    7
 10
163.39139098462567
 20
141.43005313966574
 40
0.1643557161898226
  0
CIRCLE
  8
_1-7_
  6
CONTINUOUS
 62
    7
 10
163.72009004501419
 20
140.6082807447122
 40
0.1643557161898226
  0
CIRCLE
  8
_1-7_
  6
CONTINUOUS
 62
    7
 10
159.77560853041854
 20
140.77265501888874
 40
0.1643557161898226
  0
CIRCLE
  8
_1-7_
  6
CONTINUOUS
 62
    7
 10
158.62513707507648
 20
139.2934597591759
 40
0.1643557161898226
  0
CIRCLE
  8
_1-7_
  6
CONTINUOUS
 62
    7
 10
166.51410629026336
 20
142.74488649719319
 40
0.1643557161898226
  0
CIRCLE
  8
_1-7_
  6
CONTINUOUS
 62
    7
 10
170.45859399085458
 20
143.73100842234101
 40
0.1643557161898226
  0
CIRCLE
  8
_1-7_
  6
CONTINUOUS
 62
    7
 10
168.65069967075323
 20
141.59441504185114
 40
0.1643557161898226
  0
CIRCLE
  8
_1-7_
  6
CONTINUOUS
 62
    7
 10
168.65069967075323
 20
144.71713034748882
 40
0.1643557161898226
  0
CIRCLE
  8
_1-7_
  6
CONTINUOUS
 62
    7
 10
171.60906544619664
 20
143.07358555758171
 40
0.1643557161898226
  0
CIRCLE
  8
_1-7_
  6
CONTINUOUS
 62
    7
 10
166.02104532768948
 20
143.73100842234101
 40
0.1643557161898226
  0
CIRCLE
  8
_1-7_
  6
CONTINUOUS
 62
    7
 10
168.97941110313286
 20
143.23795983175825
 40
0.1643557161898226
  0
CIRCLE
  8
_1-7_
  6
CONTINUOUS
 62
    7
 10
163.69190664921607
 20
139.34199508038577
 40
0.1643557161898226
  0
CIRCLE
  8
_1-7_
  6
CONTINUOUS
 62
    7
 10
170.36935481882122
 20
141.56780288892674
 40
0.1643557161898226
  0
CIRCLE
  8
_1-7_
  6
CONTINUOUS
 62
    7
 10
171.44939252865018
 20
142.31288131085452
 40
0.1643557161898226
  0
CIRCLE
  8
_1-7_
  6
CONTINUOUS
 62
    7
 10
160.09336456465104
 20
140.67716799133382
 40
0.1643557161898226
  0
CIRCLE
  8
_1-7_
  6
CONTINUOUS
 62
    7
 10
161.73689698256698
 20
142.32071278124093
 40
0.1643557161898226
  0
CIRCLE
  8
_1-7_
  6
CONTINUOUS
 62
    7
 10
165.0239618183989
 20
140.67716799133382
 40
0.1643557161898226
  0
CIRCLE
  8
_1-7_
  6
CONTINUOUS
 62
    7
 10
161.07948648979885
 20
142.32071278124093
 40
0.1643557161898226
  0
CIRCLE
  8
_1-7_
  6
CONTINUOUS
 62
    7
 10
163.54477893067721
 20
142.32071278124093
 40
0.1643557161898226
  0
CIRCLE
  8
_1-7_
  6
CONTINUOUS
 62
    7
 10
166.99620566869453
 20
143.7998832969715
 40
0.1643557161898226
  0
CIRCLE
  8
_1-7_
  6
CONTINUOUS
 62
    7
 10
170.94069336928573
 20
144.78600522211931
 40
0.1643557161898226
  0
CIRCLE
  8
_1-7_
  6
CONTINUOUS
 62
    7
 10
169.13279904918437
 20
142.64941184162944
 40
0.1643557161898226
  0
CIRCLE
  8
_1-7_
  6
CONTINUOUS
 62
    7
 10
172.09116482462781
 20
144.12858235736002
 40
0.1643557161898226
  0
CIRCLE
  8
_1-7_
  6
CONTINUOUS
 62
    7
 10
166.50314470612062
 20
144.78600522211931
 40
0.1643557161898226
  0
CIRCLE
  8
_1-7_
  6
CONTINUOUS
 62
    7
 10
166.50314470612062
 20
142.15636325104666
 40
0.1643557161898226
  0
CIRCLE
  8
_1-7_
  6
CONTINUOUS
 62
    7
 10
169.46151048156403
 20
144.29295663153653
 40
0.1643557161898226
  0
CIRCLE
  8
_1-7_
  6
CONTINUOUS
 62
    7
 10
159.57682156290906
 20
139.34825530789846
 40
0.1643557161898226
  0
CIRCLE
  8
_1-7_
  6
CONTINUOUS
 62
    7
 10
163.52130926350026
 20
140.33437723304624
 40
0.1643557161898226
  0
CIRCLE
  8
_1-7_
  6
CONTINUOUS
 62
    7
 10
161.7134149433989
 20
141.32049915819405
 40
0.1643557161898226
  0
CIRCLE
  8
_1-7_
  6
CONTINUOUS
 62
    7
 10
164.67178071884231
 20
139.67695436828694
 40
0.1643557161898226
  0
CIRCLE
  8
_1-7_
  6
CONTINUOUS
 62
    7
 10
159.08376060033515
 20
140.33437723304624
 40
0.1643557161898226
  0
CIRCLE
  8
_1-7_
  6
CONTINUOUS
 62
    7
 10
162.04212637577857
 20
139.84132864246348
 40
0.1643557161898226
  0
LINE
  8
_1-7_
  6
CONTINUOUS
 62
    7
 10
203.1257842573884
 20
156.26852515443102
 11
192.47401920541927
 21
118.57766063246629
  0
ENDSEC
  0
EOF
