  0
SECTION
  2
HEADER
  9
$ACADVER
  1
AC1009
  9
$INSBASE
 10
0
 20
0
 30
0
  9
$EXTMIN
 10
0
 20
0
  9
$EXTMAX
 10
420
 20
297
  9
$LIMMIN
 10
0
 20
0
  9
$LIMMAX
 10
420
 20
297
  9
$LTSCALE
 40
1
  0
ENDSEC
  0
SECTION
  2
TABLES
  0
TABLE
  2
LTYPE
 70
     9
  0
LTYPE
  2
CONTINUOUS
 70
    64
  3
実線
 72
    65
 73
     0
 40
0.0
  0
LTYPE
  2
DASHED1
 70
    64
  3
--  --  --  --  --  --  --  --  
 72
    65
 73
     2
 40
2.5
 49
1.25
 49
-1.25
  0
LTYPE
  2
DASHED2
 70
    64
  3
----    ----    ----    ----    
 72
    65
 73
     2
 40
5.0
 49
2.5
 49
-2.5
  0
LTYPE
  2
DASHED3
 70
    64
  3
------  ------  ------  ------  
 72
    65
 73
     2
 40
5.0
 49
3.75
 49
-1.25
  0
LTYPE
  2
CENTER1
 70
    64
  3
----- - ----- - ----- - ----- - 
 72
    65
 73
     4
 40
10.0
 49
6.25
 49
-1.25
 49
1.25
 49
-1.25
  0
LTYPE
  2
CENTER2
 70
    64
  3
----------  --  ----------  --  
 72
    65
 73
     4
 40
20.0
 49
12.5
 49
-2.5
 49
2.5
 49
-2.5
  0
LTYPE
  2
PHANTOM1
 70
    64
  3
--- - - --- - - --- - - --- - - 
 72
    65
 73
     6
 40
10.0
 49
3.25
 49
-1.25
 49
1.25
 49
-1.25
 49
1.25
 49
-1.25
  0
LTYPE
  2
PHANTOM2
 70
    64
  3
--------  -  -  --------  -  -  
 72
    65
 73
     6
 40
20.0
 49
10.0
 49
-2.5
 49
1.25
 49
-2.5
 49
1.25
 49
-2.5
  0
LTYPE
  2
DOT
 70
    64
  3
-   -   -   -   -   -   -   -   
 72
    65
 73
     2
 40
2.5
 49
0.625
 49
-1.875
  0
LTYPE
  2
DUMMY
 70
    64
  3
ダミー
 72
    65
 73
     0
 40
0.0
  0
LTYPE
  2
RAND1
 70
    64
  3
ランダム線1
 72
    65
 73
     4
 40
10.0
 49
1.0
 49
-2.0
 49
3.0
 49
-4.0
  0
LTYPE
  2
RAND2
 70
    64
  3
ランダム線2
 72
    65
 73
     4
 40
14.0
 49
2.0
 49
-3.0
 49
4.0
 49
-5.0
  0
LTYPE
  2
RAND3
 70
    64
  3
ランダム線3
 72
    65
 73
     4
 40
18.0
 49
3.0
 49
-4.0
 49
5.0
 49
-6.0
  0
LTYPE
  2
RAND4
 70
    64
  3
ランダム線4
 72
    65
 73
     4
 40
22.0
 49
4.0
 49
-5.0
 49
6.0
 49
-7.0
  0
LTYPE
  2
RAND5
 70
    64
  3
ランダム線5
 72
    65
 73
     4
 40
26.0
 49
5.0
 49
-6.0
 49
7.0
 49
-8.0
  0
LTYPE
  2
LONG1
 70
    64
  3
----------  --  ----------  --  
 72
    65
 73
     4
 40
40.0
 49
32.5
 49
-2.5
 49
2.5
 49
-2.5
  0
LTYPE
  2
LONG2
 70
    64
  3
--------  -  -  --------  -  -  
 72
    65
 73
     6
 40
40.0
 49
30.0
 49
-2.5
 49
1.25
 49
-2.5
 49
1.25
 49
-2.5
  0
LTYPE
  2
LONG3
 70
    64
  3
+++++++++++++++..+++++++++++++++
 72
    65
 73
     2
 40
40.0
 49
37.5
 49
-2.5
  0
LTYPE
  2
LONG4
 70
    64
  3
+++++++++++++++..+++++++++++++++
 72
    65
 73
     2
 40
80.0
 49
75.0
 49
-5.0
  0
LTYPE
  2
LONG5
 70
    64
  3
----------  --  ----------  --  
 72
    65
 73
     4
 40
60.0
 49
37.5
 49
-7.5
 49
7.5
 49
-7.5
  0
LTYPE
  2
dashed
 70
   64
  3
-------   -------------   ------
 72
   65
 73
    2
 40
7.5
 49
6
 49
-1.5
  0
LTYPE
  2
dashed_spaced
 70
   64
  3
----        --------        ----
 72
   65
 73
    2
 40
12
 49
6
 49
-6
  0
LTYPE
  2
long_dashed_dotted
 70
   64
  3
------------- --- --------------
 72
   65
 73
    4
 40
15.25
 49
12
 49
-1.5
 49
0.25
 49
-1.5
  0
LTYPE
  2
long_dashed_double-dotted
 70
   64
  3
----------- --- --- ------------
 72
   65
 73
    6
 40
17
 49
12
 49
-1.5
 49
0.25
 49
-1.5
 49
0.25
 49
-1.5
  0
LTYPE
  2
long_dashed_triplicate-dotted
 70
   64
  3
--------- --- --- --- ----------
 72
   65
 73
    8
 40
18.75
 49
12
 49
-1.5
 49
0.25
 49
-1.5
 49
0.25
 49
-1.5
 49
0.25
 49
-1.5
  0
LTYPE
  2
dotted
 70
   64
  3
   -       -       -       -    
 72
   65
 73
    2
 40
1.75
 49
0.25
 49
-1.5
  0
LTYPE
  2
chain
 70
   64
  3
-------------- -- --------------
 72
   65
 73
    4
 40
18.5
 49
12
 49
-1.5
 49
3.5
 49
-1.5
  0
LTYPE
  2
chain_double_dash
 70
   64
  3
------------ -- -- -------------
 72
   65
 73
    6
 40
23.5
 49
12
 49
-1.5
 49
3.5
 49
-1.5
 49
3.5
 49
-1.5
  0
LTYPE
  2
dashed_dotted
 70
   64
  3
-----------     -     ----------
 72
   65
 73
    4
 40
9.25
 49
6
 49
-1.5
 49
0.25
 49
-1.5
  0
LTYPE
  2
double-dashed_dotted
 70
   64
  3
------   -----------   -   -----
 72
   65
 73
    6
 40
16.75
 49
6
 49
-1.5
 49
6
 49
-1.5
 49
0.25
 49
-1.5
  0
LTYPE
  2
dashed_double-dotted
 70
   64
  3
---------    -    -    ---------
 72
   65
 73
    6
 40
11
 49
6
 49
-1.5
 49
0.25
 49
-1.5
 49
0.25
 49
-1.5
  0
LTYPE
  2
double-dashed_double-dotted
 70
   64
  3
-----   ---------   -   -   ----
 72
   65
 73
    8
 40
18.5
 49
6
 49
-1.5
 49
6
 49
-1.5
 49
0.25
 49
-1.5
 49
0.25
 49
-1.5
  0
LTYPE
  2
dashed_triplicate-dotted
 70
   64
  3
-------    -    -    -    ------
 72
   65
 73
    8
 40
12.75
 49
6
 49
-1.5
 49
0.25
 49
-1.5
 49
0.25
 49
-1.5
 49
0.25
 49
-1.5
  0
LTYPE
  2
double-dashed_triplicate-dotted
 70
   64
  3
-----  ---------  -  -  -  -----
 72
   65
 73
   10
 40
20.25
 49
6
 49
-1.5
 49
6
 49
-1.5
 49
0.25
 49
-1.5
 49
0.25
 49
-1.5
 49
0.25
 49
-1.5
  0
LTYPE
  2
undefined
 70
   64
  3
--------------------------------
 72
   65
 73
    0
 40
0
  0
LTYPE
  2
DOT_17
 70
   64
  3
--             ---             -
 72
   65
 73
    2
 40
5
 49
1
 49
-4
  0
LTYPE
  2
DASHED
 70
   64
  3
---          ------          ---
 72
   65
 73
    2
 40
5
 49
2
 49
-3
  0
LTYPE
  2
DASHED2_19
 70
   64
  3
---          ------          ---
 72
   65
 73
    2
 40
10
 49
4
 49
-6
  0
LTYPE
  2
CENTER
 70
   64
  3
----------    ----    ----------
 72
   65
 73
    4
 40
9
 49
6
 49
-1
 49
1
 49
-1
  0
LTYPE
  2
CENTER2_21
 70
   64
  3
----------    ----    ----------
 72
   65
 73
    4
 40
18
 49
12
 49
-2
 49
2
 49
-2
  0
LTYPE
  2
PHANTOM
 70
   64
  3
---------   ---   ---   --------
 72
   65
 73
    6
 40
10
 49
5
 49
-1
 49
1
 49
-1
 49
1
 49
-1
  0
LTYPE
  2
PHANTOM2_23
 70
   64
  3
------    ----    ----    ------
 72
   65
 73
    6
 40
16
 49
6
 49
-2
 49
2
 49
-2
 49
2
 49
-2
  0
LTYPE
  2
HIDDEN
 70
   64
  3
--             ---             -
 72
   65
 73
    2
 40
2.5
 49
0.5
 49
-2
  0
ENDTAB
  0
TABLE
  2
STYLE
  5
3
100
AcDbSymbolTable
 70
     1
  0
STYLE
  5
10
100
AcDbSymbolTableRecord
100
AcDbTextStyleTableRecord
  2
STANDARD
 70
     0
 40
0.0
 41
1.0
 50
0.0
 71
     0
 42
0.2
  3
txt
  4
bigfont.shx
  0
STYLE
  5
26
100
AcDbSymbolTableRecord
100
AcDbTextStyleTableRecord
  2
TATEGAKI
 70
    68
 40
0.0
 41
1.0
 50
0.0
 71
     0
 42
1.0
  3
txt
  4
bigfont.shx
  0
ENDTAB
  0
TABLE
  2
LAYER
 70
    7
  0
LAYER
  2
_0-0_
 70
   64
 62
    7
  6
CONTINUOUS
  0
LAYER
  2
_0-1_
 70
   64
 62
    7
  6
CONTINUOUS
  0
LAYER
  2
_1-0_
 70
   64
 62
    7
  6
CONTINUOUS
  0
LAYER
  2
_1-1_
 70
   64
 62
    7
  6
CONTINUOUS
  0
LAYER
  2
_1-2_
 70
   64
 62
    7
  6
CONTINUOUS
  0
LAYER
  2
_1-3_
 70
   64
 62
    7
  6
CONTINUOUS
  0
LAYER
  2
ADD_LINE
 70
   64
 62
    7
  6
CONTINUOUS
  0
ENDTAB
  0
ENDSEC
  0
SECTION
  2
BLOCKS
  0
ENDSEC
  0
SECTION
  2
ENTITIES
  0
LINE
  8
_0-0_
  6
CONTINUOUS
 62
    5
 10
12.432428308435391
 20
278.51351351351354
 11
412.43244892842063
 21
278.51351351351354
  0
LINE
  8
_0-0_
  6
CONTINUOUS
 62
    5
 10
412.43244892842063
 20
28.513511451515001
 11
12.432415936444272
 21
28.513511451515001
  0
LINE
  8
_0-0_
  6
CONTINUOUS
 62
    5
 10
377.43248192039698
 20
8.5135135135135158
 11
377.43248192039698
 21
28.513511451515001
  0
LINE
  8
_0-0_
  6
CONTINUOUS
 62
    5
 10
142.70271507469386
 20
28.513511451515001
 11
142.70271507469386
 21
8.5135135135135158
  0
LINE
  8
_0-0_
  6
CONTINUOUS
 62
    5
 10
220.54054054054055
 20
28.513511451515001
 11
220.54054054054055
 21
8.5135135135135158
  0
LINE
  8
_0-0_
  6
CONTINUOUS
 62
    5
 10
142.70271507469386
 20
18.513512482514244
 11
220.54054054054055
 21
18.513512482514244
  0
LINE
  8
_0-0_
  6
CONTINUOUS
 62
    5
 10
402.16218690614443
 20
24.324325870823216
 11
389.59456985061234
 21
11.756758303255651
  0
LINE
  8
_1-0_
  6
CONTINUOUS
 62
    7
 10
136.33641011006125
 20
171.2594728212099
 11
136.33641011006125
 21
170.65946836729307
  0
LINE
  8
_1-0_
  6
CONTINUOUS
 62
    7
 10
136.33641011006125
 20
170.65946836729307
 11
136.33641011006125
 21
171.2594728212099
  0
LINE
  8
_1-0_
  6
CONTINUOUS
 62
    7
 10
136.33641011006125
 20
171.2594728212099
 11
141.13640862542229
 21
171.2594728212099
  0
LINE
  8
_1-0_
  6
CONTINUOUS
 62
    7
 10
141.13640862542229
 20
171.2594728212099
 11
141.13640862542229
 21
170.65946836729307
  0
LINE
  8
_1-0_
  6
CONTINUOUS
 62
    7
 10
141.13640862542229
 20
170.65946836729307
 11
136.33641011006125
 21
170.65946836729307
  0
LINE
  8
_1-0_
  6
CONTINUOUS
 62
    7
 10
136.33641011006125
 20
171.2594728212099
 11
141.13640862542229
 21
170.65946836729307
  0
LINE
  8
_1-0_
  6
CONTINUOUS
 62
    7
 10
183.14594990498313
 20
170.65946836729307
 11
183.14594990498313
 21
171.2594728212099
  0
LINE
  8
_1-0_
  6
CONTINUOUS
 62
    7
 10
183.14594990498313
 20
171.2594728212099
 11
187.94594842034419
 21
171.2594728212099
  0
LINE
  8
_1-0_
  6
CONTINUOUS
 62
    7
 10
187.94594842034419
 20
171.2594728212099
 11
187.94594842034419
 21
170.65946836729307
  0
LINE
  8
_1-0_
  6
CONTINUOUS
 62
    7
 10
187.94594842034419
 20
170.65946836729307
 11
183.14594990498313
 21
170.65946836729307
  0
LINE
  8
_1-0_
  6
CONTINUOUS
 62
    7
 10
183.14594990498313
 20
171.2594728212099
 11
187.94594842034419
 21
170.65946836729307
  0
LINE
  8
_1-0_
  6
CONTINUOUS
 62
    7
 10
243.7459419869088
 20
170.65946836729307
 11
243.7459419869088
 21
171.2594728212099
  0
LINE
  8
_1-0_
  6
CONTINUOUS
 62
    7
 10
243.7459419869088
 20
171.2594728212099
 11
248.54592813027872
 21
171.2594728212099
  0
LINE
  8
_1-0_
  6
CONTINUOUS
 62
    7
 10
248.54592813027872
 20
171.2594728212099
 11
248.54592813027872
 21
170.65946836729307
  0
LINE
  8
_1-0_
  6
CONTINUOUS
 62
    7
 10
248.54592813027872
 20
170.65946836729307
 11
243.7459419869088
 21
170.65946836729307
  0
LINE
  8
_1-0_
  6
CONTINUOUS
 62
    7
 10
243.7459419869088
 20
171.2594728212099
 11
248.54592813027872
 21
170.65946836729307
  0
LINE
  8
_1-0_
  6
CONTINUOUS
 62
    7
 10
304.34593406883448
 20
170.65946836729307
 11
304.34593406883448
 21
171.2594728212099
  0
LINE
  8
_1-0_
  6
CONTINUOUS
 62
    7
 10
304.34593406883448
 20
171.2594728212099
 11
309.14592021220443
 21
171.2594728212099
  0
LINE
  8
_1-0_
  6
CONTINUOUS
 62
    7
 10
309.14592021220443
 20
171.2594728212099
 11
309.14592021220443
 21
170.65946836729307
  0
LINE
  8
_1-0_
  6
CONTINUOUS
 62
    7
 10
309.14592021220443
 20
170.65946836729307
 11
304.34593406883448
 21
170.65946836729307
  0
LINE
  8
_1-0_
  6
CONTINUOUS
 62
    7
 10
304.34593406883448
 20
171.2594728212099
 11
309.14592021220443
 21
170.65946836729307
  0
LINE
  8
_1-0_
  6
CONTINUOUS
 62
    7
 10
364.94592615076016
 20
170.65946836729307
 11
364.94592615076016
 21
171.2594728212099
  0
LINE
  8
_1-0_
  6
CONTINUOUS
 62
    7
 10
364.94592615076016
 20
171.2594728212099
 11
369.74591229413011
 21
171.2594728212099
  0
LINE
  8
_1-0_
  6
CONTINUOUS
 62
    7
 10
369.74591229413011
 20
171.2594728212099
 11
369.74591229413011
 21
170.65946836729307
  0
LINE
  8
_1-0_
  6
CONTINUOUS
 62
    7
 10
369.74591229413011
 20
170.65946836729307
 11
364.94592615076016
 21
170.65946836729307
  0
LINE
  8
_1-0_
  6
CONTINUOUS
 62
    7
 10
364.94592615076016
 20
171.2594728212099
 11
369.74591229413011
 21
170.65946836729307
  0
LINE
  8
_1-1_
  6
CONTINUOUS
 62
    3
 10
116.94594924514358
 20
176.8594690271326
 11
116.94594924514358
 21
174.25947034681167
  0
LINE
  8
_1-1_
  6
CONTINUOUS
 62
    3
 10
124.74594528610642
 20
179.85947892472552
 11
124.74594528610642
 21
176.25947694520693
  0
LINE
  8
_1-1_
  6
CONTINUOUS
 62
    3
 10
185.94592944995779
 20
179.85947892472552
 11
185.94592944995779
 21
177.45947348104943
  0
LINE
  8
_1-1_
  6
CONTINUOUS
 62
    3
 10
116.94594924514358
 20
174.25947034681167
 11
174.94591790276607
 21
174.25947034681167
  0
LINE
  8
_1-1_
  6
CONTINUOUS
 62
    3
 10
124.74594528610642
 20
179.85947892472552
 11
125.94595419394004
 21
179.85947892472552
  0
LINE
  8
_1-1_
  6
CONTINUOUS
 62
    3
 10
176.08372043918919
 20
179.85947892472552
 11
185.94592944995779
 21
179.85947892472552
  0
LINE
  8
_1-1_
  6
CONTINUOUS
 62
    3
 10
177.94592780035896
 20
177.45947348104943
 11
174.94591790276607
 21
174.25947034681167
  0
LINE
  8
_1-1_
  6
CONTINUOUS
 62
    3
 10
184.34593406883448
 20
177.45947348104943
 11
184.34593406883448
 21
177.05947463576859
  0
LINE
  8
_1-1_
  6
CONTINUOUS
 62
    3
 10
183.54593637827281
 20
177.45947348104943
 11
183.54593637827281
 21
177.05947463576859
  0
LINE
  8
_1-1_
  6
CONTINUOUS
 62
    3
 10
181.94594099714951
 20
177.45947348104943
 11
181.94594099714951
 21
177.05947463576859
  0
LINE
  8
_1-1_
  6
CONTINUOUS
 62
    3
 10
181.14594330658784
 20
177.45947348104943
 11
181.14594330658784
 21
177.05947463576859
  0
LINE
  8
_1-1_
  6
CONTINUOUS
 62
    3
 10
177.94592780035896
 20
177.45947348104943
 11
181.14594330658784
 21
177.45947348104943
  0
LINE
  8
_1-1_
  6
CONTINUOUS
 62
    3
 10
181.94594099714951
 20
177.45947348104943
 11
183.54593637827281
 21
177.45947348104943
  0
LINE
  8
_1-1_
  6
CONTINUOUS
 62
    3
 10
184.34593406883448
 20
177.45947348104943
 11
185.94592944995779
 21
177.45947348104943
  0
LINE
  8
_1-1_
  6
CONTINUOUS
 62
    3
 10
181.14594330658784
 20
177.05947463576859
 11
181.94594099714951
 21
177.05947463576859
  0
LINE
  8
_1-1_
  6
CONTINUOUS
 62
    3
 10
183.54593637827281
 20
177.05947463576859
 11
184.34593406883448
 21
177.05947463576859
  0
LINE
  8
_1-1_
  6
CONTINUOUS
 62
    3
 10
129.54595617345862
 20
177.25946787241344
 11
173.34592252164273
 21
177.25946787241344
  0
LINE
  8
_1-1_
  6
CONTINUOUS
 62
    3
 10
118.14593340899494
 20
176.8594690271326
 11
118.43001906936233
 21
176.25947694520693
  0
LINE
  8
_1-1_
  6
CONTINUOUS
 62
    3
 10
116.94594924514358
 20
176.8594690271326
 11
118.14593340899494
 21
176.8594690271326
  0
LINE
  8
_1-1_
  6
CONTINUOUS
 62
    3
 10
118.43001906936233
 20
176.25947694520693
 11
124.74594528610642
 21
176.25947694520693
  0
LINE
  8
_1-1_
  6
CONTINUOUS
 62
    3
 10
178.14593340899495
 20
176.8594690271326
 11
178.14593340899495
 21
174.25947034681167
  0
LINE
  8
_1-1_
  6
CONTINUOUS
 62
    3
 10
185.94592944995779
 20
179.85947892472552
 11
185.94592944995779
 21
176.25947694520693
  0
LINE
  8
_1-1_
  6
CONTINUOUS
 62
    3
 10
247.14591361380914
 20
179.85947892472552
 11
247.14591361380914
 21
177.45947348104943
  0
LINE
  8
_1-1_
  6
CONTINUOUS
 62
    3
 10
178.14593340899495
 20
174.25947034681167
 11
236.14592681059966
 21
174.25947034681167
  0
LINE
  8
_1-1_
  6
CONTINUOUS
 62
    3
 10
185.94592944995779
 20
179.85947892472552
 11
187.14595072978253
 21
179.85947892472552
  0
LINE
  8
_1-1_
  6
CONTINUOUS
 62
    3
 10
237.28370460304055
 20
179.85947892472552
 11
247.14591361380914
 21
179.85947892472552
  0
LINE
  8
_1-1_
  6
CONTINUOUS
 62
    3
 10
239.14591196421031
 20
177.45947348104943
 11
236.14592681059966
 21
174.25947034681167
  0
LINE
  8
_1-1_
  6
CONTINUOUS
 62
    3
 10
245.54591823268584
 20
177.45947348104943
 11
245.54591823268584
 21
177.05947463576859
  0
LINE
  8
_1-1_
  6
CONTINUOUS
 62
    3
 10
244.74592054212417
 20
177.45947348104943
 11
244.74592054212417
 21
177.05947463576859
  0
LINE
  8
_1-1_
  6
CONTINUOUS
 62
    3
 10
243.14592516100086
 20
177.45947348104943
 11
243.14592516100086
 21
177.05947463576859
  0
LINE
  8
_1-1_
  6
CONTINUOUS
 62
    3
 10
242.34592747043919
 20
177.45947348104943
 11
242.34592747043919
 21
177.05947463576859
  0
LINE
  8
_1-1_
  6
CONTINUOUS
 62
    3
 10
239.14591196421031
 20
177.45947348104943
 11
242.34592747043919
 21
177.45947348104943
  0
LINE
  8
_1-1_
  6
CONTINUOUS
 62
    3
 10
243.14592516100086
 20
177.45947348104943
 11
244.74592054212417
 21
177.45947348104943
  0
LINE
  8
_1-1_
  6
CONTINUOUS
 62
    3
 10
245.54591823268584
 20
177.45947348104943
 11
247.14591361380914
 21
177.45947348104943
  0
LINE
  8
_1-1_
  6
CONTINUOUS
 62
    3
 10
242.34592747043919
 20
177.05947463576859
 11
243.14592516100086
 21
177.05947463576859
  0
LINE
  8
_1-1_
  6
CONTINUOUS
 62
    3
 10
244.74592054212417
 20
177.05947463576859
 11
245.54591823268584
 21
177.05947463576859
  0
LINE
  8
_1-1_
  6
CONTINUOUS
 62
    3
 10
190.74594033730997
 20
177.25946787241344
 11
234.54590668549409
 21
177.25946787241344
  0
LINE
  8
_1-1_
  6
CONTINUOUS
 62
    3
 10
179.3459175728463
 20
176.8594690271326
 11
179.6300032332137
 21
176.25947694520693
  0
LINE
  8
_1-1_
  6
CONTINUOUS
 62
    3
 10
178.14593340899495
 20
176.8594690271326
 11
179.3459175728463
 21
176.8594690271326
  0
LINE
  8
_1-1_
  6
CONTINUOUS
 62
    3
 10
179.6300032332137
 20
176.25947694520693
 11
185.94592944995779
 21
176.25947694520693
  0
LINE
  8
_1-1_
  6
CONTINUOUS
 62
    3
 10
239.3459175728463
 20
176.8594690271326
 11
239.3459175728463
 21
174.25947034681167
  0
LINE
  8
_1-1_
  6
CONTINUOUS
 62
    3
 10
247.14591361380914
 20
179.85947892472552
 11
247.14591361380914
 21
176.25947694520693
  0
LINE
  8
_1-1_
  6
CONTINUOUS
 62
    3
 10
308.34589777766047
 20
179.85947892472552
 11
308.34589777766047
 21
177.45947348104943
  0
LINE
  8
_1-0_
  6
CONTINUOUS
 62
    3
 10
239.3459175728463
 20
174.25947034681167
 11
297.34591097445104
 21
174.25947034681167
  0
LINE
  8
_1-1_
  6
CONTINUOUS
 62
    3
 10
247.14591361380914
 20
179.85947892472552
 11
248.345947265625
 21
179.85947892472552
  0
LINE
  8
_1-1_
  6
CONTINUOUS
 62
    3
 10
298.48371351087417
 20
179.85947892472552
 11
308.34589777766047
 21
179.85947892472552
  0
LINE
  8
_1-1_
  6
CONTINUOUS
 62
    3
 10
300.34592087204396
 20
177.45947348104943
 11
297.34591097445104
 21
174.25947034681167
  0
LINE
  8
_1-1_
  6
CONTINUOUS
 62
    3
 10
306.74590239653719
 20
177.45947348104943
 11
306.74590239653719
 21
177.05947463576859
  0
LINE
  8
_1-1_
  6
CONTINUOUS
 62
    3
 10
305.94592944995776
 20
177.45947348104943
 11
305.94592944995776
 21
177.05947463576859
  0
LINE
  8
_1-1_
  6
CONTINUOUS
 62
    3
 10
304.34593406883448
 20
177.45947348104943
 11
304.34593406883448
 21
177.05947463576859
  0
LINE
  8
_1-1_
  6
CONTINUOUS
 62
    3
 10
303.54591163429058
 20
177.45947348104943
 11
303.54591163429058
 21
177.05947463576859
  0
LINE
  8
_1-1_
  6
CONTINUOUS
 62
    3
 10
300.34592087204396
 20
177.45947348104943
 11
303.54591163429058
 21
177.45947348104943
  0
LINE
  8
_1-1_
  6
CONTINUOUS
 62
    3
 10
304.34593406883448
 20
177.45947348104943
 11
305.94592944995776
 21
177.45947348104943
  0
LINE
  8
_1-1_
  6
CONTINUOUS
 62
    3
 10
306.74590239653719
 20
177.45947348104943
 11
308.34589777766047
 21
177.45947348104943
  0
LINE
  8
_1-1_
  6
CONTINUOUS
 62
    3
 10
303.54591163429058
 20
177.05947463576859
 11
304.34593406883448
 21
177.05947463576859
  0
LINE
  8
_1-1_
  6
CONTINUOUS
 62
    3
 10
305.94592944995776
 20
177.05947463576859
 11
306.74590239653719
 21
177.05947463576859
  0
LINE
  8
_1-1_
  6
CONTINUOUS
 62
    3
 10
251.94594924514359
 20
177.25946787241344
 11
295.74591559332771
 21
177.25946787241344
  0
LINE
  8
_1-1_
  6
CONTINUOUS
 62
    3
 10
240.54590173669766
 20
176.8594690271326
 11
240.83001214104732
 21
176.25947694520693
  0
LINE
  8
_1-1_
  6
CONTINUOUS
 62
    3
 10
239.3459175728463
 20
176.8594690271326
 11
240.54590173669766
 21
176.8594690271326
  0
LINE
  8
_1-1_
  6
CONTINUOUS
 62
    3
 10
240.83001214104732
 20
176.25947694520693
 11
247.14591361380914
 21
176.25947694520693
  0
LINE
  8
_1-1_
  6
CONTINUOUS
 62
    3
 10
300.5459264806799
 20
176.8594690271326
 11
300.5459264806799
 21
174.25947034681167
  0
LINE
  8
_1-1_
  6
CONTINUOUS
 62
    3
 10
308.34592252164276
 20
179.85947892472552
 11
308.34592252164276
 21
176.25947694520693
  0
LINE
  8
_1-1_
  6
CONTINUOUS
 62
    3
 10
369.54590668549412
 20
179.85947892472552
 11
369.54590668549412
 21
177.45947348104943
  0
LINE
  8
_1-0_
  6
CONTINUOUS
 62
    3
 10
300.5459264806799
 20
174.25947034681167
 11
358.5458951383024
 21
174.25947034681167
  0
LINE
  8
_1-1_
  6
CONTINUOUS
 62
    3
 10
308.34592252164276
 20
179.85947892472552
 11
309.54593142947635
 21
179.85947892472552
  0
LINE
  8
_1-1_
  6
CONTINUOUS
 62
    3
 10
359.68372241870782
 20
179.85947892472552
 11
369.54590668549412
 21
179.85947892472552
  0
LINE
  8
_1-1_
  6
CONTINUOUS
 62
    3
 10
361.54590503589532
 20
177.45947348104943
 11
358.5458951383024
 21
174.25947034681167
  0
LINE
  8
_1-1_
  6
CONTINUOUS
 62
    3
 10
367.94591130437078
 20
177.45947348104943
 11
367.94591130437078
 21
177.05947463576859
  0
LINE
  8
_1-1_
  6
CONTINUOUS
 62
    3
 10
367.14591361380911
 20
177.45947348104943
 11
367.14591361380911
 21
177.05947463576859
  0
LINE
  8
_1-1_
  6
CONTINUOUS
 62
    3
 10
365.54591823268584
 20
177.45947348104943
 11
365.54591823268584
 21
177.05947463576859
  0
LINE
  8
_1-1_
  6
CONTINUOUS
 62
    3
 10
364.74592054212417
 20
177.45947348104943
 11
364.74592054212417
 21
177.05947463576859
  0
LINE
  8
_1-1_
  6
CONTINUOUS
 62
    3
 10
361.54590503589532
 20
177.45947348104943
 11
364.74592054212417
 21
177.45947348104943
  0
LINE
  8
_1-1_
  6
CONTINUOUS
 62
    3
 10
365.54591823268584
 20
177.45947348104943
 11
367.14591361380911
 21
177.45947348104943
  0
LINE
  8
_1-1_
  6
CONTINUOUS
 62
    3
 10
367.94591130437078
 20
177.45947348104943
 11
369.54590668549412
 21
177.45947348104943
  0
LINE
  8
_1-1_
  6
CONTINUOUS
 62
    3
 10
364.74592054212417
 20
177.05947463576859
 11
365.54591823268584
 21
177.05947463576859
  0
LINE
  8
_1-1_
  6
CONTINUOUS
 62
    3
 10
367.14591361380911
 20
177.05947463576859
 11
367.94591130437078
 21
177.05947463576859
  0
LINE
  8
_1-1_
  6
CONTINUOUS
 62
    3
 10
313.14593340899495
 20
177.25946787241344
 11
356.94589975717906
 21
177.25946787241344
  0
LINE
  8
_1-1_
  6
CONTINUOUS
 62
    3
 10
301.74591064453125
 20
176.8594690271326
 11
302.02999630489865
 21
176.25947694520693
  0
LINE
  8
_1-1_
  6
CONTINUOUS
 62
    3
 10
300.5459264806799
 20
176.8594690271326
 11
301.74591064453125
 21
176.8594690271326
  0
LINE
  8
_1-1_
  6
CONTINUOUS
 62
    3
 10
302.02999630489865
 20
176.25947694520693
 11
308.34592252164276
 21
176.25947694520693
  0
LINE
  8
_1-1_
  6
CONTINUOUS
 62
    3
 10
361.74593538851354
 20
176.8594690271326
 11
361.74593538851354
 21
174.25947034681167
  0
LINE
  8
_1-1_
  6
CONTINUOUS
 62
    3
 10
369.54593142947635
 20
179.85947892472552
 11
369.54593142947635
 21
176.25947694520693
  0
LINE
  8
_1-1_
  6
CONTINUOUS
 62
    3
 10
369.54593142947635
 20
179.85947892472552
 11
370.74596508129224
 21
179.85947892472552
  0
LINE
  8
_1-1_
  6
CONTINUOUS
 62
    3
 10
362.9459195523649
 20
176.8594690271326
 11
363.23000521273229
 21
176.25947694520693
  0
LINE
  8
_1-1_
  6
CONTINUOUS
 62
    3
 10
361.74593538851354
 20
176.8594690271326
 11
362.9459195523649
 21
176.8594690271326
  0
LINE
  8
_1-1_
  6
CONTINUOUS
 62
    3
 10
363.23000521273229
 20
176.25947694520693
 11
369.54593142947635
 21
176.25947694520693
  0
LINE
  8
_1-1_
  6
CONTINUOUS
 62
    7
 10
358.5458951383024
 20
174.25947034681167
 11
361.74593538851354
 21
174.25947034681167
  0
LINE
  8
_1-0_
  6
CONTINUOUS
 62
    3
 10
300.5459264806799
 20
174.25947034681167
 11
358.5458951383024
 21
174.25947034681167
  0
LINE
  8
_1-1_
  6
CONTINUOUS
 62
    7
 10
297.34591097445104
 20
174.25947034681167
 11
300.5459264806799
 21
174.25947034681167
  0
LINE
  8
_1-0_
  6
CONTINUOUS
 62
    3
 10
239.3459175728463
 20
174.25947034681167
 11
297.34591097445104
 21
174.25947034681167
  0
LINE
  8
_1-1_
  6
CONTINUOUS
 62
    7
 10
236.14592681059966
 20
174.25947034681167
 11
239.3459175728463
 21
174.25947034681167
  0
LINE
  8
_1-0_
  6
CONTINUOUS
 62
    3
 10
122.5459454510663
 20
174.25947034681167
 11
174.94591790276607
 21
174.25947034681167
  0
LINE
  8
_1-0_
  6
CONTINUOUS
 62
    3
 10
178.14593340899495
 20
174.25947034681167
 11
236.14592681059966
 21
174.25947034681167
  0
LINE
  8
_1-1_
  6
CONTINUOUS
 62
    7
 10
178.14593340899495
 20
174.25947034681167
 11
174.94591790276607
 21
174.25947034681167
  0
LINE
  8
_0-1_
  6
CONTINUOUS
 62
    7
 10
260.25470630542651
 20
125.27581292229731
 11
278.91891891891896
 21
125.27581292229731
  0
LINE
  8
_0-1_
  6
CONTINUOUS
 62
    7
 10
262.80249518317146
 20
118.27581457189612
 11
278.91891891891896
 21
118.27581457189612
  0
LINE
  8
_0-1_
  6
CONTINUOUS
 62
    7
 10
265.35030880489865
 20
111.27581622149494
 11
278.91891891891896
 21
111.27581622149494
  0
LINE
  8
_0-1_
  6
CONTINUOUS
 62
    7
 10
267.89809768264359
 20
104.27581787109375
 11
278.91891891891896
 21
104.27581787109375
  0
LINE
  8
_0-1_
  6
CONTINUOUS
 62
    7
 10
270.44588656038854
 20
97.275813334697006
 11
278.91891891891896
 21
97.275813334697006
  0
LINE
  8
_1-0_
  6
CONTINUOUS
 62
    3
 10
361.74593538851354
 20
174.25947034681167
 11
381.08108108108109
 21
174.25947034681167
  0
LINE
  8
_1-1_
  6
CONTINUOUS
 62
    3
 10
374.34594231682854
 20
177.25946787241344
 11
381.08108108108109
 21
177.25946787241344
  0
LINE
  8
_1-0_
  6
CONTINUOUS
 62
    3
 10
361.74593538851354
 20
174.25947034681167
 11
381.08108108108109
 21
174.25947034681167
  0
LINE
  8
_1-0_
  6
DASHED1
 62
    3
 10
116.25048250765414
 20
170.05946391337628
 11
381.08108108108109
 21
170.05946391337628
  0
LINE
  8
_1-1_
  6
CONTINUOUS
 62
    7
 10
136.33641011006125
 20
174.25947034681167
 11
136.33641011006125
 21
170.65946836729307
  0
LINE
  8
_1-0_
  6
CONTINUOUS
 62
    7
 10
136.33641011006125
 20
171.2594728212099
 11
381.08108108108109
 21
171.2594728212099
  0
LINE
  8
_1-0_
  6
CONTINUOUS
 62
    7
 10
136.33641011006125
 20
170.65946836729307
 11
381.08108108108109
 21
170.65946836729307
  0
LINE
  8
_1-1_
  6
CONTINUOUS
 62
    2
 10
134.94594677074537
 20
170.40738904798354
 11
116.50439288165119
 21
170.40738904798354
  0
LINE
  8
_1-1_
  6
CONTINUOUS
 62
    2
 10
116.50439288165119
 20
170.40738904798354
 11
116.50439288165119
 21
200.40738904798354
  0
LINE
  8
_1-1_
  6
CONTINUOUS
 62
    2
 10
116.50439288165119
 20
200.40738904798354
 11
117.03324601456926
 21
197.20264744114232
  0
LINE
  8
_1-1_
  6
CONTINUOUS
 62
    2
 10
134.94594677074537
 20
173.6549996040963
 11
132.21929601720862
 21
173.6549996040963
  0
LINE
  8
_1-1_
  6
CONTINUOUS
 62
    2
 10
134.94594677074537
 20
173.6549996040963
 11
134.94594677074537
 21
170.40738904798354
  0
LINE
  8
_1-1_
  6
DASHED1
 62
    3
 10
116.25048250765414
 20
170.05946391337628
 11
116.07486209353885
 21
170.05946391337628
  0
LINE
  8
_1-0_
  6
CONTINUOUS
 62
    7
 10
115.74595270930111
 20
169.45945945945948
 11
381.08108108108109
 21
169.45945945945948
  0
LINE
  8
_1-1_
  6
CONTINUOUS
 62
    2
 10
138.22565027185388
 20
182.85947645032729
 11
138.22565027185388
 21
180.32871143237966
  0
LINE
  8
_1-2_
  6
CONTINUOUS
 62
    7
 10
129.54595617345862
 20
177.25946787241344
 11
129.54595617345862
 21
182.85947645032729
  0
LINE
  8
_1-2_
  6
CONTINUOUS
 62
    7
 10
134.54596029745568
 20
177.25946787241344
 11
134.54596029745568
 21
182.85947645032729
  0
LINE
  8
_1-2_
  6
CONTINUOUS
 62
    7
 10
129.54595617345862
 20
177.62116303315034
 11
129.90765133419552
 21
177.25946787241344
  0
LINE
  8
_1-2_
  6
CONTINUOUS
 62
    7
 10
129.54595617345862
 20
178.46968367293076
 11
130.75615960198479
 21
177.25946787241344
  0
LINE
  8
_1-2_
  6
CONTINUOUS
 62
    7
 10
129.54595617345862
 20
179.31819194072003
 11
131.60468024176521
 21
177.25946787241344
  0
LINE
  8
_1-2_
  6
CONTINUOUS
 62
    7
 10
129.54595617345862
 20
180.16671258050044
 11
132.45320088154563
 21
177.25946787241344
  0
LINE
  8
_1-2_
  6
CONTINUOUS
 62
    7
 10
129.54595617345862
 20
181.01522084828972
 11
133.30172152132602
 21
177.25946787241344
  0
LINE
  8
_1-2_
  6
CONTINUOUS
 62
    7
 10
129.54595617345862
 20
181.8637414880701
 11
134.15022978911529
 21
177.25946787241344
  0
LINE
  8
_1-2_
  6
CONTINUOUS
 62
    7
 10
129.54595617345862
 20
182.71226212785052
 11
134.54596029745568
 21
177.71225800385346
  0
LINE
  8
_1-2_
  6
CONTINUOUS
 62
    7
 10
130.24726249076227
 20
182.85947645032729
 11
134.54596029745568
 21
178.56076627164273
  0
LINE
  8
_1-2_
  6
CONTINUOUS
 62
    7
 10
131.09578313054266
 20
182.85947645032729
 11
134.54596029745568
 21
179.40928691142315
  0
LINE
  8
_1-2_
  6
CONTINUOUS
 62
    7
 10
131.94429139833193
 20
182.85947645032729
 11
134.54596029745568
 21
180.25780755120357
  0
LINE
  8
_1-2_
  6
CONTINUOUS
 62
    7
 10
132.7927996661212
 20
182.85947645032729
 11
134.54596029745568
 21
181.10632819098396
  0
LINE
  8
_1-2_
  6
CONTINUOUS
 62
    7
 10
133.64132030590162
 20
182.85947645032729
 11
134.54596029745568
 21
181.95484883076438
  0
LINE
  8
_1-2_
  6
CONTINUOUS
 62
    7
 10
134.489840945682
 20
182.85947645032729
 11
134.54596029745568
 21
182.80335709855365
  0
LINE
  8
_1-2_
  6
CONTINUOUS
 62
    7
 10
133.98453171188768
 20
177.25946787241344
 11
134.54596029745568
 21
177.82089645798143
  0
LINE
  8
_1-2_
  6
CONTINUOUS
 62
    7
 10
133.13599870011615
 20
177.25946787241344
 11
134.54596029745568
 21
178.66944184174409
  0
LINE
  8
_1-2_
  6
CONTINUOUS
 62
    7
 10
132.28746568834461
 20
177.25946787241344
 11
134.54596029745568
 21
179.51796248152451
  0
LINE
  8
_1-2_
  6
CONTINUOUS
 62
    7
 10
131.43893267657307
 20
177.25946787241344
 11
134.54596029745568
 21
180.3664831213049
  0
LINE
  8
_1-2_
  6
CONTINUOUS
 62
    7
 10
130.59041203679266
 20
177.25946787241344
 11
134.54596029745568
 21
181.21502850506758
  0
LINE
  8
_1-2_
  6
CONTINUOUS
 62
    7
 10
129.74186665303
 20
177.25946787241344
 11
134.54596029745568
 21
182.063549144848
  0
LINE
  8
_1-2_
  6
CONTINUOUS
 62
    7
 10
129.54595617345862
 20
177.91207803262247
 11
134.49335459116344
 21
182.85947645032729
  0
LINE
  8
_1-2_
  6
CONTINUOUS
 62
    7
 10
129.54595617345862
 20
178.76059867240289
 11
133.6448215793919
 21
182.85947645032729
  0
LINE
  8
_1-2_
  6
CONTINUOUS
 62
    7
 10
129.54595617345862
 20
179.60914405616555
 11
132.79630093961148
 21
182.85947645032729
  0
LINE
  8
_1-2_
  6
CONTINUOUS
 62
    7
 10
129.54595617345862
 20
180.45766469594597
 11
131.94775555584883
 21
182.85947645032729
  0
LINE
  8
_1-2_
  6
CONTINUOUS
 62
    7
 10
129.54595617345862
 20
181.3061977077175
 11
131.09923491606841
 21
182.85947645032729
  0
LINE
  8
_1-2_
  6
CONTINUOUS
 62
    7
 10
129.54595617345862
 20
182.15473071948904
 11
130.25071427628802
 21
182.85947645032729
  0
LINE
  8
_0-1_
  6
CONTINUOUS
 62
    7
 10
125.94595419394004
 20
182.85947645032729
 11
143.63689938107052
 21
231.46495922191724
  0
LINE
  8
_0-1_
  6
CONTINUOUS
 62
    7
 10
132.83053423907307
 20
180.20270270270271
 11
144.84117662584461
 21
213.20167335304055
  0
LINE
  8
_1-3_
  6
CONTINUOUS
 62
    7
 10
115.74595270930111
 20
120.51398199957771
 11
155.74594858530406
 21
120.51398199957771
  0
LINE
  8
_1-3_
  6
CONTINUOUS
 62
    7
 10
115.74595270930111
 20
131.33567603858742
 11
115.74595270930111
 21
120.51398199957771
  0
LINE
  8
_1-3_
  6
CONTINUOUS
 62
    7
 10
155.74594858530406
 20
131.33567603858742
 11
155.74594858530406
 21
120.51398199957771
  0
LINE
  8
_1-3_
  6
CONTINUOUS
 62
    7
 10
155.74594858530406
 20
103.99666863518793
 11
151.88432848131336
 21
101.76716160129857
  0
LINE
  8
_1-3_
  6
CONTINUOUS
 62
    7
 10
155.74594858530406
 20
103.99666863518793
 11
151.88432848131336
 21
106.22617566907729
  0
LINE
  8
_1-3_
  6
CONTINUOUS
 62
    7
 10
110.53146774704392
 20
103.99666863518793
 11
155.74594858530406
 21
103.99666863518793
  0
LINE
  8
_1-3_
  6
CONTINUOUS
 62
    7
 10
155.74594858530406
 20
120.51398199957771
 11
155.74594858530406
 21
103.99666863518793
  0
LINE
  8
_1-3_
  6
CONTINUOUS
 62
    7
 10
98.918918918918919
 20
119.30230630410685
 11
95.274965440904779
 21
121.9663918984903
  0
LINE
  8
_1-3_
  6
CONTINUOUS
 62
    7
 10
133.91662185256547
 20
170.22704253325591
 11
144.1756872228674
 21
198.41359318913641
  0
LINE
  8
_1-3_
  6
CONTINUOUS
 62
    7
 10
143.63689938107052
 20
231.46495922191724
 11
147.56756756756758
 21
231.46495922191724
  0
LINE
  8
_1-3_
  6
CONTINUOUS
 62
    7
 10
144.84117662584461
 20
213.20167335304055
 11
149.18918918918919
 21
213.20167335304055
  0
LINE
  8
_1-3_
  6
CONTINUOUS
 62
    7
 10
144.1756872228674
 20
198.41359318913641
 11
147.56756756756758
 21
198.41359318913641
  0
LINE
  8
_1-3_
  6
CONTINUOUS
 62
    7
 10
83.513513513513516
 20
119.30230630410685
 11
98.918918918918919
 21
119.30230630410685
  0
LINE
  8
_1-1_
  6
CONTINUOUS
 62
    2
 10
119.20147457638303
 20
182.85947645032729
 11
138.22565027185388
 21
182.85947645032729
  0
LINE
  8
_1-2_
  6
CONTINUOUS
 62
    7
 10
241.36648642050255
 20
177.17077306798987
 11
270.44588656038854
 21
97.275813334697006
  0
LINE
  8
_1-0_
  6
CONTINUOUS
 62
    7
 10
107.02702702702703
 20
135.45945863466005
 11
381.08108108108109
 21
135.45945863466005
  0
LINE
  8
_1-0_
  6
CONTINUOUS
 62
    7
 10
187.23912419499578
 20
159.45946358345651
 11
163.23911924619932
 21
135.45945863466005
  0
LINE
  8
_1-0_
  6
CONTINUOUS
 62
    7
 10
192.8959944441512
 20
159.45946358345651
 11
168.89598949535474
 21
135.45945863466005
  0
LINE
  8
_1-0_
  6
CONTINUOUS
 62
    7
 10
190.06755931957349
 20
159.45946358345651
 11
166.06755437077703
 21
135.45945863466005
  0
LINE
  8
_1-0_
  6
CONTINUOUS
 62
    7
 10
345.94593769795188
 20
159.45946358345651
 11
321.94593274915542
 21
135.45945863466005
  0
LINE
  8
_1-0_
  6
CONTINUOUS
 62
    7
 10
348.77437282252959
 20
159.45946358345651
 11
324.77436787373313
 21
135.45945863466005
  0
LINE
  8
_1-0_
  6
CONTINUOUS
 62
    7
 10
351.60280794710729
 20
159.45946358345651
 11
327.60280299831084
 21
135.45945863466005
  0
LINE
  8
_1-0_
  6
CONTINUOUS
 62
    7
 10
115.74595270930111
 20
159.45946358345651
 11
381.08108108108109
 21
159.45946358345651
  0
LINE
  8
_0-0_
  6
CONTINUOUS
 62
    5
 10
412.43244892842063
 20
8.5135135135135158
 11
12.432428308435391
 21
8.5135135135135158
  0
LINE
  8
_1-0_
  6
CONTINUOUS
 62
    7
 10
106.97714315878379
 20
241.03387781091641
 11
119.74595353410051
 21
253.80268818623313
  0
LINE
  8
_1-0_
  6
CONTINUOUS
 62
    7
 10
106.97714315878379
 20
238.2054426863387
 11
119.74595353410051
 21
250.97425306165542
  0
LINE
  8
_1-0_
  6
CONTINUOUS
 62
    7
 10
106.97714315878379
 20
235.37698281777872
 11
119.74595353410051
 21
248.14581793707771
  0
LINE
  8
ADD_LINE
  6
DOT
 62
    7
 10
106.97714315878379
 20
264.85607250316724
 11
106.97714315878379
 21
160.14874432538008
  0
LINE
  8
ADD_LINE
  6
DOT
 62
    4
 10
123.36007195550043
 20
230.40740141997466
 11
66.662861592060835
 21
230.40740141997466
  0
LINE
  8
_1-0_
  6
CONTINUOUS
 62
    2
 10
119.20147457638303
 20
225.87027060019005
 11
119.20147457638303
 21
182.85947645032729
  0
LINE
  8
_1-0_
  6
CONTINUOUS
 62
    2
 10
119.20147457638303
 20
225.87027060019005
 11
116.55414065799198
 21
225.87027060019005
  0
LINE
  8
_1-0_
  6
CONTINUOUS
 62
    2
 10
119.20147457638303
 20
229.87025905299834
 11
116.55414065799198
 21
229.87025905299834
  0
LINE
  8
_1-0_
  6
CONTINUOUS
 62
    2
 10
116.55414065799198
 20
229.87025905299834
 11
116.55414065799198
 21
225.87027060019005
  0
LINE
  8
_1-1_
  6
DASHED1
 62
    3
 10
116.07486209353885
 20
170.05946391337628
 11
116.07486209353885
 21
230.40740141997466
  0
LINE
  8
_1-0_
  6
CONTINUOUS
 62
    7
 10
115.74595270930111
 20
230.40740141997466
 11
119.74595353410051
 21
230.40740141997466
  0
LINE
  8
_1-0_
  6
CONTINUOUS
 62
    7
 10
118.59248805690457
 20
225.87027060019005
 11
118.93469733160896
 21
226.21247987489443
  0
LINE
  8
_1-0_
  6
CONTINUOUS
 62
    7
 10
117.17827049461572
 20
225.87027060019005
 11
118.50415204022383
 21
227.19615214579815
  0
LINE
  8
_1-0_
  6
CONTINUOUS
 62
    7
 10
116.55414065799198
 20
226.66032120988177
 11
118.50545109929266
 21
228.61163165118245
  0
LINE
  8
_1-0_
  6
CONTINUOUS
 62
    7
 10
116.55414065799198
 20
228.07453877217063
 11
118.34986093881969
 21
229.87025905299834
  0
LINE
  8
_1-0_
  6
CONTINUOUS
 62
    7
 10
116.55414065799198
 20
229.48875633445948
 11
116.93564337653083
 21
229.87025905299834
  0
LINE
  8
_1-0_
  6
CONTINUOUS
 62
    7
 10
121.82658839870145
 20
227.43923702755492
 11
117.58934227195947
 21
227.43923702755492
  0
LINE
  8
_1-0_
  6
CONTINUOUS
 62
    7
 10
115.74595270930111
 20
159.45946358345651
 11
115.74595270930111
 21
230.40740141997466
  0
LINE
  8
_1-0_
  6
CONTINUOUS
 62
    7
 10
119.74595353410051
 20
230.40740141997466
 11
119.74595353410051
 21
264.85607250316724
  0
LINE
  8
_1-0_
  6
DASHED1
 62
    7
 10
116.07486209353885
 20
230.40740141997466
 11
116.07486209353885
 21
264.85607250316724
  0
LINE
  8
_1-0_
  6
CONTINUOUS
 62
    7
 10
121.82658839870145
 20
227.43923702755492
 11
127.92160034179687
 21
244.18517241606844
  0
LINE
  8
_1-0_
  6
CONTINUOUS
 62
    7
 10
127.92160034179687
 20
244.18517241606844
 11
130.45339223500847
 21
244.18517241606844
  0
LINE
  8
_1-3_
  6
CONTINUOUS
 62
    7
 10
100.5314656850454
 20
230.40740141997466
 11
98.847087138407943
 21
227.48993744721284
  0
LINE
  8
_1-3_
  6
CONTINUOUS
 62
    7
 10
100.5314656850454
 20
230.40740141997466
 11
102.21584423168287
 21
227.48993744721284
  0
LINE
  8
_1-0_
  6
CONTINUOUS
 62
    7
 10
105.72628536739866
 20
230.40740141997466
 11
96.54910113360431
 21
230.40740141997466
  0
LINE
  8
_1-3_
  6
CONTINUOUS
 62
    7
 10
100.5314656850454
 20
113.99666451119089
 11
100.5314656850454
 21
230.40740141997466
  0
LINE
  8
_1-3_
  6
CONTINUOUS
 62
    7
 10
83.318029867636199
 20
170.40738904798354
 11
83.318029867636199
 21
200.40738904798354
  0
LINE
  8
_1-3_
  6
CONTINUOUS
 62
    7
 10
107.83783783783784
 20
170.40738904798354
 11
83.318029867636199
 21
170.40738904798354
  0
LINE
  8
_1-3_
  6
CONTINUOUS
 62
    7
 10
107.83783783783784
 20
200.40738904798354
 11
83.318029867636199
 21
200.40738904798354
  0
LINE
  8
_1-3_
  6
CONTINUOUS
 62
    7
 10
73.560432227882188
 20
170.40738904798354
 11
107.83783783783784
 21
170.40738904798354
  0
LINE
  8
_1-3_
  6
CONTINUOUS
 62
    7
 10
73.560432227882188
 20
230.40740141997466
 11
107.83783783783784
 21
230.40740141997466
  0
LINE
  8
_1-3_
  6
CONTINUOUS
 62
    7
 10
73.560432227882188
 20
170.40738904798354
 11
73.560432227882188
 21
230.40740141997466
  0
ARC
  8
_1-1_
  6
CONTINUOUS
 62
    3
 10
129.7920845650338
 20
181.39254183382602
 40
4.1404008865356445
 50
201.73239135742187
 51
266.59201049804687
  0
ARC
  8
_1-1_
  6
CONTINUOUS
 62
    3
 10
173.34129539695948
 20
180.00581483583193
 40
2.7463450302948824
 50
270.09652709960937
 51
356.94560241699224
  0
ARC
  8
_1-1_
  6
CONTINUOUS
 62
    3
 10
190.99206872888516
 20
181.39254183382602
 40
4.1404008865356445
 50
201.73239135742187
 51
266.59201049804687
  0
ARC
  8
_1-1_
  6
CONTINUOUS
 62
    3
 10
234.54127956081084
 20
180.00581483583193
 40
2.7463450302948824
 50
270.09652709960937
 51
356.94560241699224
  0
ARC
  8
_1-1_
  6
CONTINUOUS
 62
    3
 10
252.19205289273651
 20
181.39254183382602
 40
4.1404008865356445
 50
201.73239135742187
 51
266.59201049804687
  0
ARC
  8
_1-1_
  6
CONTINUOUS
 62
    3
 10
295.74126372466219
 20
180.00581483583193
 40
2.7463450302948824
 50
270.09652709960937
 51
356.94560241699224
  0
ARC
  8
_1-1_
  6
CONTINUOUS
 62
    3
 10
313.3920618005701
 20
181.39254183382602
 40
4.1404008865356445
 50
201.73239135742187
 51
266.59201049804687
  0
ARC
  8
_1-1_
  6
CONTINUOUS
 62
    3
 10
356.94127263249578
 20
180.00581483583193
 40
2.7463450302948824
 50
270.09652709960937
 51
356.94560241699224
  0
ARC
  8
_1-1_
  6
CONTINUOUS
 62
    3
 10
374.59207070840375
 20
181.39254183382602
 40
4.1404008865356445
 50
201.73239135742187
 51
266.59201049804687
  0
ARC
  8
_1-3_
  6
CONTINUOUS
 62
    7
 10
110.53146774704392
 20
113.99666451119089
 40
9.9999997422501856
 50
180
 51
270
  0
CIRCLE
  8
_1-0_
  6
CONTINUOUS
 62
    7
 10
119.01922277502112
 20
165.63507904877534
 40
0.1323198466687589
  0
CIRCLE
  8
_1-0_
  6
CONTINUOUS
 62
    7
 10
119.67018746040964
 20
166.75947034681167
 40
0.1323198466687589
  0
CIRCLE
  8
_1-0_
  6
CONTINUOUS
 62
    7
 10
116.82962778452281
 20
167.11453412030195
 40
0.1323198466687589
  0
CIRCLE
  8
_1-0_
  6
CONTINUOUS
 62
    7
 10
118.3682580896326
 20
165.51672858160896
 40
0.1323198466687589
  0
CIRCLE
  8
_1-0_
  6
CONTINUOUS
 62
    7
 10
117.83565624340162
 20
165.04330196896115
 40
0.1323198466687589
  0
CIRCLE
  8
_1-0_
  6
CONTINUOUS
 62
    7
 10
117.89484384897594
 20
166.99618365313557
 40
0.1323198466687589
  0
CIRCLE
  8
_1-0_
  6
CONTINUOUS
 62
    7
 10
118.07236954972551
 20
167.82467403927365
 40
0.1323198466687589
  0
CIRCLE
  8
_1-0_
  6
CONTINUOUS
 62
    7
 10
120.38032737938134
 20
168.17973781276393
 40
0.1323198466687589
  0
CIRCLE
  8
_1-0_
  6
CONTINUOUS
 62
    7
 10
121.50470630542652
 20
168.00219974002323
 40
0.1323198466687589
  0
CIRCLE
  8
_1-0_
  6
CONTINUOUS
 62
    7
 10
122.68827283704604
 20
165.45754097603464
 40
0.1323198466687589
  0
CIRCLE
  8
_1-0_
  6
CONTINUOUS
 62
    7
 10
120.97210445919553
 20
165.51672858160896
 40
0.1323198466687589
  0
CIRCLE
  8
_1-0_
  6
CONTINUOUS
 62
    7
 10
119.96607600031673
 20
165.45754097603464
 40
0.1323198466687589
  0
CIRCLE
  8
_1-0_
  6
CONTINUOUS
 62
    7
 10
119.90690076673354
 20
164.56987535631336
 40
0.1323198466687589
  0
CIRCLE
  8
_1-0_
  6
CONTINUOUS
 62
    7
 10
123.99018983583193
 20
164.21479921083193
 40
0.1323198466687589
  0
CIRCLE
  8
_1-0_
  6
CONTINUOUS
 62
    7
 10
125.52882014094173
 20
164.33316204998945
 40
0.1323198466687589
  0
CIRCLE
  8
_1-0_
  6
CONTINUOUS
 62
    7
 10
129.43458350929055
 20
164.45151251715583
 40
0.1323198466687589
  0
CIRCLE
  8
_1-0_
  6
CONTINUOUS
 62
    7
 10
131.80170420053844
 20
164.92493912980365
 40
0.1323198466687589
  0
CIRCLE
  8
_1-0_
  6
CONTINUOUS
 62
    7
 10
134.28718773094386
 20
165.10247720254435
 40
0.1323198466687589
  0
CIRCLE
  8
_1-0_
  6
CONTINUOUS
 62
    7
 10
124.16771553658151
 20
167.05535888671875
 40
0.1323198466687589
  0
CIRCLE
  8
_1-0_
  6
CONTINUOUS
 62
    7
 10
125.52882014094173
 20
165.99014282226562
 40
0.1323198466687589
  0
CIRCLE
  8
_1-0_
  6
CONTINUOUS
 62
    7
 10
124.64114214922931
 20
165.81261712151607
 40
0.1323198466687589
  0
CIRCLE
  8
_1-0_
  6
CONTINUOUS
 62
    7
 10
127.48170182511613
 20
165.57590381519216
 40
0.1323198466687589
  0
CIRCLE
  8
_1-0_
  6
CONTINUOUS
 62
    7
 10
128.25101697767104
 20
166.10850566142315
 40
0.1323198466687589
  0
CIRCLE
  8
_1-0_
  6
CONTINUOUS
 62
    7
 10
127.12662567963471
 20
167.23288458746833
 40
0.1323198466687589
  0
CIRCLE
  8
_1-0_
  6
CONTINUOUS
 62
    7
 10
126.23896005991344
 20
167.88384927285685
 40
0.1323198466687589
  0
CIRCLE
  8
_1-0_
  6
CONTINUOUS
 62
    7
 10
134.10964965820312
 20
167.76548643369932
 40
0.1323198466687589
  0
CIRCLE
  8
_1-0_
  6
CONTINUOUS
 62
    7
 10
130.97321381440034
 20
167.94302450644005
 40
0.1323198466687589
  0
CIRCLE
  8
_1-0_
  6
CONTINUOUS
 62
    7
 10
131.03238904798354
 20
166.46356943491344
 40
0.1323198466687589
  0
CIRCLE
  8
_1-0_
  6
CONTINUOUS
 62
    7
 10
129.43457113729943
 20
166.52275704048776
 40
0.1323198466687589
  0
CIRCLE
  8
_1-0_
  6
CONTINUOUS
 62
    7
 10
129.02033213022594
 20
167.88384927285685
 40
0.1323198466687589
  0
CIRCLE
  8
_1-0_
  6
CONTINUOUS
 62
    7
 10
133.10362119932432
 20
167.64713596653294
 40
0.1323198466687589
  0
CIRCLE
  8
_1-0_
  6
CONTINUOUS
 62
    7
 10
135.58910472972974
 20
166.75947034681167
 40
0.1323198466687589
  0
CIRCLE
  8
_1-0_
  6
CONTINUOUS
 62
    7
 10
133.99129919103675
 20
166.04933042783995
 40
0.1323198466687589
  0
CIRCLE
  8
_1-0_
  6
CONTINUOUS
 62
    7
 10
132.92608312658362
 20
164.39233728357266
 40
0.1323198466687589
  0
CIRCLE
  8
_1-0_
  6
CONTINUOUS
 62
    7
 10
135.47074189057221
 20
164.21479921083193
 40
0.1323198466687589
  0
CIRCLE
  8
_1-0_
  6
CONTINUOUS
 62
    7
 10
137.12773503483953
 20
164.21479921083193
 40
0.1323198466687589
  0
CIRCLE
  8
_1-0_
  6
CONTINUOUS
 62
    7
 10
139.73158140440245
 20
164.62905058989654
 40
0.1323198466687589
  0
CIRCLE
  8
_1-0_
  6
CONTINUOUS
 62
    7
 10
142.03952686206716
 20
164.56987535631336
 40
0.1323198466687589
  0
CIRCLE
  8
_1-0_
  6
CONTINUOUS
 62
    7
 10
141.15184887035474
 20
165.10247720254435
 40
0.1323198466687589
  0
CIRCLE
  8
_1-0_
  6
CONTINUOUS
 62
    7
 10
138.96226625184755
 20
164.98411436338682
 40
0.1323198466687589
  0
CIRCLE
  8
_1-0_
  6
CONTINUOUS
 62
    7
 10
138.19295109929266
 20
164.98411436338682
 40
0.1323198466687589
  0
CIRCLE
  8
_1-0_
  6
CONTINUOUS
 62
    7
 10
138.66636533994932
 20
166.16768089500636
 40
0.1323198466687589
  0
CIRCLE
  8
_1-0_
  6
CONTINUOUS
 62
    7
 10
138.78472817910685
 20
167.23288458746833
 40
0.1323198466687589
  0
CIRCLE
  8
_1-0_
  6
CONTINUOUS
 62
    7
 10
144.26514909074115
 20
166.21621621621622
 40
0.1323198466687589
  0
CIRCLE
  8
_1-0_
  6
CONTINUOUS
 62
    7
 10
152.37325719884925
 20
167.83783783783784
 40
0.1323198466687589
  0
CIRCLE
  8
_1-0_
  6
CONTINUOUS
 62
    7
 10
146.62088755014781
 20
167.67896909971495
 40
0.1323198466687589
  0
CIRCLE
  8
_1-0_
  6
CONTINUOUS
 62
    7
 10
142.70927222999367
 20
167.49270877322635
 40
0.1323198466687589
  0
CIRCLE
  8
_1-0_
  6
CONTINUOUS
 62
    7
 10
140.47406170819258
 20
167.67896909971495
 40
0.1323198466687589
  0
CIRCLE
  8
_1-0_
  6
CONTINUOUS
 62
    7
 10
139.5427229597762
 20
167.1201633762669
 40
0.1323198466687589
  0
CIRCLE
  8
_1-0_
  6
CONTINUOUS
 62
    7
 10
148.11101965002112
 20
165.07122555294552
 40
0.1323198466687589
  0
CIRCLE
  8
_1-0_
  6
CONTINUOUS
 62
    7
 10
146.80714787663641
 20
164.51241982949747
 40
0.1323198466687589
  0
CIRCLE
  8
_1-0_
  6
CONTINUOUS
 62
    7
 10
148.29729234850086
 20
165.81629160288219
 40
0.1323198466687589
  0
CIRCLE
  8
_1-0_
  6
CONTINUOUS
 62
    7
 10
149.0423583984375
 20
167.30643607474664
 40
0.1323198466687589
  0
CIRCLE
  8
_1-0_
  6
CONTINUOUS
 62
    7
 10
150.34623017182221
 20
166.56137002480997
 40
0.1323198466687589
  0
CIRCLE
  8
_1-0_
  6
CONTINUOUS
 62
    7
 10
150.53250287030195
 20
165.07122555294552
 40
0.1323198466687589
  0
CIRCLE
  8
_1-0_
  6
CONTINUOUS
 62
    7
 10
152.58144069362331
 20
165.07122555294552
 40
0.1323198466687589
  0
CIRCLE
  8
_1-0_
  6
CONTINUOUS
 62
    7
 10
155.74798996384081
 20
165.07122555294552
 40
0.1323198466687589
  0
CIRCLE
  8
_1-0_
  6
CONTINUOUS
 62
    7
 10
158.72825416358742
 20
166.00256430136193
 40
0.1323198466687589
  0
CIRCLE
  8
_1-0_
  6
CONTINUOUS
 62
    7
 10
156.86558903874578
 20
166.56137002480997
 40
0.1323198466687589
  0
CIRCLE
  8
_1-0_
  6
CONTINUOUS
 62
    7
 10
159.47333258551521
 20
167.67896909971495
 40
0.1323198466687589
  0
CIRCLE
  8
_1-0_
  6
CONTINUOUS
 62
    7
 10
163.19867520718961
 20
167.1201633762669
 40
0.1323198466687589
  0
CIRCLE
  8
_1-0_
  6
CONTINUOUS
 62
    7
 10
161.33599771035685
 20
165.44375857791385
 40
0.1323198466687589
  0
CIRCLE
  8
_1-0_
  6
CONTINUOUS
 62
    7
 10
160.96347705737966
 20
164.69869252797722
 40
0.1323198466687589
  0
CIRCLE
  8
_1-0_
  6
CONTINUOUS
 62
    7
 10
157.42439476219386
 20
164.51241982949747
 40
0.1323198466687589
  0
CIRCLE
  8
_1-0_
  6
CONTINUOUS
 62
    7
 10
163.94374125712628
 20
165.07122555294552
 40
0.1323198466687589
  0
CIRCLE
  8
_1-0_
  6
CONTINUOUS
 62
    7
 10
167.48282355231208
 20
165.25748587943414
 40
0.1323198466687589
  0
CIRCLE
  8
_1-0_
  6
CONTINUOUS
 62
    7
 10
170.27683979756125
 20
165.44375857791385
 40
0.1323198466687589
  0
CIRCLE
  8
_1-0_
  6
CONTINUOUS
 62
    7
 10
174.37471544420399
 20
165.63003127639359
 40
0.1323198466687589
  0
CIRCLE
  8
_1-0_
  6
CONTINUOUS
 62
    7
 10
171.39445124445734
 20
166.37509732633023
 40
0.1323198466687589
  0
CIRCLE
  8
_1-0_
  6
CONTINUOUS
 62
    7
 10
168.78670769768794
 20
166.93390304977831
 40
0.1323198466687589
  0
CIRCLE
  8
_1-0_
  6
CONTINUOUS
 62
    7
 10
165.80641875395904
 20
166.93390304977831
 40
0.1323198466687589
  0
CIRCLE
  8
_1-0_
  6
CONTINUOUS
 62
    7
 10
164.50255935256547
 20
167.67896909971495
 40
0.1323198466687589
  0
CIRCLE
  8
_1-0_
  6
CONTINUOUS
 62
    7
 10
168.78670769768794
 20
168.05150212468328
 40
0.1323198466687589
  0
CIRCLE
  8
_1-0_
  6
CONTINUOUS
 62
    7
 10
174.00219479122677
 20
167.86522942620357
 40
0.1323198466687589
  0
CIRCLE
  8
_1-0_
  6
CONTINUOUS
 62
    7
 10
173.07085604281039
 20
164.69869252797722
 40
0.1323198466687589
  0
CIRCLE
  8
_1-0_
  6
CONTINUOUS
 62
    7
 10
172.69831064585094
 20
164.51241982949747
 40
0.1323198466687589
  0
CIRCLE
  8
_1-0_
  6
CONTINUOUS
 62
    7
 10
167.29656322582349
 20
165.44375857791385
 40
0.1323198466687589
  0
CIRCLE
  8
_1-0_
  6
CONTINUOUS
 62
    7
 10
162.45360915725297
 20
166.37509732633023
 40
0.1323198466687589
  0
CIRCLE
  8
_1-0_
  6
CONTINUOUS
 62
    7
 10
154.81665121542443
 20
166.93390304977831
 40
0.1323198466687589
  0
CIRCLE
  8
_1-0_
  6
CONTINUOUS
 62
    7
 10
152.95397371859164
 20
167.30643607474664
 40
0.1323198466687589
  0
CIRCLE
  8
_1-0_
  6
CONTINUOUS
 62
    7
 10
148.48355267498945
 20
166.00256430136193
 40
0.1323198466687589
  0
CIRCLE
  8
_1-0_
  6
CONTINUOUS
 62
    7
 10
150.53250287030195
 20
165.63003127639359
 40
0.1323198466687589
  0
CIRCLE
  8
_1-0_
  6
CONTINUOUS
 62
    7
 10
145.68954880173143
 20
166.00256430136193
 40
0.1323198466687589
  0
CIRCLE
  8
_1-0_
  6
CONTINUOUS
 62
    7
 10
143.64061097841005
 20
165.81629160288219
 40
0.1323198466687589
  0
CIRCLE
  8
_1-0_
  6
CONTINUOUS
 62
    7
 10
142.89554492847341
 20
165.63003127639359
 40
0.1323198466687589
  0
CIRCLE
  8
_1-0_
  6
CONTINUOUS
 62
    7
 10
137.68005783493456
 20
166.74763035129857
 40
0.1323198466687589
  0
CIRCLE
  8
_1-0_
  6
CONTINUOUS
 62
    7
 10
135.63110763962206
 20
167.67896909971495
 40
0.1323198466687589
  0
CIRCLE
  8
_1-0_
  6
CONTINUOUS
 62
    7
 10
138.23885118639149
 20
168.23777482316302
 40
0.1323198466687589
  0
CIRCLE
  8
_1-0_
  6
CONTINUOUS
 62
    7
 10
144.19940432986698
 20
168.61030784813136
 40
0.1323198466687589
  0
CIRCLE
  8
_1-0_
  6
CONTINUOUS
 62
    7
 10
147.55221392657307
 20
168.23777482316302
 40
0.1323198466687589
  0
CIRCLE
  8
_1-0_
  6
CONTINUOUS
 62
    7
 10
152.95397371859164
 20
168.05150212468328
 40
0.1323198466687589
  0
CIRCLE
  8
_1-0_
  6
CONTINUOUS
 62
    7
 10
157.98318811365075
 20
168.42403514965162
 40
0.1323198466687589
  0
CIRCLE
  8
_1-0_
  6
CONTINUOUS
 62
    7
 10
159.6595929120038
 20
168.23777482316302
 40
0.1323198466687589
  0
CIRCLE
  8
_1-0_
  6
CONTINUOUS
 62
    7
 10
161.14973738386826
 20
167.30643607474664
 40
0.1323198466687589
  0
CIRCLE
  8
_1-0_
  6
CONTINUOUS
 62
    7
 10
164.13001395560602
 20
166.93390304977831
 40
0.1323198466687589
  0
CIRCLE
  8
_1-0_
  6
CONTINUOUS
 62
    7
 10
165.99269145243878
 20
166.37509732633023
 40
0.1323198466687589
  0
CIRCLE
  8
_1-0_
  6
CONTINUOUS
 62
    7
 10
168.04162927576016
 20
166.56137002480997
 40
0.1323198466687589
  0
CIRCLE
  8
_1-0_
  6
CONTINUOUS
 62
    7
 10
165.80641875395904
 20
164.69869252797722
 40
0.1323198466687589
  0
CIRCLE
  8
_1-0_
  6
CONTINUOUS
 62
    7
 10
166.17896415091852
 20
167.67896909971495
 40
0.1323198466687589
  0
CIRCLE
  8
_1-0_
  6
CONTINUOUS
 62
    7
 10
171.20817854597763
 20
168.42403514965162
 40
0.1323198466687589
  0
CIRCLE
  8
_1-0_
  6
CONTINUOUS
 62
    7
 10
170.83563314901818
 20
167.30643607474664
 40
0.1323198466687589
  0
CIRCLE
  8
_1-0_
  6
CONTINUOUS
 62
    7
 10
170.27683979756125
 20
165.07122555294552
 40
0.1323198466687589
  0
CIRCLE
  8
_1-0_
  6
CONTINUOUS
 62
    7
 10
173.81592209274706
 20
165.44375857791385
 40
0.1323198466687589
  0
CIRCLE
  8
_1-0_
  6
CONTINUOUS
 62
    7
 10
176.38956843195737
 20
165.63507904877534
 40
0.1323198466687589
  0
CIRCLE
  8
_1-0_
  6
CONTINUOUS
 62
    7
 10
177.04053311734586
 20
166.75947034681167
 40
0.1323198466687589
  0
CIRCLE
  8
_1-0_
  6
CONTINUOUS
 62
    7
 10
174.19997344145904
 20
167.11453412030195
 40
0.1323198466687589
  0
CIRCLE
  8
_1-0_
  6
CONTINUOUS
 62
    7
 10
175.73860374656886
 20
165.51672858160896
 40
0.1323198466687589
  0
CIRCLE
  8
_1-0_
  6
CONTINUOUS
 62
    7
 10
175.20600190033784
 20
165.04330196896115
 40
0.1323198466687589
  0
CIRCLE
  8
_1-0_
  6
CONTINUOUS
 62
    7
 10
175.26518950591216
 20
166.99618365313557
 40
0.1323198466687589
  0
CIRCLE
  8
_1-0_
  6
CONTINUOUS
 62
    7
 10
175.44271520666175
 20
167.82467403927365
 40
0.1323198466687589
  0
CIRCLE
  8
_1-0_
  6
CONTINUOUS
 62
    7
 10
177.75067303631758
 20
168.17973781276393
 40
0.1323198466687589
  0
CIRCLE
  8
_1-0_
  6
CONTINUOUS
 62
    7
 10
178.87505196236276
 20
168.00219974002323
 40
0.1323198466687589
  0
CIRCLE
  8
_1-0_
  6
CONTINUOUS
 62
    7
 10
180.05861849398227
 20
165.45754097603464
 40
0.1323198466687589
  0
CIRCLE
  8
_1-0_
  6
CONTINUOUS
 62
    7
 10
178.34245011613177
 20
165.51672858160896
 40
0.1323198466687589
  0
CIRCLE
  8
_1-0_
  6
CONTINUOUS
 62
    7
 10
177.33642165725297
 20
165.45754097603464
 40
0.1323198466687589
  0
CIRCLE
  8
_1-0_
  6
CONTINUOUS
 62
    7
 10
177.27724642366977
 20
164.56987535631336
 40
0.1323198466687589
  0
CIRCLE
  8
_1-0_
  6
CONTINUOUS
 62
    7
 10
181.36053549276818
 20
164.21479921083193
 40
0.1323198466687589
  0
CIRCLE
  8
_1-0_
  6
CONTINUOUS
 62
    7
 10
182.89916579787797
 20
164.33316204998945
 40
0.1323198466687589
  0
CIRCLE
  8
_1-0_
  6
CONTINUOUS
 62
    7
 10
186.80492916622677
 20
164.45151251715583
 40
0.1323198466687589
  0
CIRCLE
  8
_1-0_
  6
CONTINUOUS
 62
    7
 10
189.17204985747466
 20
164.92493912980365
 40
0.1323198466687589
  0
CIRCLE
  8
_1-0_
  6
CONTINUOUS
 62
    7
 10
191.65753338788008
 20
165.10247720254435
 40
0.1323198466687589
  0
CIRCLE
  8
_1-0_
  6
CONTINUOUS
 62
    7
 10
181.53806119351773
 20
167.05535888671875
 40
0.1323198466687589
  0
CIRCLE
  8
_1-0_
  6
CONTINUOUS
 62
    7
 10
182.89916579787797
 20
165.99014282226562
 40
0.1323198466687589
  0
CIRCLE
  8
_1-0_
  6
CONTINUOUS
 62
    7
 10
182.01148780616555
 20
165.81261712151607
 40
0.1323198466687589
  0
CIRCLE
  8
_1-0_
  6
CONTINUOUS
 62
    7
 10
184.85204748205237
 20
165.57590381519216
 40
0.1323198466687589
  0
CIRCLE
  8
_1-0_
  6
CONTINUOUS
 62
    7
 10
185.62136263460727
 20
166.10850566142315
 40
0.1323198466687589
  0
CIRCLE
  8
_1-0_
  6
CONTINUOUS
 62
    7
 10
184.49697133657097
 20
167.23288458746833
 40
0.1323198466687589
  0
CIRCLE
  8
_1-0_
  6
CONTINUOUS
 62
    7
 10
183.60930571684966
 20
167.88384927285685
 40
0.1323198466687589
  0
CIRCLE
  8
_1-0_
  6
CONTINUOUS
 62
    7
 10
191.47999531513938
 20
167.76548643369932
 40
0.1323198466687589
  0
CIRCLE
  8
_1-0_
  6
CONTINUOUS
 62
    7
 10
188.34355947133659
 20
167.94302450644005
 40
0.1323198466687589
  0
CIRCLE
  8
_1-0_
  6
CONTINUOUS
 62
    7
 10
188.40273470491977
 20
166.46356943491344
 40
0.1323198466687589
  0
CIRCLE
  8
_1-0_
  6
CONTINUOUS
 62
    7
 10
186.80491679423565
 20
166.52275704048776
 40
0.1323198466687589
  0
CIRCLE
  8
_1-0_
  6
CONTINUOUS
 62
    7
 10
186.39067778716216
 20
167.88384927285685
 40
0.1323198466687589
  0
CIRCLE
  8
_1-0_
  6
CONTINUOUS
 62
    7
 10
190.47396685626057
 20
167.64713596653294
 40
0.1323198466687589
  0
CIRCLE
  8
_1-0_
  6
CONTINUOUS
 62
    7
 10
192.95945038666596
 20
166.75947034681167
 40
0.1323198466687589
  0
CIRCLE
  8
_1-0_
  6
CONTINUOUS
 62
    7
 10
191.361644847973
 20
166.04933042783995
 40
0.1323198466687589
  0
CIRCLE
  8
_1-0_
  6
CONTINUOUS
 62
    7
 10
190.29642878351987
 20
164.39233728357266
 40
0.1323198466687589
  0
CIRCLE
  8
_1-0_
  6
CONTINUOUS
 62
    7
 10
192.84108754750847
 20
164.21479921083193
 40
0.1323198466687589
  0
CIRCLE
  8
_1-0_
  6
CONTINUOUS
 62
    7
 10
194.49808069177578
 20
164.21479921083193
 40
0.1323198466687589
  0
CIRCLE
  8
_1-0_
  6
CONTINUOUS
 62
    7
 10
197.1019270613387
 20
164.62905058989654
 40
0.1323198466687589
  0
CIRCLE
  8
_1-0_
  6
CONTINUOUS
 62
    7
 10
199.40987251900339
 20
164.56987535631336
 40
0.1323198466687589
  0
CIRCLE
  8
_1-0_
  6
CONTINUOUS
 62
    7
 10
198.52219452729096
 20
165.10247720254435
 40
0.1323198466687589
  0
CIRCLE
  8
_1-0_
  6
CONTINUOUS
 62
    7
 10
196.3326119087838
 20
164.98411436338682
 40
0.1323198466687589
  0
CIRCLE
  8
_1-0_
  6
CONTINUOUS
 62
    7
 10
195.56329675622891
 20
164.98411436338682
 40
0.1323198466687589
  0
CIRCLE
  8
_1-0_
  6
CONTINUOUS
 62
    7
 10
196.03671099688557
 20
166.16768089500636
 40
0.1323198466687589
  0
CIRCLE
  8
_1-0_
  6
CONTINUOUS
 62
    7
 10
196.15507383604307
 20
167.23288458746833
 40
0.1323198466687589
  0
CIRCLE
  8
_1-0_
  6
CONTINUOUS
 62
    7
 10
201.63549474767737
 20
166.21621621621622
 40
0.1323198466687589
  0
CIRCLE
  8
_1-0_
  6
CONTINUOUS
 62
    7
 10
209.7436028557855
 20
167.83783783783784
 40
0.1323198466687589
  0
CIRCLE
  8
_1-0_
  6
CONTINUOUS
 62
    7
 10
203.99123320708404
 20
167.67896909971495
 40
0.1323198466687589
  0
CIRCLE
  8
_1-0_
  6
CONTINUOUS
 62
    7
 10
200.0796178869299
 20
167.49270877322635
 40
0.1323198466687589
  0
CIRCLE
  8
_1-0_
  6
CONTINUOUS
 62
    7
 10
197.8444073651288
 20
167.67896909971495
 40
0.1323198466687589
  0
CIRCLE
  8
_1-0_
  6
CONTINUOUS
 62
    7
 10
196.91306861671242
 20
167.1201633762669
 40
0.1323198466687589
  0
CIRCLE
  8
_1-0_
  6
CONTINUOUS
 62
    7
 10
205.48136530695737
 20
165.07122555294552
 40
0.1323198466687589
  0
CIRCLE
  8
_1-0_
  6
CONTINUOUS
 62
    7
 10
204.17749353357266
 20
164.51241982949747
 40
0.1323198466687589
  0
CIRCLE
  8
_1-0_
  6
CONTINUOUS
 62
    7
 10
205.66763800543708
 20
165.81629160288219
 40
0.1323198466687589
  0
CIRCLE
  8
_1-0_
  6
CONTINUOUS
 62
    7
 10
206.41270405537375
 20
167.30643607474664
 40
0.1323198466687589
  0
CIRCLE
  8
_1-0_
  6
CONTINUOUS
 62
    7
 10
207.71657582875847
 20
166.56137002480997
 40
0.1323198466687589
  0
CIRCLE
  8
_1-0_
  6
CONTINUOUS
 62
    7
 10
207.90284852723818
 20
165.07122555294552
 40
0.1323198466687589
  0
CIRCLE
  8
_1-0_
  6
CONTINUOUS
 62
    7
 10
209.95179872255068
 20
165.07122555294552
 40
0.1323198466687589
  0
CIRCLE
  8
_1-0_
  6
CONTINUOUS
 62
    7
 10
213.11833562077703
 20
165.07122555294552
 40
0.1323198466687589
  0
CIRCLE
  8
_1-0_
  6
CONTINUOUS
 62
    7
 10
216.09859982052367
 20
166.00256430136193
 40
0.1323198466687589
  0
CIRCLE
  8
_1-0_
  6
CONTINUOUS
 62
    7
 10
214.23592232369089
 20
166.56137002480997
 40
0.1323198466687589
  0
CIRCLE
  8
_1-0_
  6
CONTINUOUS
 62
    7
 10
216.84369061444258
 20
167.67896909971495
 40
0.1323198466687589
  0
CIRCLE
  8
_1-0_
  6
CONTINUOUS
 62
    7
 10
220.56902086412586
 20
167.1201633762669
 40
0.1323198466687589
  0
CIRCLE
  8
_1-0_
  6
CONTINUOUS
 62
    7
 10
218.70634336729307
 20
165.44375857791385
 40
0.1323198466687589
  0
CIRCLE
  8
_1-0_
  6
CONTINUOUS
 62
    7
 10
218.33382271431589
 20
164.69869252797722
 40
0.1323198466687589
  0
CIRCLE
  8
_1-0_
  6
CONTINUOUS
 62
    7
 10
214.79474041913008
 20
164.51241982949747
 40
0.1323198466687589
  0
CIRCLE
  8
_1-0_
  6
CONTINUOUS
 62
    7
 10
221.3140869140625
 20
165.07122555294552
 40
0.1323198466687589
  0
CIRCLE
  8
_1-0_
  6
CONTINUOUS
 62
    7
 10
223.17676441089529
 20
166.93390304977831
 40
0.1323198466687589
  0
CIRCLE
  8
_1-0_
  6
CONTINUOUS
 62
    7
 10
221.87290500950169
 20
167.67896909971495
 40
0.1323198466687589
  0
CIRCLE
  8
_1-0_
  6
CONTINUOUS
 62
    7
 10
219.82395481418919
 20
166.37509732633023
 40
0.1323198466687589
  0
CIRCLE
  8
_1-0_
  6
CONTINUOUS
 62
    7
 10
212.18699687236065
 20
166.93390304977831
 40
0.1323198466687589
  0
CIRCLE
  8
_1-0_
  6
CONTINUOUS
 62
    7
 10
210.32431937552789
 20
167.30643607474664
 40
0.1323198466687589
  0
CIRCLE
  8
_1-0_
  6
CONTINUOUS
 62
    7
 10
205.85389833192568
 20
166.00256430136193
 40
0.1323198466687589
  0
CIRCLE
  8
_1-0_
  6
CONTINUOUS
 62
    7
 10
207.90284852723818
 20
165.63003127639359
 40
0.1323198466687589
  0
CIRCLE
  8
_1-0_
  6
CONTINUOUS
 62
    7
 10
203.05989445866766
 20
166.00256430136193
 40
0.1323198466687589
  0
CIRCLE
  8
_1-0_
  6
CONTINUOUS
 62
    7
 10
201.0109566353463
 20
165.81629160288219
 40
0.1323198466687589
  0
CIRCLE
  8
_1-0_
  6
CONTINUOUS
 62
    7
 10
200.26589058540964
 20
165.63003127639359
 40
0.1323198466687589
  0
CIRCLE
  8
_1-0_
  6
CONTINUOUS
 62
    7
 10
195.05040349187078
 20
166.74763035129857
 40
0.1323198466687589
  0
CIRCLE
  8
_1-0_
  6
CONTINUOUS
 62
    7
 10
193.00145329655828
 20
167.67896909971495
 40
0.1323198466687589
  0
CIRCLE
  8
_1-0_
  6
CONTINUOUS
 62
    7
 10
195.60919684332771
 20
168.23777482316302
 40
0.1323198466687589
  0
CIRCLE
  8
_1-0_
  6
CONTINUOUS
 62
    7
 10
201.56974998680323
 20
168.61030784813136
 40
0.1323198466687589
  0
CIRCLE
  8
_1-0_
  6
CONTINUOUS
 62
    7
 10
204.9225595835093
 20
168.23777482316302
 40
0.1323198466687589
  0
CIRCLE
  8
_1-0_
  6
CONTINUOUS
 62
    7
 10
210.32431937552789
 20
168.05150212468328
 40
0.1323198466687589
  0
CIRCLE
  8
_1-0_
  6
CONTINUOUS
 62
    7
 10
215.35353377058701
 20
168.42403514965162
 40
0.1323198466687589
  0
CIRCLE
  8
_1-0_
  6
CONTINUOUS
 62
    7
 10
217.02993856894005
 20
168.23777482316302
 40
0.1323198466687589
  0
CIRCLE
  8
_1-0_
  6
CONTINUOUS
 62
    7
 10
218.52009541279563
 20
167.30643607474664
 40
0.1323198466687589
  0
CIRCLE
  8
_1-0_
  6
CONTINUOUS
 62
    7
 10
221.50035961254224
 20
166.93390304977831
 40
0.1323198466687589
  0
CIRCLE
  8
_1-0_
  6
CONTINUOUS
 62
    7
 10
223.363037109375
 20
166.37509732633023
 40
0.1323198466687589
  0
CIRCLE
  8
_1-0_
  6
CONTINUOUS
 62
    7
 10
223.17676441089529
 20
164.69869252797722
 40
0.1323198466687589
  0
CIRCLE
  8
_1-0_
  6
CONTINUOUS
 62
    7
 10
223.54930980785474
 20
167.67896909971495
 40
0.1323198466687589
  0
CIRCLE
  8
_1-0_
  6
CONTINUOUS
 62
    7
 10
225.37786535314612
 20
165.63507904877534
 40
0.1323198466687589
  0
CIRCLE
  8
_1-0_
  6
CONTINUOUS
 62
    7
 10
226.02883003853464
 20
166.75947034681167
 40
0.1323198466687589
  0
CIRCLE
  8
_1-0_
  6
CONTINUOUS
 62
    7
 10
223.18827036264781
 20
167.11453412030195
 40
0.1323198466687589
  0
CIRCLE
  8
_1-0_
  6
CONTINUOUS
 62
    7
 10
224.7269006677576
 20
165.51672858160896
 40
0.1323198466687589
  0
CIRCLE
  8
_1-0_
  6
CONTINUOUS
 62
    7
 10
224.1942864495355
 20
165.04330196896115
 40
0.1323198466687589
  0
CIRCLE
  8
_1-0_
  6
CONTINUOUS
 62
    7
 10
224.25347405510982
 20
166.99618365313557
 40
0.1323198466687589
  0
CIRCLE
  8
_1-0_
  6
CONTINUOUS
 62
    7
 10
224.43101212785052
 20
167.82467403927365
 40
0.1323198466687589
  0
CIRCLE
  8
_1-0_
  6
CONTINUOUS
 62
    7
 10
226.73895758551521
 20
168.17973781276393
 40
0.1323198466687589
  0
CIRCLE
  8
_1-0_
  6
CONTINUOUS
 62
    7
 10
227.86334888355154
 20
168.00219974002323
 40
0.1323198466687589
  0
CIRCLE
  8
_1-0_
  6
CONTINUOUS
 62
    7
 10
229.04692778716216
 20
165.45754097603464
 40
0.1323198466687589
  0
CIRCLE
  8
_1-0_
  6
CONTINUOUS
 62
    7
 10
227.3307346653294
 20
165.51672858160896
 40
0.1323198466687589
  0
CIRCLE
  8
_1-0_
  6
CONTINUOUS
 62
    7
 10
226.32471857844175
 20
165.45754097603464
 40
0.1323198466687589
  0
CIRCLE
  8
_1-0_
  6
CONTINUOUS
 62
    7
 10
226.26555571684966
 20
164.56987535631336
 40
0.1323198466687589
  0
CIRCLE
  8
_1-0_
  6
CONTINUOUS
 62
    7
 10
230.34883241395693
 20
164.21479921083193
 40
0.1323198466687589
  0
CIRCLE
  8
_1-0_
  6
CONTINUOUS
 62
    7
 10
231.88746271906675
 20
164.33316204998945
 40
0.1323198466687589
  0
CIRCLE
  8
_1-0_
  6
CONTINUOUS
 62
    7
 10
235.79322608741555
 20
164.45151251715583
 40
0.1323198466687589
  0
CIRCLE
  8
_1-0_
  6
CONTINUOUS
 62
    7
 10
238.16033440667232
 20
164.92493912980365
 40
0.1323198466687589
  0
CIRCLE
  8
_1-0_
  6
CONTINUOUS
 62
    7
 10
240.64581793707771
 20
165.10247720254435
 40
0.1323198466687589
  0
CIRCLE
  8
_1-0_
  6
CONTINUOUS
 62
    7
 10
230.52637048669766
 20
167.05535888671875
 40
0.1323198466687589
  0
CIRCLE
  8
_1-0_
  6
CONTINUOUS
 62
    7
 10
231.88746271906675
 20
165.99014282226562
 40
0.1323198466687589
  0
CIRCLE
  8
_1-0_
  6
CONTINUOUS
 62
    7
 10
230.99977235536318
 20
165.81261712151607
 40
0.1323198466687589
  0
CIRCLE
  8
_1-0_
  6
CONTINUOUS
 62
    7
 10
233.84033203125
 20
165.57590381519216
 40
0.1323198466687589
  0
CIRCLE
  8
_1-0_
  6
CONTINUOUS
 62
    7
 10
234.60967192778716
 20
166.10850566142315
 40
0.1323198466687589
  0
CIRCLE
  8
_1-0_
  6
CONTINUOUS
 62
    7
 10
233.48525588576859
 20
167.23288458746833
 40
0.1323198466687589
  0
CIRCLE
  8
_1-0_
  6
CONTINUOUS
 62
    7
 10
232.59759026604732
 20
167.88384927285685
 40
0.1323198466687589
  0
CIRCLE
  8
_1-0_
  6
CONTINUOUS
 62
    7
 10
240.46830460831927
 20
167.76548643369932
 40
0.1323198466687589
  0
CIRCLE
  8
_1-0_
  6
CONTINUOUS
 62
    7
 10
237.33185639252534
 20
167.94302450644005
 40
0.1323198466687589
  0
CIRCLE
  8
_1-0_
  6
CONTINUOUS
 62
    7
 10
237.39104399809966
 20
166.46356943491344
 40
0.1323198466687589
  0
CIRCLE
  8
_1-0_
  6
CONTINUOUS
 62
    7
 10
235.79322608741555
 20
166.52275704048776
 40
0.1323198466687589
  0
CIRCLE
  8
_1-0_
  6
CONTINUOUS
 62
    7
 10
235.37896233635982
 20
167.88384927285685
 40
0.1323198466687589
  0
CIRCLE
  8
_1-0_
  6
CONTINUOUS
 62
    7
 10
239.46226377744935
 20
167.64713596653294
 40
0.1323198466687589
  0
CIRCLE
  8
_1-0_
  6
CONTINUOUS
 62
    7
 10
241.94774730785474
 20
166.75947034681167
 40
0.1323198466687589
  0
CIRCLE
  8
_1-0_
  6
CONTINUOUS
 62
    7
 10
240.34992939717063
 20
166.04933042783995
 40
0.1323198466687589
  0
CIRCLE
  8
_1-0_
  6
CONTINUOUS
 62
    7
 10
239.28472570470862
 20
164.39233728357266
 40
0.1323198466687589
  0
CIRCLE
  8
_1-0_
  6
CONTINUOUS
 62
    7
 10
241.82937209670609
 20
164.21479921083193
 40
0.1323198466687589
  0
CIRCLE
  8
_1-0_
  6
CONTINUOUS
 62
    7
 10
243.48637761296453
 20
164.21479921083193
 40
0.1323198466687589
  0
CIRCLE
  8
_1-0_
  6
CONTINUOUS
 62
    7
 10
246.09023635451859
 20
164.62905058989654
 40
0.1323198466687589
  0
CIRCLE
  8
_1-0_
  6
CONTINUOUS
 62
    7
 10
248.39815706820102
 20
164.56987535631336
 40
0.1323198466687589
  0
CIRCLE
  8
_1-0_
  6
CONTINUOUS
 62
    7
 10
247.51049144847974
 20
165.10247720254435
 40
0.1323198466687589
  0
CIRCLE
  8
_1-0_
  6
CONTINUOUS
 62
    7
 10
245.32089645798143
 20
164.98411436338682
 40
0.1323198466687589
  0
CIRCLE
  8
_1-0_
  6
CONTINUOUS
 62
    7
 10
244.5516060494088
 20
164.98411436338682
 40
0.1323198466687589
  0
CIRCLE
  8
_1-0_
  6
CONTINUOUS
 62
    7
 10
245.02500791807435
 20
166.16768089500636
 40
0.1323198466687589
  0
CIRCLE
  8
_1-0_
  6
CONTINUOUS
 62
    7
 10
245.143383129223
 20
167.23288458746833
 40
0.1323198466687589
  0
CIRCLE
  8
_1-0_
  6
CONTINUOUS
 62
    7
 10
250.623779296875
 20
166.21621621621622
 40
0.1323198466687589
  0
CIRCLE
  8
_1-0_
  6
CONTINUOUS
 62
    7
 10
258.73188740498313
 20
167.83783783783784
 40
0.1323198466687589
  0
CIRCLE
  8
_1-0_
  6
CONTINUOUS
 62
    7
 10
252.97953012827281
 20
167.67896909971495
 40
0.1323198466687589
  0
CIRCLE
  8
_1-0_
  6
CONTINUOUS
 62
    7
 10
249.06792718010982
 20
167.49270877322635
 40
0.1323198466687589
  0
CIRCLE
  8
_1-0_
  6
CONTINUOUS
 62
    7
 10
246.83270428631758
 20
167.67896909971495
 40
0.1323198466687589
  0
CIRCLE
  8
_1-0_
  6
CONTINUOUS
 62
    7
 10
245.9013655379012
 20
167.1201633762669
 40
0.1323198466687589
  0
CIRCLE
  8
_1-0_
  6
CONTINUOUS
 62
    7
 10
254.46966222814612
 20
165.07122555294552
 40
0.1323198466687589
  0
CIRCLE
  8
_1-0_
  6
CONTINUOUS
 62
    7
 10
253.16577808277029
 20
164.51241982949747
 40
0.1323198466687589
  0
CIRCLE
  8
_1-0_
  6
CONTINUOUS
 62
    7
 10
254.65593492662586
 20
165.81629160288219
 40
0.1323198466687589
  0
CIRCLE
  8
_1-0_
  6
CONTINUOUS
 62
    7
 10
255.4010009765625
 20
167.30643607474664
 40
0.1323198466687589
  0
CIRCLE
  8
_1-0_
  6
CONTINUOUS
 62
    7
 10
256.70486037795609
 20
166.56137002480997
 40
0.1323198466687589
  0
CIRCLE
  8
_1-0_
  6
CONTINUOUS
 62
    7
 10
256.89113307643584
 20
165.07122555294552
 40
0.1323198466687589
  0
CIRCLE
  8
_1-0_
  6
CONTINUOUS
 62
    7
 10
258.94008327174834
 20
165.07122555294552
 40
0.1323198466687589
  0
CIRCLE
  8
_1-0_
  6
CONTINUOUS
 62
    7
 10
262.10662016997469
 20
165.07122555294552
 40
0.1323198466687589
  0
CIRCLE
  8
_1-0_
  6
CONTINUOUS
 62
    7
 10
265.0868843697213
 20
166.00256430136193
 40
0.1323198466687589
  0
CIRCLE
  8
_1-0_
  6
CONTINUOUS
 62
    7
 10
263.22423161687078
 20
166.56137002480997
 40
0.1323198466687589
  0
CIRCLE
  8
_1-0_
  6
CONTINUOUS
 62
    7
 10
265.83197516364021
 20
167.67896909971495
 40
0.1323198466687589
  0
CIRCLE
  8
_1-0_
  6
CONTINUOUS
 62
    7
 10
269.55733015730578
 20
167.1201633762669
 40
0.1323198466687589
  0
CIRCLE
  8
_1-0_
  6
CONTINUOUS
 62
    7
 10
267.69465266047297
 20
165.44375857791385
 40
0.1323198466687589
  0
CIRCLE
  8
_1-0_
  6
CONTINUOUS
 62
    7
 10
267.32210726351354
 20
164.69869252797722
 40
0.1323198466687589
  0
CIRCLE
  8
_1-0_
  6
CONTINUOUS
 62
    7
 10
263.78302496832771
 20
164.51241982949747
 40
0.1323198466687589
  0
CIRCLE
  8
_1-0_
  6
CONTINUOUS
 62
    7
 10
270.30237146326016
 20
165.07122555294552
 40
0.1323198466687589
  0
CIRCLE
  8
_1-0_
  6
CONTINUOUS
 62
    7
 10
272.16504896009292
 20
166.93390304977831
 40
0.1323198466687589
  0
CIRCLE
  8
_1-0_
  6
CONTINUOUS
 62
    7
 10
270.86118955869932
 20
167.67896909971495
 40
0.1323198466687589
  0
CIRCLE
  8
_1-0_
  6
CONTINUOUS
 62
    7
 10
268.81223936338682
 20
166.37509732633023
 40
0.1323198466687589
  0
CIRCLE
  8
_1-0_
  6
CONTINUOUS
 62
    7
 10
261.17530616554058
 20
166.93390304977831
 40
0.1323198466687589
  0
CIRCLE
  8
_1-0_
  6
CONTINUOUS
 62
    7
 10
259.31262866870776
 20
167.30643607474664
 40
0.1323198466687589
  0
CIRCLE
  8
_1-0_
  6
CONTINUOUS
 62
    7
 10
254.84218288112334
 20
166.00256430136193
 40
0.1323198466687589
  0
CIRCLE
  8
_1-0_
  6
CONTINUOUS
 62
    7
 10
256.89113307643584
 20
165.63003127639359
 40
0.1323198466687589
  0
CIRCLE
  8
_1-0_
  6
CONTINUOUS
 62
    7
 10
252.04819137985643
 20
166.00256430136193
 40
0.1323198466687589
  0
CIRCLE
  8
_1-0_
  6
CONTINUOUS
 62
    7
 10
249.99924118454393
 20
165.81629160288219
 40
0.1323198466687589
  0
CIRCLE
  8
_1-0_
  6
CONTINUOUS
 62
    7
 10
249.25419987858953
 20
165.63003127639359
 40
0.1323198466687589
  0
CIRCLE
  8
_1-0_
  6
CONTINUOUS
 62
    7
 10
244.03871278505068
 20
166.74763035129857
 40
0.1323198466687589
  0
CIRCLE
  8
_1-0_
  6
CONTINUOUS
 62
    7
 10
241.98976258973818
 20
167.67896909971495
 40
0.1323198466687589
  0
CIRCLE
  8
_1-0_
  6
CONTINUOUS
 62
    7
 10
244.59748139252534
 20
168.23777482316302
 40
0.1323198466687589
  0
CIRCLE
  8
_1-0_
  6
CONTINUOUS
 62
    7
 10
250.55805927998313
 20
168.61030784813136
 40
0.1323198466687589
  0
CIRCLE
  8
_1-0_
  6
CONTINUOUS
 62
    7
 10
253.91086887668919
 20
168.23777482316302
 40
0.1323198466687589
  0
CIRCLE
  8
_1-0_
  6
CONTINUOUS
 62
    7
 10
259.31262866870776
 20
168.05150212468328
 40
0.1323198466687589
  0
CIRCLE
  8
_1-0_
  6
CONTINUOUS
 62
    7
 10
264.34184306376693
 20
168.42403514965162
 40
0.1323198466687589
  0
CIRCLE
  8
_1-0_
  6
CONTINUOUS
 62
    7
 10
266.01824786211995
 20
168.23777482316302
 40
0.1323198466687589
  0
CIRCLE
  8
_1-0_
  6
CONTINUOUS
 62
    7
 10
267.50837996199328
 20
167.30643607474664
 40
0.1323198466687589
  0
CIRCLE
  8
_1-0_
  6
CONTINUOUS
 62
    7
 10
270.4886441617399
 20
166.93390304977831
 40
0.1323198466687589
  0
CIRCLE
  8
_1-0_
  6
CONTINUOUS
 62
    7
 10
272.35132165857266
 20
166.37509732633023
 40
0.1323198466687589
  0
CIRCLE
  8
_1-0_
  6
CONTINUOUS
 62
    7
 10
272.16504896009292
 20
164.69869252797722
 40
0.1323198466687589
  0
CIRCLE
  8
_1-0_
  6
CONTINUOUS
 62
    7
 10
272.5375943570524
 20
167.67896909971495
 40
0.1323198466687589
  0
CIRCLE
  8
_1-0_
  6
CONTINUOUS
 62
    7
 10
275.11126544024495
 20
165.63507904877534
 40
0.1323198466687589
  0
CIRCLE
  8
_1-0_
  6
CONTINUOUS
 62
    7
 10
275.76223012563344
 20
166.75947034681167
 40
0.1323198466687589
  0
CIRCLE
  8
_1-0_
  6
CONTINUOUS
 62
    7
 10
272.92167044974661
 20
167.11453412030195
 40
0.1323198466687589
  0
CIRCLE
  8
_1-0_
  6
CONTINUOUS
 62
    7
 10
274.46030075485646
 20
165.51672858160896
 40
0.1323198466687589
  0
CIRCLE
  8
_1-0_
  6
CONTINUOUS
 62
    7
 10
273.92771128061656
 20
165.04330196896115
 40
0.1323198466687589
  0
CIRCLE
  8
_1-0_
  6
CONTINUOUS
 62
    7
 10
273.98689888619089
 20
166.99618365313557
 40
0.1323198466687589
  0
CIRCLE
  8
_1-0_
  6
CONTINUOUS
 62
    7
 10
274.16441221494932
 20
167.82467403927365
 40
0.1323198466687589
  0
CIRCLE
  8
_1-0_
  6
CONTINUOUS
 62
    7
 10
276.4723824165963
 20
168.17973781276393
 40
0.1323198466687589
  0
CIRCLE
  8
_1-0_
  6
CONTINUOUS
 62
    7
 10
277.59674897065037
 20
168.00219974002323
 40
0.1323198466687589
  0
CIRCLE
  8
_1-0_
  6
CONTINUOUS
 62
    7
 10
278.78030313027875
 20
165.45754097603464
 40
0.1323198466687589
  0
CIRCLE
  8
_1-0_
  6
CONTINUOUS
 62
    7
 10
277.06415949641047
 20
165.51672858160896
 40
0.1323198466687589
  0
CIRCLE
  8
_1-0_
  6
CONTINUOUS
 62
    7
 10
276.05811866554058
 20
165.45754097603464
 40
0.1323198466687589
  0
CIRCLE
  8
_1-0_
  6
CONTINUOUS
 62
    7
 10
275.99893105996625
 20
164.56987535631336
 40
0.1323198466687589
  0
CIRCLE
  8
_1-0_
  6
CONTINUOUS
 62
    7
 10
280.08223250105578
 20
164.21479921083193
 40
0.1323198466687589
  0
CIRCLE
  8
_1-0_
  6
CONTINUOUS
 62
    7
 10
281.62086280616558
 20
164.33316204998945
 40
0.1323198466687589
  0
CIRCLE
  8
_1-0_
  6
CONTINUOUS
 62
    7
 10
285.52662617451438
 20
164.45151251715583
 40
0.1323198466687589
  0
CIRCLE
  8
_1-0_
  6
CONTINUOUS
 62
    7
 10
287.89375923775339
 20
164.92493912980365
 40
0.1323198466687589
  0
CIRCLE
  8
_1-0_
  6
CONTINUOUS
 62
    7
 10
290.3792427681588
 20
165.10247720254435
 40
0.1323198466687589
  0
CIRCLE
  8
_1-0_
  6
CONTINUOUS
 62
    7
 10
280.25974582981422
 20
167.05535888671875
 40
0.1323198466687589
  0
CIRCLE
  8
_1-0_
  6
CONTINUOUS
 62
    7
 10
281.62086280616558
 20
165.99014282226562
 40
0.1323198466687589
  0
CIRCLE
  8
_1-0_
  6
CONTINUOUS
 62
    7
 10
280.73319718644427
 20
165.81261712151607
 40
0.1323198466687589
  0
CIRCLE
  8
_1-0_
  6
CONTINUOUS
 62
    7
 10
283.57375686233109
 20
165.57590381519216
 40
0.1323198466687589
  0
CIRCLE
  8
_1-0_
  6
CONTINUOUS
 62
    7
 10
284.34304727090375
 20
166.10850566142315
 40
0.1323198466687589
  0
CIRCLE
  8
_1-0_
  6
CONTINUOUS
 62
    7
 10
283.21868071684969
 20
167.23288458746833
 40
0.1323198466687589
  0
CIRCLE
  8
_1-0_
  6
CONTINUOUS
 62
    7
 10
282.33101509712839
 20
167.88384927285685
 40
0.1323198466687589
  0
CIRCLE
  8
_1-0_
  6
CONTINUOUS
 62
    7
 10
290.20167995143584
 20
167.76548643369932
 40
0.1323198466687589
  0
CIRCLE
  8
_1-0_
  6
CONTINUOUS
 62
    7
 10
287.06525647962417
 20
167.94302450644005
 40
0.1323198466687589
  0
CIRCLE
  8
_1-0_
  6
CONTINUOUS
 62
    7
 10
287.12441934121625
 20
166.46356943491344
 40
0.1323198466687589
  0
CIRCLE
  8
_1-0_
  6
CONTINUOUS
 62
    7
 10
285.52660143053208
 20
166.52275704048776
 40
0.1323198466687589
  0
CIRCLE
  8
_1-0_
  6
CONTINUOUS
 62
    7
 10
285.11238716744089
 20
167.88384927285685
 40
0.1323198466687589
  0
CIRCLE
  8
_1-0_
  6
CONTINUOUS
 62
    7
 10
289.19566386454818
 20
167.64713596653294
 40
0.1323198466687589
  0
CIRCLE
  8
_1-0_
  6
CONTINUOUS
 62
    7
 10
291.68114739495354
 20
166.75947034681167
 40
0.1323198466687589
  0
CIRCLE
  8
_1-0_
  6
CONTINUOUS
 62
    7
 10
290.08335422825172
 20
166.04933042783995
 40
0.1323198466687589
  0
CIRCLE
  8
_1-0_
  6
CONTINUOUS
 62
    7
 10
289.01812579180745
 20
164.39233728357266
 40
0.1323198466687589
  0
CIRCLE
  8
_1-0_
  6
CONTINUOUS
 62
    7
 10
291.56279692778719
 20
164.21479921083193
 40
0.1323198466687589
  0
CIRCLE
  8
_1-0_
  6
CONTINUOUS
 62
    7
 10
293.21977770006339
 20
164.21479921083193
 40
0.1323198466687589
  0
CIRCLE
  8
_1-0_
  6
CONTINUOUS
 62
    7
 10
295.82361169763516
 20
164.62905058989654
 40
0.1323198466687589
  0
CIRCLE
  8
_1-0_
  6
CONTINUOUS
 62
    7
 10
298.13158189928214
 20
164.56987535631336
 40
0.1323198466687589
  0
CIRCLE
  8
_1-0_
  6
CONTINUOUS
 62
    7
 10
297.24389153557854
 20
165.10247720254435
 40
0.1323198466687589
  0
CIRCLE
  8
_1-0_
  6
CONTINUOUS
 62
    7
 10
295.0543212890625
 20
164.98411436338682
 40
0.1323198466687589
  0
CIRCLE
  8
_1-0_
  6
CONTINUOUS
 62
    7
 10
294.28498139252537
 20
164.98411436338682
 40
0.1323198466687589
  0
CIRCLE
  8
_1-0_
  6
CONTINUOUS
 62
    7
 10
294.75840800517318
 20
166.16768089500636
 40
0.1323198466687589
  0
CIRCLE
  8
_1-0_
  6
CONTINUOUS
 62
    7
 10
294.87675847233953
 20
167.23288458746833
 40
0.1323198466687589
  0
CIRCLE
  8
_1-0_
  6
CONTINUOUS
 62
    7
 10
300.35720412795609
 20
166.21621621621622
 40
0.1323198466687589
  0
CIRCLE
  8
_1-0_
  6
CONTINUOUS
 62
    7
 10
308.46531223606422
 20
167.83783783783784
 40
0.1323198466687589
  0
CIRCLE
  8
_1-0_
  6
CONTINUOUS
 62
    7
 10
302.71293021537161
 20
167.67896909971495
 40
0.1323198466687589
  0
CIRCLE
  8
_1-0_
  6
CONTINUOUS
 62
    7
 10
298.80130252322635
 20
167.49270877322635
 40
0.1323198466687589
  0
CIRCLE
  8
_1-0_
  6
CONTINUOUS
 62
    7
 10
296.56610437341641
 20
167.67896909971495
 40
0.1323198466687589
  0
CIRCLE
  8
_1-0_
  6
CONTINUOUS
 62
    7
 10
295.634765625
 20
167.1201633762669
 40
0.1323198466687589
  0
CIRCLE
  8
_1-0_
  6
CONTINUOUS
 62
    7
 10
304.20306231524495
 20
165.07122555294552
 40
0.1323198466687589
  0
CIRCLE
  8
_1-0_
  6
CONTINUOUS
 62
    7
 10
302.89920291385135
 20
164.51241982949747
 40
0.1323198466687589
  0
CIRCLE
  8
_1-0_
  6
CONTINUOUS
 62
    7
 10
304.38933501372469
 20
165.81629160288219
 40
0.1323198466687589
  0
CIRCLE
  8
_1-0_
  6
CONTINUOUS
 62
    7
 10
305.13440106366136
 20
167.30643607474664
 40
0.1323198466687589
  0
CIRCLE
  8
_1-0_
  6
CONTINUOUS
 62
    7
 10
306.43828520903719
 20
166.56137002480997
 40
0.1323198466687589
  0
CIRCLE
  8
_1-0_
  6
CONTINUOUS
 62
    7
 10
306.62455790751693
 20
165.07122555294552
 40
0.1323198466687589
  0
CIRCLE
  8
_1-0_
  6
CONTINUOUS
 62
    7
 10
308.67348335884714
 20
165.07122555294552
 40
0.1323198466687589
  0
CIRCLE
  8
_1-0_
  6
CONTINUOUS
 62
    7
 10
311.84004500105578
 20
165.07122555294552
 40
0.1323198466687589
  0
CIRCLE
  8
_1-0_
  6
CONTINUOUS
 62
    7
 10
314.8203092008024
 20
166.00256430136193
 40
0.1323198466687589
  0
CIRCLE
  8
_1-0_
  6
CONTINUOUS
 62
    7
 10
312.95763170396964
 20
166.56137002480997
 40
0.1323198466687589
  0
CIRCLE
  8
_1-0_
  6
CONTINUOUS
 62
    7
 10
315.56537525073901
 20
167.67896909971495
 40
0.1323198466687589
  0
CIRCLE
  8
_1-0_
  6
CONTINUOUS
 62
    7
 10
319.29070550042229
 20
167.1201633762669
 40
0.1323198466687589
  0
CIRCLE
  8
_1-0_
  6
CONTINUOUS
 62
    7
 10
317.42802800358953
 20
165.44375857791385
 40
0.1323198466687589
  0
CIRCLE
  8
_1-0_
  6
CONTINUOUS
 62
    7
 10
317.05553209459464
 20
164.69869252797722
 40
0.1323198466687589
  0
CIRCLE
  8
_1-0_
  6
CONTINUOUS
 62
    7
 10
313.5164497994088
 20
164.51241982949747
 40
0.1323198466687589
  0
CIRCLE
  8
_1-0_
  6
CONTINUOUS
 62
    7
 10
320.03579629434125
 20
165.07122555294552
 40
0.1323198466687589
  0
CIRCLE
  8
_1-0_
  6
CONTINUOUS
 62
    7
 10
321.89847379117401
 20
166.93390304977831
 40
0.1323198466687589
  0
CIRCLE
  8
_1-0_
  6
CONTINUOUS
 62
    7
 10
320.59461438978042
 20
167.67896909971495
 40
0.1323198466687589
  0
CIRCLE
  8
_1-0_
  6
CONTINUOUS
 62
    7
 10
318.54566419446792
 20
166.37509732633023
 40
0.1323198466687589
  0
CIRCLE
  8
_1-0_
  6
CONTINUOUS
 62
    7
 10
310.90868150865714
 20
166.93390304977831
 40
0.1323198466687589
  0
CIRCLE
  8
_1-0_
  6
CONTINUOUS
 62
    7
 10
309.04600401182432
 20
167.30643607474664
 40
0.1323198466687589
  0
CIRCLE
  8
_1-0_
  6
CONTINUOUS
 62
    7
 10
304.57560771220443
 20
166.00256430136193
 40
0.1323198466687589
  0
CIRCLE
  8
_1-0_
  6
CONTINUOUS
 62
    7
 10
306.62455790751693
 20
165.63003127639359
 40
0.1323198466687589
  0
CIRCLE
  8
_1-0_
  6
CONTINUOUS
 62
    7
 10
301.78159146695526
 20
166.00256430136193
 40
0.1323198466687589
  0
CIRCLE
  8
_1-0_
  6
CONTINUOUS
 62
    7
 10
299.732666015625
 20
165.81629160288219
 40
0.1323198466687589
  0
CIRCLE
  8
_1-0_
  6
CONTINUOUS
 62
    7
 10
298.98757522170609
 20
165.63003127639359
 40
0.1323198466687589
  0
CIRCLE
  8
_1-0_
  6
CONTINUOUS
 62
    7
 10
293.77208812816724
 20
166.74763035129857
 40
0.1323198466687589
  0
CIRCLE
  8
_1-0_
  6
CONTINUOUS
 62
    7
 10
291.72313793285474
 20
167.67896909971495
 40
0.1323198466687589
  0
CIRCLE
  8
_1-0_
  6
CONTINUOUS
 62
    7
 10
294.33090622360646
 20
168.23777482316302
 40
0.1323198466687589
  0
CIRCLE
  8
_1-0_
  6
CONTINUOUS
 62
    7
 10
300.29143462309969
 20
168.61030784813136
 40
0.1323198466687589
  0
CIRCLE
  8
_1-0_
  6
CONTINUOUS
 62
    7
 10
303.64424421980578
 20
168.23777482316302
 40
0.1323198466687589
  0
CIRCLE
  8
_1-0_
  6
CONTINUOUS
 62
    7
 10
309.04600401182432
 20
168.05150212468328
 40
0.1323198466687589
  0
CIRCLE
  8
_1-0_
  6
CONTINUOUS
 62
    7
 10
314.07521840688344
 20
168.42403514965162
 40
0.1323198466687589
  0
CIRCLE
  8
_1-0_
  6
CONTINUOUS
 62
    7
 10
315.75162320523651
 20
168.23777482316302
 40
0.1323198466687589
  0
CIRCLE
  8
_1-0_
  6
CONTINUOUS
 62
    7
 10
317.24178004909209
 20
167.30643607474664
 40
0.1323198466687589
  0
CIRCLE
  8
_1-0_
  6
CONTINUOUS
 62
    7
 10
320.22206899282094
 20
166.93390304977831
 40
0.1323198466687589
  0
CIRCLE
  8
_1-0_
  6
CONTINUOUS
 62
    7
 10
322.08474648965375
 20
166.37509732633023
 40
0.1323198466687589
  0
CIRCLE
  8
_1-0_
  6
CONTINUOUS
 62
    7
 10
321.89847379117401
 20
164.69869252797722
 40
0.1323198466687589
  0
CIRCLE
  8
_1-0_
  6
CONTINUOUS
 62
    7
 10
322.27101918813344
 20
167.67896909971495
 40
0.1323198466687589
  0
CIRCLE
  8
_1-0_
  6
CONTINUOUS
 62
    7
 10
325.40345887880068
 20
165.63507904877534
 40
0.1323198466687589
  0
CIRCLE
  8
_1-0_
  6
CONTINUOUS
 62
    7
 10
326.05442356418922
 20
166.75947034681167
 40
0.1323198466687589
  0
CIRCLE
  8
_1-0_
  6
CONTINUOUS
 62
    7
 10
323.2138638883024
 20
167.11453412030195
 40
0.1323198466687589
  0
CIRCLE
  8
_1-0_
  6
CONTINUOUS
 62
    7
 10
324.75249419341219
 20
165.51672858160896
 40
0.1323198466687589
  0
CIRCLE
  8
_1-0_
  6
CONTINUOUS
 62
    7
 10
324.21990471917229
 20
165.04330196896115
 40
0.1323198466687589
  0
CIRCLE
  8
_1-0_
  6
CONTINUOUS
 62
    7
 10
324.27909232474661
 20
166.99618365313557
 40
0.1323198466687589
  0
CIRCLE
  8
_1-0_
  6
CONTINUOUS
 62
    7
 10
324.45660565350511
 20
167.82467403927365
 40
0.1323198466687589
  0
CIRCLE
  8
_1-0_
  6
CONTINUOUS
 62
    7
 10
326.76457585515203
 20
168.17973781276393
 40
0.1323198466687589
  0
CIRCLE
  8
_1-0_
  6
CONTINUOUS
 62
    7
 10
327.88894240920609
 20
168.00219974002323
 40
0.1323198466687589
  0
CIRCLE
  8
_1-0_
  6
CONTINUOUS
 62
    7
 10
329.07249656883448
 20
165.45754097603464
 40
0.1323198466687589
  0
CIRCLE
  8
_1-0_
  6
CONTINUOUS
 62
    7
 10
327.35635293496625
 20
165.51672858160896
 40
0.1323198466687589
  0
CIRCLE
  8
_1-0_
  6
CONTINUOUS
 62
    7
 10
326.3503121040963
 20
165.45754097603464
 40
0.1323198466687589
  0
CIRCLE
  8
_1-0_
  6
CONTINUOUS
 62
    7
 10
326.29112449852198
 20
164.56987535631336
 40
0.1323198466687589
  0
CIRCLE
  8
_1-0_
  6
CONTINUOUS
 62
    7
 10
330.37442593961151
 20
164.21479921083193
 40
0.1323198466687589
  0
CIRCLE
  8
_1-0_
  6
CONTINUOUS
 62
    7
 10
331.9130562447213
 20
164.33316204998945
 40
0.1323198466687589
  0
CIRCLE
  8
_1-0_
  6
CONTINUOUS
 62
    7
 10
335.8188196130701
 20
164.45151251715583
 40
0.1323198466687589
  0
CIRCLE
  8
_1-0_
  6
CONTINUOUS
 62
    7
 10
338.18595267630911
 20
164.92493912980365
 40
0.1323198466687589
  0
CIRCLE
  8
_1-0_
  6
CONTINUOUS
 62
    7
 10
340.67143620671453
 20
165.10247720254435
 40
0.1323198466687589
  0
CIRCLE
  8
_1-0_
  6
CONTINUOUS
 62
    7
 10
330.55193926836995
 20
167.05535888671875
 40
0.1323198466687589
  0
CIRCLE
  8
_1-0_
  6
CONTINUOUS
 62
    7
 10
331.9130562447213
 20
165.99014282226562
 40
0.1323198466687589
  0
CIRCLE
  8
_1-0_
  6
CONTINUOUS
 62
    7
 10
331.025390625
 20
165.81261712151607
 40
0.1323198466687589
  0
CIRCLE
  8
_1-0_
  6
CONTINUOUS
 62
    7
 10
333.86595030088682
 20
165.57590381519216
 40
0.1323198466687589
  0
CIRCLE
  8
_1-0_
  6
CONTINUOUS
 62
    7
 10
334.63524070945948
 20
166.10850566142315
 40
0.1323198466687589
  0
CIRCLE
  8
_1-0_
  6
CONTINUOUS
 62
    7
 10
333.51087415540542
 20
167.23288458746833
 40
0.1323198466687589
  0
CIRCLE
  8
_1-0_
  6
CONTINUOUS
 62
    7
 10
332.62320853568411
 20
167.88384927285685
 40
0.1323198466687589
  0
CIRCLE
  8
_1-0_
  6
CONTINUOUS
 62
    7
 10
340.49387338999156
 20
167.76548643369932
 40
0.1323198466687589
  0
CIRCLE
  8
_1-0_
  6
CONTINUOUS
 62
    7
 10
337.3574499181799
 20
167.94302450644005
 40
0.1323198466687589
  0
CIRCLE
  8
_1-0_
  6
CONTINUOUS
 62
    7
 10
337.41661277977198
 20
166.46356943491344
 40
0.1323198466687589
  0
CIRCLE
  8
_1-0_
  6
CONTINUOUS
 62
    7
 10
335.81879486908787
 20
166.52275704048776
 40
0.1323198466687589
  0
CIRCLE
  8
_1-0_
  6
CONTINUOUS
 62
    7
 10
335.40458060599661
 20
167.88384927285685
 40
0.1323198466687589
  0
CIRCLE
  8
_1-0_
  6
CONTINUOUS
 62
    7
 10
339.48785730310391
 20
167.64713596653294
 40
0.1323198466687589
  0
CIRCLE
  8
_1-0_
  6
CONTINUOUS
 62
    7
 10
341.97334083350933
 20
166.75947034681167
 40
0.1323198466687589
  0
CIRCLE
  8
_1-0_
  6
CONTINUOUS
 62
    7
 10
340.37554766680745
 20
166.04933042783995
 40
0.1323198466687589
  0
CIRCLE
  8
_1-0_
  6
CONTINUOUS
 62
    7
 10
339.31031923036318
 20
164.39233728357266
 40
0.1323198466687589
  0
CIRCLE
  8
_1-0_
  6
CONTINUOUS
 62
    7
 10
341.85499036634292
 20
164.21479921083193
 40
0.1323198466687589
  0
CIRCLE
  8
_1-0_
  6
CONTINUOUS
 62
    7
 10
343.51197113861912
 20
164.21479921083193
 40
0.1323198466687589
  0
CIRCLE
  8
_1-0_
  6
CONTINUOUS
 62
    7
 10
346.11580513619089
 20
164.62905058989654
 40
0.1323198466687589
  0
CIRCLE
  8
_1-0_
  6
CONTINUOUS
 62
    7
 10
348.42377533783787
 20
164.56987535631336
 40
0.1323198466687589
  0
CIRCLE
  8
_1-0_
  6
CONTINUOUS
 62
    7
 10
347.53608497413433
 20
165.10247720254435
 40
0.1323198466687589
  0
CIRCLE
  8
_1-0_
  6
CONTINUOUS
 62
    7
 10
345.34651472761828
 20
164.98411436338682
 40
0.1323198466687589
  0
CIRCLE
  8
_1-0_
  6
CONTINUOUS
 62
    7
 10
344.57717483108109
 20
164.98411436338682
 40
0.1323198466687589
  0
CIRCLE
  8
_1-0_
  6
CONTINUOUS
 62
    7
 10
345.05060144372891
 20
166.16768089500636
 40
0.1323198466687589
  0
CIRCLE
  8
_1-0_
  6
CONTINUOUS
 62
    7
 10
345.16895191089532
 20
167.23288458746833
 40
0.1323198466687589
  0
CIRCLE
  8
_1-0_
  6
CONTINUOUS
 62
    7
 10
350.64939756651182
 20
166.21621621621622
 40
0.1323198466687589
  0
CIRCLE
  8
_1-0_
  6
CONTINUOUS
 62
    7
 10
358.75750567461995
 20
167.83783783783784
 40
0.1323198466687589
  0
CIRCLE
  8
_1-0_
  6
CONTINUOUS
 62
    7
 10
353.0051236539274
 20
167.67896909971495
 40
0.1323198466687589
  0
CIRCLE
  8
_1-0_
  6
CONTINUOUS
 62
    7
 10
349.09349596178214
 20
167.49270877322635
 40
0.1323198466687589
  0
CIRCLE
  8
_1-0_
  6
CONTINUOUS
 62
    7
 10
346.85829781197214
 20
167.67896909971495
 40
0.1323198466687589
  0
CIRCLE
  8
_1-0_
  6
CONTINUOUS
 62
    7
 10
345.92695906355578
 20
167.1201633762669
 40
0.1323198466687589
  0
CIRCLE
  8
_1-0_
  6
CONTINUOUS
 62
    7
 10
354.49525575380068
 20
165.07122555294552
 40
0.1323198466687589
  0
CIRCLE
  8
_1-0_
  6
CONTINUOUS
 62
    7
 10
353.19139635240714
 20
164.51241982949747
 40
0.1323198466687589
  0
CIRCLE
  8
_1-0_
  6
CONTINUOUS
 62
    7
 10
354.68152845228042
 20
165.81629160288219
 40
0.1323198466687589
  0
CIRCLE
  8
_1-0_
  6
CONTINUOUS
 62
    7
 10
355.42659450221709
 20
167.30643607474664
 40
0.1323198466687589
  0
CIRCLE
  8
_1-0_
  6
CONTINUOUS
 62
    7
 10
356.73047864759292
 20
166.56137002480997
 40
0.1323198466687589
  0
CIRCLE
  8
_1-0_
  6
CONTINUOUS
 62
    7
 10
356.91675134607266
 20
165.07122555294552
 40
0.1323198466687589
  0
CIRCLE
  8
_1-0_
  6
CONTINUOUS
 62
    7
 10
358.96567679740286
 20
165.07122555294552
 40
0.1323198466687589
  0
CIRCLE
  8
_1-0_
  6
CONTINUOUS
 62
    7
 10
362.13223843961151
 20
165.07122555294552
 40
0.1323198466687589
  0
CIRCLE
  8
_1-0_
  6
CONTINUOUS
 62
    7
 10
365.11250263935813
 20
166.00256430136193
 40
0.1323198466687589
  0
CIRCLE
  8
_1-0_
  6
CONTINUOUS
 62
    7
 10
363.24982514252537
 20
166.56137002480997
 40
0.1323198466687589
  0
CIRCLE
  8
_1-0_
  6
CONTINUOUS
 62
    7
 10
365.85756868929479
 20
167.67896909971495
 40
0.1323198466687589
  0
CIRCLE
  8
_1-0_
  6
CONTINUOUS
 62
    7
 10
369.58289893897808
 20
167.1201633762669
 40
0.1323198466687589
  0
CIRCLE
  8
_1-0_
  6
CONTINUOUS
 62
    7
 10
367.72022144214532
 20
165.44375857791385
 40
0.1323198466687589
  0
CIRCLE
  8
_1-0_
  6
CONTINUOUS
 62
    7
 10
367.34772553315037
 20
164.69869252797722
 40
0.1323198466687589
  0
CIRCLE
  8
_1-0_
  6
CONTINUOUS
 62
    7
 10
363.80864323796453
 20
164.51241982949747
 40
0.1323198466687589
  0
CIRCLE
  8
_1-0_
  6
CONTINUOUS
 62
    7
 10
370.32798973289698
 20
165.07122555294552
 40
0.1323198466687589
  0
CIRCLE
  8
_1-0_
  6
CONTINUOUS
 62
    7
 10
372.19066722972974
 20
166.93390304977831
 40
0.1323198466687589
  0
CIRCLE
  8
_1-0_
  6
CONTINUOUS
 62
    7
 10
370.88680782833615
 20
167.67896909971495
 40
0.1323198466687589
  0
CIRCLE
  8
_1-0_
  6
CONTINUOUS
 62
    7
 10
368.83785763302365
 20
166.37509732633023
 40
0.1323198466687589
  0
CIRCLE
  8
_1-0_
  6
CONTINUOUS
 62
    7
 10
361.20087494721287
 20
166.93390304977831
 40
0.1323198466687589
  0
CIRCLE
  8
_1-0_
  6
CONTINUOUS
 62
    7
 10
359.33819745038011
 20
167.30643607474664
 40
0.1323198466687589
  0
CIRCLE
  8
_1-0_
  6
CONTINUOUS
 62
    7
 10
354.86780115076016
 20
166.00256430136193
 40
0.1323198466687589
  0
CIRCLE
  8
_1-0_
  6
CONTINUOUS
 62
    7
 10
356.91675134607266
 20
165.63003127639359
 40
0.1323198466687589
  0
CIRCLE
  8
_1-0_
  6
CONTINUOUS
 62
    7
 10
352.07378490551099
 20
166.00256430136193
 40
0.1323198466687589
  0
CIRCLE
  8
_1-0_
  6
CONTINUOUS
 62
    7
 10
350.02485945418078
 20
165.81629160288219
 40
0.1323198466687589
  0
CIRCLE
  8
_1-0_
  6
CONTINUOUS
 62
    7
 10
349.27976866026182
 20
165.63003127639359
 40
0.1323198466687589
  0
CIRCLE
  8
_1-0_
  6
CONTINUOUS
 62
    7
 10
344.06428156672297
 20
166.74763035129857
 40
0.1323198466687589
  0
CIRCLE
  8
_1-0_
  6
CONTINUOUS
 62
    7
 10
342.01533137141047
 20
167.67896909971495
 40
0.1323198466687589
  0
CIRCLE
  8
_1-0_
  6
CONTINUOUS
 62
    7
 10
344.62309966216219
 20
168.23777482316302
 40
0.1323198466687589
  0
CIRCLE
  8
_1-0_
  6
CONTINUOUS
 62
    7
 10
350.58362806165542
 20
168.61030784813136
 40
0.1323198466687589
  0
CIRCLE
  8
_1-0_
  6
CONTINUOUS
 62
    7
 10
353.93643765836151
 20
168.23777482316302
 40
0.1323198466687589
  0
CIRCLE
  8
_1-0_
  6
CONTINUOUS
 62
    7
 10
359.33819745038011
 20
168.05150212468328
 40
0.1323198466687589
  0
CIRCLE
  8
_1-0_
  6
CONTINUOUS
 62
    7
 10
364.36741184543922
 20
168.42403514965162
 40
0.1323198466687589
  0
CIRCLE
  8
_1-0_
  6
CONTINUOUS
 62
    7
 10
366.04381664379224
 20
168.23777482316302
 40
0.1323198466687589
  0
CIRCLE
  8
_1-0_
  6
CONTINUOUS
 62
    7
 10
367.53397348764781
 20
167.30643607474664
 40
0.1323198466687589
  0
CIRCLE
  8
_1-0_
  6
CONTINUOUS
 62
    7
 10
370.51426243137672
 20
166.93390304977831
 40
0.1323198466687589
  0
CIRCLE
  8
_1-0_
  6
CONTINUOUS
 62
    7
 10
372.37693992820948
 20
166.37509732633023
 40
0.1323198466687589
  0
CIRCLE
  8
_1-0_
  6
CONTINUOUS
 62
    7
 10
372.19066722972974
 20
164.69869252797722
 40
0.1323198466687589
  0
CIRCLE
  8
_1-0_
  6
CONTINUOUS
 62
    7
 10
372.56321262668922
 20
167.67896909971495
 40
0.1323198466687589
  0
CIRCLE
  8
_1-0_
  6
CONTINUOUS
 62
    7
 10
375.88192501583615
 20
165.63507904877534
 40
0.1323198466687589
  0
CIRCLE
  8
_1-0_
  6
CONTINUOUS
 62
    7
 10
376.53288970122469
 20
166.75947034681167
 40
0.1323198466687589
  0
CIRCLE
  8
_1-0_
  6
CONTINUOUS
 62
    7
 10
373.69233002533787
 20
167.11453412030195
 40
0.1323198466687589
  0
CIRCLE
  8
_1-0_
  6
CONTINUOUS
 62
    7
 10
375.23096033044766
 20
165.51672858160896
 40
0.1323198466687589
  0
CIRCLE
  8
_1-0_
  6
CONTINUOUS
 62
    7
 10
374.69837085620782
 20
165.04330196896115
 40
0.1323198466687589
  0
CIRCLE
  8
_1-0_
  6
CONTINUOUS
 62
    7
 10
374.75755846178214
 20
166.99618365313557
 40
0.1323198466687589
  0
CIRCLE
  8
_1-0_
  6
CONTINUOUS
 62
    7
 10
374.93507179054058
 20
167.82467403927365
 40
0.1323198466687589
  0
CIRCLE
  8
_1-0_
  6
CONTINUOUS
 62
    7
 10
377.2430419921875
 20
168.17973781276393
 40
0.1323198466687589
  0
CIRCLE
  8
_1-0_
  6
CONTINUOUS
 62
    7
 10
378.36740854624156
 20
168.00219974002323
 40
0.1323198466687589
  0
CIRCLE
  8
_1-0_
  6
CONTINUOUS
 62
    7
 10
379.55096270586995
 20
165.45754097603464
 40
0.1323198466687589
  0
CIRCLE
  8
_1-0_
  6
CONTINUOUS
 62
    7
 10
377.83481907200172
 20
165.51672858160896
 40
0.1323198466687589
  0
CIRCLE
  8
_1-0_
  6
CONTINUOUS
 62
    7
 10
376.82877824113177
 20
165.45754097603464
 40
0.1323198466687589
  0
CIRCLE
  8
_1-0_
  6
CONTINUOUS
 62
    7
 10
376.76959063555745
 20
164.56987535631336
 40
0.1323198466687589
  0
CIRCLE
  8
_1-0_
  6
CONTINUOUS
 62
    7
 10
380.85289207664698
 20
164.21479921083193
 40
0.1323198466687589
  0
CIRCLE
  8
_1-0_
  6
CONTINUOUS
 62
    7
 10
381.03040540540542
 20
167.05535888671875
 40
0.1323198466687589
  0
CIRCLE
  8
_1-0_
  6
CONTINUOUS
 62
    7
 10
381.50385676203547
 20
165.81261712151607
 40
0.1323198466687589
  0
CIRCLE
  8
_1-0_
  6
CONTINUOUS
 62
    7
 10
118.16595129064612
 20
162.22203022724875
 40
0.1323198466687589
  0
CIRCLE
  8
_1-0_
  6
CONTINUOUS
 62
    7
 10
118.81691597603464
 20
163.34642152528505
 40
0.1323198466687589
  0
CIRCLE
  8
_1-0_
  6
CONTINUOUS
 62
    7
 10
117.5149866052576
 20
162.10367976008234
 40
0.1323198466687589
  0
CIRCLE
  8
_1-0_
  6
CONTINUOUS
 62
    7
 10
116.98238475902662
 20
161.63025314743456
 40
0.1323198466687589
  0
CIRCLE
  8
_1-0_
  6
CONTINUOUS
 62
    7
 10
117.04157236460094
 20
163.58313483160896
 40
0.1323198466687589
  0
CIRCLE
  8
_1-0_
  6
CONTINUOUS
 62
    7
 10
121.83500135267104
 20
162.04449215450802
 40
0.1323198466687589
  0
CIRCLE
  8
_1-0_
  6
CONTINUOUS
 62
    7
 10
120.11883297482053
 20
162.10367976008234
 40
0.1323198466687589
  0
CIRCLE
  8
_1-0_
  6
CONTINUOUS
 62
    7
 10
119.11280451594173
 20
162.04449215450802
 40
0.1323198466687589
  0
CIRCLE
  8
_1-0_
  6
CONTINUOUS
 62
    7
 10
119.05362928235854
 20
161.15682653478675
 40
0.1323198466687589
  0
CIRCLE
  8
_1-0_
  6
CONTINUOUS
 62
    7
 10
123.13691835145693
 20
160.80175038930534
 40
0.1323198466687589
  0
CIRCLE
  8
_1-0_
  6
CONTINUOUS
 62
    7
 10
124.67554865656673
 20
160.92011322846284
 40
0.1323198466687589
  0
CIRCLE
  8
_1-0_
  6
CONTINUOUS
 62
    7
 10
123.31444405220651
 20
163.64231006519216
 40
0.1323198466687589
  0
CIRCLE
  8
_1-0_
  6
CONTINUOUS
 62
    7
 10
124.67554865656673
 20
162.57709400073904
 40
0.1323198466687589
  0
CIRCLE
  8
_1-0_
  6
CONTINUOUS
 62
    7
 10
123.78787066485431
 20
162.39956829998945
 40
0.1323198466687589
  0
CIRCLE
  8
_1-0_
  6
CONTINUOUS
 62
    7
 10
126.62843034074113
 20
162.16285499366555
 40
0.1323198466687589
  0
CIRCLE
  8
_1-0_
  6
CONTINUOUS
 62
    7
 10
126.27335419525971
 20
163.81983576594172
 40
0.1323198466687589
  0
CIRCLE
  8
_1-0_
  6
CONTINUOUS
 62
    7
 10
126.57670304581926
 20
162.34393145586995
 40
0.1323198466687589
  0
CIRCLE
  8
_1-0_
  6
CONTINUOUS
 62
    7
 10
127.22766773120777
 20
163.46832275390625
 40
0.1323198466687589
  0
CIRCLE
  8
_1-0_
  6
CONTINUOUS
 62
    7
 10
125.92573836043076
 20
162.22558098870357
 40
0.1323198466687589
  0
CIRCLE
  8
_1-0_
  6
CONTINUOUS
 62
    7
 10
125.39313651419975
 20
161.75215437605576
 40
0.1323198466687589
  0
CIRCLE
  8
_1-0_
  6
CONTINUOUS
 62
    7
 10
125.45232411977408
 20
163.70503606023016
 40
0.1323198466687589
  0
CIRCLE
  8
_1-0_
  6
CONTINUOUS
 62
    7
 10
130.24575310784417
 20
162.16639338312922
 40
0.1323198466687589
  0
CIRCLE
  8
_1-0_
  6
CONTINUOUS
 62
    7
 10
128.52958472999367
 20
162.22558098870357
 40
0.1323198466687589
  0
CIRCLE
  8
_1-0_
  6
CONTINUOUS
 62
    7
 10
127.52355627111487
 20
162.16639338312922
 40
0.1323198466687589
  0
CIRCLE
  8
_1-0_
  6
CONTINUOUS
 62
    7
 10
127.46438103753168
 20
161.27872776340794
 40
0.1323198466687589
  0
CIRCLE
  8
_1-0_
  6
CONTINUOUS
 62
    7
 10
131.54767010663008
 20
160.92365161792654
 40
0.1323198466687589
  0
CIRCLE
  8
_1-0_
  6
CONTINUOUS
 62
    7
 10
133.08630041173987
 20
161.04201445708404
 40
0.1323198466687589
  0
CIRCLE
  8
_1-0_
  6
CONTINUOUS
 62
    7
 10
131.72519580737966
 20
163.76421129381336
 40
0.1323198466687589
  0
CIRCLE
  8
_1-0_
  6
CONTINUOUS
 62
    7
 10
133.08630041173987
 20
162.69899522936024
 40
0.1323198466687589
  0
CIRCLE
  8
_1-0_
  6
CONTINUOUS
 62
    7
 10
132.19862242002745
 20
162.52146952861065
 40
0.1323198466687589
  0
CIRCLE
  8
_1-0_
  6
CONTINUOUS
 62
    7
 10
135.03918209591427
 20
162.28475622228675
 40
0.1323198466687589
  0
CIRCLE
  8
_1-0_
  6
CONTINUOUS
 62
    7
 10
134.68410595043287
 20
163.94173699456294
 40
0.1323198466687589
  0
CIRCLE
  8
_1-0_
  6
CONTINUOUS
 62
    7
 10
134.37796102987755
 20
161.8563512853674
 40
0.1323198466687589
  0
CIRCLE
  8
_1-0_
  6
CONTINUOUS
 62
    7
 10
135.02892571526604
 20
162.98074258340372
 40
0.1323198466687589
  0
CIRCLE
  8
_1-0_
  6
CONTINUOUS
 62
    7
 10
133.72699634448904
 20
161.73800081820102
 40
0.1323198466687589
  0
CIRCLE
  8
_1-0_
  6
CONTINUOUS
 62
    7
 10
133.19439449825802
 20
161.26457420555323
 40
0.1323198466687589
  0
CIRCLE
  8
_1-0_
  6
CONTINUOUS
 62
    7
 10
133.25358210383234
 20
163.21745588972763
 40
0.1323198466687589
  0
CIRCLE
  8
_1-0_
  6
CONTINUOUS
 62
    7
 10
138.04701109190245
 20
161.67881321262669
 40
0.1323198466687589
  0
CIRCLE
  8
_1-0_
  6
CONTINUOUS
 62
    7
 10
136.33084271405195
 20
161.73800081820102
 40
0.1323198466687589
  0
CIRCLE
  8
_1-0_
  6
CONTINUOUS
 62
    7
 10
135.32481425517315
 20
161.67881321262669
 40
0.1323198466687589
  0
CIRCLE
  8
_1-0_
  6
CONTINUOUS
 62
    7
 10
135.26563902158995
 20
160.79114759290542
 40
0.1323198466687589
  0
CIRCLE
  8
_1-0_
  6
CONTINUOUS
 62
    7
 10
139.34892809068836
 20
160.43607144742398
 40
0.1323198466687589
  0
CIRCLE
  8
_1-0_
  6
CONTINUOUS
 62
    7
 10
140.88755839579815
 20
160.55443428658151
 40
0.1323198466687589
  0
CIRCLE
  8
_1-0_
  6
CONTINUOUS
 62
    7
 10
139.52645379143792
 20
163.27663112331081
 40
0.1323198466687589
  0
CIRCLE
  8
_1-0_
  6
CONTINUOUS
 62
    7
 10
140.88755839579815
 20
162.21141505885768
 40
0.1323198466687589
  0
CIRCLE
  8
_1-0_
  6
CONTINUOUS
 62
    7
 10
139.99988040408573
 20
162.03388935810813
 40
0.1323198466687589
  0
CIRCLE
  8
_1-0_
  6
CONTINUOUS
 62
    7
 10
142.84044007997255
 20
161.79717605178422
 40
0.1323198466687589
  0
CIRCLE
  8
_1-0_
  6
CONTINUOUS
 62
    7
 10
142.48536393449115
 20
163.45415682406039
 40
0.1323198466687589
  0
CIRCLE
  8
_1-0_
  6
CONTINUOUS
 62
    7
 10
142.78871278505068
 20
161.97824014199747
 40
0.1323198466687589
  0
CIRCLE
  8
_1-0_
  6
CONTINUOUS
 62
    7
 10
143.43967747043919
 20
163.1026314400338
 40
0.1323198466687589
  0
CIRCLE
  8
_1-0_
  6
CONTINUOUS
 62
    7
 10
142.13774809966216
 20
161.85988967483109
 40
0.1323198466687589
  0
CIRCLE
  8
_1-0_
  6
CONTINUOUS
 62
    7
 10
141.60514625343117
 20
161.38646306218328
 40
0.1323198466687589
  0
CIRCLE
  8
_1-0_
  6
CONTINUOUS
 62
    7
 10
141.6643338590055
 20
163.33934474635768
 40
0.1323198466687589
  0
CIRCLE
  8
_1-0_
  6
CONTINUOUS
 62
    7
 10
146.4577628470756
 20
161.80070206925677
 40
0.1323198466687589
  0
CIRCLE
  8
_1-0_
  6
CONTINUOUS
 62
    7
 10
144.74159446922511
 20
161.85988967483109
 40
0.1323198466687589
  0
CIRCLE
  8
_1-0_
  6
CONTINUOUS
 62
    7
 10
143.7355660103463
 20
161.80070206925677
 40
0.1323198466687589
  0
CIRCLE
  8
_1-0_
  6
CONTINUOUS
 62
    7
 10
143.6763907767631
 20
160.91303644953547
 40
0.1323198466687589
  0
CIRCLE
  8
_1-0_
  6
CONTINUOUS
 62
    7
 10
147.75967984586148
 20
160.55796030405406
 40
0.1323198466687589
  0
CIRCLE
  8
_1-0_
  6
CONTINUOUS
 62
    7
 10
149.2983101509713
 20
160.67632314321159
 40
0.1323198466687589
  0
CIRCLE
  8
_1-0_
  6
CONTINUOUS
 62
    7
 10
147.93720554661107
 20
163.39851997994089
 40
0.1323198466687589
  0
CIRCLE
  8
_1-0_
  6
CONTINUOUS
 62
    7
 10
149.2983101509713
 20
162.33330391548776
 40
0.1323198466687589
  0
CIRCLE
  8
_1-0_
  6
CONTINUOUS
 62
    7
 10
148.41063215925888
 20
162.15577821473818
 40
0.1323198466687589
  0
CIRCLE
  8
_1-0_
  6
CONTINUOUS
 62
    7
 10
151.2511918351457
 20
161.91906490841427
 40
0.1323198466687589
  0
CIRCLE
  8
_1-0_
  6
CONTINUOUS
 62
    7
 10
150.89611568966427
 20
163.57604568069047
 40
0.1323198466687589
  0
CIRCLE
  8
_1-0_
  6
CONTINUOUS
 62
    7
 10
150.95566208298143
 20
162.4658203125
 40
0.1323198466687589
  0
CIRCLE
  8
_1-0_
  6
CONTINUOUS
 62
    7
 10
151.60662676836995
 20
163.59021161053633
 40
0.1323198466687589
  0
CIRCLE
  8
_1-0_
  6
CONTINUOUS
 62
    7
 10
150.30469739759292
 20
162.34746984533362
 40
0.1323198466687589
  0
CIRCLE
  8
_1-0_
  6
CONTINUOUS
 62
    7
 10
149.77209555136193
 20
161.87404323268581
 40
0.1323198466687589
  0
CIRCLE
  8
_1-0_
  6
CONTINUOUS
 62
    7
 10
149.83128315693625
 20
163.82692491686024
 40
0.1323198466687589
  0
CIRCLE
  8
_1-0_
  6
CONTINUOUS
 62
    7
 10
154.62471214500636
 20
162.2882822397593
 40
0.1323198466687589
  0
CIRCLE
  8
_1-0_
  6
CONTINUOUS
 62
    7
 10
152.90854376715583
 20
162.34746984533362
 40
0.1323198466687589
  0
CIRCLE
  8
_1-0_
  6
CONTINUOUS
 62
    7
 10
151.90251530827703
 20
162.2882822397593
 40
0.1323198466687589
  0
CIRCLE
  8
_1-0_
  6
CONTINUOUS
 62
    7
 10
151.84334007469386
 20
161.40061662003802
 40
0.1323198466687589
  0
CIRCLE
  8
_1-0_
  6
CONTINUOUS
 62
    7
 10
155.92662914379224
 20
161.04554047455659
 40
0.1323198466687589
  0
CIRCLE
  8
_1-0_
  6
CONTINUOUS
 62
    7
 10
157.46525944890203
 20
161.16390331371412
 40
0.1323198466687589
  0
CIRCLE
  8
_1-0_
  6
CONTINUOUS
 62
    7
 10
156.10415484454182
 20
163.88610015044341
 40
0.1323198466687589
  0
CIRCLE
  8
_1-0_
  6
CONTINUOUS
 62
    7
 10
157.46525944890203
 20
162.82088408599029
 40
0.1323198466687589
  0
CIRCLE
  8
_1-0_
  6
CONTINUOUS
 62
    7
 10
156.57758145718961
 20
162.64335838524073
 40
0.1323198466687589
  0
CIRCLE
  8
_1-0_
  6
CONTINUOUS
 62
    7
 10
159.41814113307643
 20
162.40664507891682
 40
0.1323198466687589
  0
CIRCLE
  8
_1-0_
  6
CONTINUOUS
 62
    7
 10
159.06306498759503
 20
164.063625851193
 40
0.1323198466687589
  0
CIRCLE
  8
_1-0_
  6
CONTINUOUS
 62
    7
 10
163.26703045819258
 20
162.95340048300255
 40
0.1323198466687589
  0
CIRCLE
  8
_1-0_
  6
CONTINUOUS
 62
    7
 10
163.91799514358109
 20
164.07779178103885
 40
0.1323198466687589
  0
CIRCLE
  8
_1-0_
  6
CONTINUOUS
 62
    7
 10
162.61606577280406
 20
162.83505001583615
 40
0.1323198466687589
  0
CIRCLE
  8
_1-0_
  6
CONTINUOUS
 62
    7
 10
162.08346392657307
 20
162.36162340318836
 40
0.1323198466687589
  0
CIRCLE
  8
_1-0_
  6
CONTINUOUS
 62
    7
 10
162.1426515321474
 20
164.31450508736276
 40
0.1323198466687589
  0
CIRCLE
  8
_1-0_
  6
CONTINUOUS
 62
    7
 10
166.9360805202175
 20
162.77586241026182
 40
0.1323198466687589
  0
CIRCLE
  8
_1-0_
  6
CONTINUOUS
 62
    7
 10
165.21991214236698
 20
162.83505001583615
 40
0.1323198466687589
  0
CIRCLE
  8
_1-0_
  6
CONTINUOUS
 62
    7
 10
164.21388368348818
 20
162.77586241026182
 40
0.1323198466687589
  0
CIRCLE
  8
_1-0_
  6
CONTINUOUS
 62
    7
 10
164.154708449905
 20
161.88819679054055
 40
0.1323198466687589
  0
CIRCLE
  8
_1-0_
  6
CONTINUOUS
 62
    7
 10
168.23799751900339
 20
161.53312064505914
 40
0.1323198466687589
  0
CIRCLE
  8
_1-0_
  6
CONTINUOUS
 62
    7
 10
169.77662782411318
 20
161.65148348421664
 40
0.1323198466687589
  0
CIRCLE
  8
_1-0_
  6
CONTINUOUS
 62
    7
 10
168.41552321975297
 20
164.37368032094597
 40
0.1323198466687589
  0
CIRCLE
  8
_1-0_
  6
CONTINUOUS
 62
    7
 10
169.77662782411318
 20
163.30846425649284
 40
0.1323198466687589
  0
CIRCLE
  8
_1-0_
  6
CONTINUOUS
 62
    7
 10
168.88894983240078
 20
163.13093855574326
 40
0.1323198466687589
  0
CIRCLE
  8
_1-0_
  6
CONTINUOUS
 62
    7
 10
171.72950950828761
 20
162.89422524941935
 40
0.1323198466687589
  0
CIRCLE
  8
_1-0_
  6
CONTINUOUS
 62
    7
 10
171.37443336280617
 20
164.55120602169552
 40
0.1323198466687589
  0
CIRCLE
  8
_1-0_
  6
CONTINUOUS
 62
    7
 10
177.52871951541385
 20
161.61256120011615
 40
0.1323198466687589
  0
CIRCLE
  8
_1-0_
  6
CONTINUOUS
 62
    7
 10
178.17968420080237
 20
162.73695249815245
 40
0.1323198466687589
  0
CIRCLE
  8
_1-0_
  6
CONTINUOUS
 62
    7
 10
176.87775483002534
 20
161.49421073294977
 40
0.1323198466687589
  0
CIRCLE
  8
_1-0_
  6
CONTINUOUS
 62
    7
 10
176.34515298379435
 20
161.02078412030195
 40
0.1323198466687589
  0
CIRCLE
  8
_1-0_
  6
CONTINUOUS
 62
    7
 10
176.40434058936867
 20
162.97366580447635
 40
0.1323198466687589
  0
CIRCLE
  8
_1-0_
  6
CONTINUOUS
 62
    7
 10
181.19776957743878
 20
161.43502312737544
 40
0.1323198466687589
  0
CIRCLE
  8
_1-0_
  6
CONTINUOUS
 62
    7
 10
179.48160119958828
 20
161.49421073294977
 40
0.1323198466687589
  0
CIRCLE
  8
_1-0_
  6
CONTINUOUS
 62
    7
 10
178.47557274070948
 20
161.43502312737544
 40
0.1323198466687589
  0
CIRCLE
  8
_1-0_
  6
CONTINUOUS
 62
    7
 10
178.41639750712628
 20
160.54735750765414
 40
0.1323198466687589
  0
CIRCLE
  8
_1-0_
  6
CONTINUOUS
 62
    7
 10
182.49968657622466
 20
160.19228136217274
 40
0.1323198466687589
  0
CIRCLE
  8
_1-0_
  6
CONTINUOUS
 62
    7
 10
184.03831688133448
 20
160.31064420133023
 40
0.1323198466687589
  0
CIRCLE
  8
_1-0_
  6
CONTINUOUS
 62
    7
 10
182.67721227697425
 20
163.03284103805956
 40
0.1323198466687589
  0
CIRCLE
  8
_1-0_
  6
CONTINUOUS
 62
    7
 10
184.03831688133448
 20
161.96762497360643
 40
0.1323198466687589
  0
CIRCLE
  8
_1-0_
  6
CONTINUOUS
 62
    7
 10
183.15063888962206
 20
161.79009927285685
 40
0.1323198466687589
  0
CIRCLE
  8
_1-0_
  6
CONTINUOUS
 62
    7
 10
185.99119856550888
 20
161.55338596653294
 40
0.1323198466687589
  0
CIRCLE
  8
_1-0_
  6
CONTINUOUS
 62
    7
 10
185.63612242002745
 20
163.21036673880914
 40
0.1323198466687589
  0
CIRCLE
  8
_1-0_
  6
CONTINUOUS
 62
    7
 10
194.95967968090162
 20
162.10014137061867
 40
0.1323198466687589
  0
CIRCLE
  8
_1-0_
  6
CONTINUOUS
 62
    7
 10
195.61064436629013
 20
163.224532668655
 40
0.1323198466687589
  0
CIRCLE
  8
_1-0_
  6
CONTINUOUS
 62
    7
 10
194.3087149955131
 20
161.98179090345229
 40
0.1323198466687589
  0
CIRCLE
  8
_1-0_
  6
CONTINUOUS
 62
    7
 10
193.77611314928211
 20
161.50836429080448
 40
0.1323198466687589
  0
CIRCLE
  8
_1-0_
  6
CONTINUOUS
 62
    7
 10
193.83530075485643
 20
163.46124597497891
 40
0.1323198466687589
  0
CIRCLE
  8
_1-0_
  6
CONTINUOUS
 62
    7
 10
198.62872974292654
 20
161.92260329787797
 40
0.1323198466687589
  0
CIRCLE
  8
_1-0_
  6
CONTINUOUS
 62
    7
 10
196.91256136507602
 20
161.98179090345229
 40
0.1323198466687589
  0
CIRCLE
  8
_1-0_
  6
CONTINUOUS
 62
    7
 10
195.90653290619721
 20
161.92260329787797
 40
0.1323198466687589
  0
CIRCLE
  8
_1-0_
  6
CONTINUOUS
 62
    7
 10
195.84735767261404
 20
161.03493767815669
 40
0.1323198466687589
  0
CIRCLE
  8
_1-0_
  6
CONTINUOUS
 62
    7
 10
199.93064674171242
 20
160.67986153267526
 40
0.1323198466687589
  0
CIRCLE
  8
_1-0_
  6
CONTINUOUS
 62
    7
 10
201.46927704682221
 20
160.79822437183279
 40
0.1323198466687589
  0
CIRCLE
  8
_1-0_
  6
CONTINUOUS
 62
    7
 10
200.10817244246201
 20
163.52042120856208
 40
0.1323198466687589
  0
CIRCLE
  8
_1-0_
  6
CONTINUOUS
 62
    7
 10
201.46927704682221
 20
162.45520514410896
 40
0.1323198466687589
  0
CIRCLE
  8
_1-0_
  6
CONTINUOUS
 62
    7
 10
200.58159905510982
 20
162.27767944335938
 40
0.1323198466687589
  0
CIRCLE
  8
_1-0_
  6
CONTINUOUS
 62
    7
 10
203.42215873099664
 20
162.04096613703547
 40
0.1323198466687589
  0
CIRCLE
  8
_1-0_
  6
CONTINUOUS
 62
    7
 10
203.06708258551521
 20
163.69794690931167
 40
0.1323198466687589
  0
CIRCLE
  8
_1-0_
  6
CONTINUOUS
 62
    7
 10
185.20808864284206
 20
162.34393145586995
 40
0.1323198466687589
  0
CIRCLE
  8
_1-0_
  6
CONTINUOUS
 62
    7
 10
185.85905332823057
 20
163.46832275390625
 40
0.1323198466687589
  0
CIRCLE
  8
_1-0_
  6
CONTINUOUS
 62
    7
 10
184.55712395745357
 20
162.22558098870357
 40
0.1323198466687589
  0
CIRCLE
  8
_1-0_
  6
CONTINUOUS
 62
    7
 10
184.02452211122255
 20
161.75215437605576
 40
0.1323198466687589
  0
CIRCLE
  8
_1-0_
  6
CONTINUOUS
 62
    7
 10
184.08370971679687
 20
163.70503606023016
 40
0.1323198466687589
  0
CIRCLE
  8
_1-0_
  6
CONTINUOUS
 62
    7
 10
188.87713870486698
 20
162.16639338312922
 40
0.1323198466687589
  0
CIRCLE
  8
_1-0_
  6
CONTINUOUS
 62
    7
 10
187.16097032701649
 20
162.22558098870357
 40
0.1323198466687589
  0
CIRCLE
  8
_1-0_
  6
CONTINUOUS
 62
    7
 10
186.15494186813768
 20
162.16639338312922
 40
0.1323198466687589
  0
CIRCLE
  8
_1-0_
  6
CONTINUOUS
 62
    7
 10
186.09576663455448
 20
161.27872776340794
 40
0.1323198466687589
  0
CIRCLE
  8
_1-0_
  6
CONTINUOUS
 62
    7
 10
190.17905570365289
 20
160.92365161792654
 40
0.1323198466687589
  0
CIRCLE
  8
_1-0_
  6
CONTINUOUS
 62
    7
 10
191.71768600876268
 20
161.04201445708404
 40
0.1323198466687589
  0
CIRCLE
  8
_1-0_
  6
CONTINUOUS
 62
    7
 10
190.35658140440245
 20
163.76421129381336
 40
0.1323198466687589
  0
CIRCLE
  8
_1-0_
  6
CONTINUOUS
 62
    7
 10
191.71768600876268
 20
162.69899522936024
 40
0.1323198466687589
  0
CIRCLE
  8
_1-0_
  6
CONTINUOUS
 62
    7
 10
190.83000801705026
 20
162.52146952861065
 40
0.1323198466687589
  0
CIRCLE
  8
_1-0_
  6
CONTINUOUS
 62
    7
 10
193.67056769293708
 20
162.28475622228675
 40
0.1323198466687589
  0
CIRCLE
  8
_1-0_
  6
CONTINUOUS
 62
    7
 10
193.31549154745568
 20
163.94173699456294
 40
0.1323198466687589
  0
CIRCLE
  8
_1-0_
  6
CONTINUOUS
 62
    7
 10
207.51483814136404
 20
162.58770916913008
 40
0.1323198466687589
  0
CIRCLE
  8
_1-0_
  6
CONTINUOUS
 62
    7
 10
208.16580282675255
 20
163.71210046716641
 40
0.1323198466687589
  0
CIRCLE
  8
_1-0_
  6
CONTINUOUS
 62
    7
 10
206.86387345597552
 20
162.4693587019637
 40
0.1323198466687589
  0
CIRCLE
  8
_1-0_
  6
CONTINUOUS
 62
    7
 10
206.33127160974453
 20
161.99593208931589
 40
0.1323198466687589
  0
CIRCLE
  8
_1-0_
  6
CONTINUOUS
 62
    7
 10
206.39045921531886
 20
163.94881377349029
 40
0.1323198466687589
  0
CIRCLE
  8
_1-0_
  6
CONTINUOUS
 62
    7
 10
211.18390057538008
 20
162.41017109638938
 40
0.1323198466687589
  0
CIRCLE
  8
_1-0_
  6
CONTINUOUS
 62
    7
 10
209.46770745354732
 20
162.4693587019637
 40
0.1323198466687589
  0
CIRCLE
  8
_1-0_
  6
CONTINUOUS
 62
    7
 10
208.46169136665964
 20
162.41017109638938
 40
0.1323198466687589
  0
CIRCLE
  8
_1-0_
  6
CONTINUOUS
 62
    7
 10
208.40252850506758
 20
161.52250547666807
 40
0.1323198466687589
  0
CIRCLE
  8
_1-0_
  6
CONTINUOUS
 62
    7
 10
212.48580520217484
 20
161.16742933118667
 40
0.1323198466687589
  0
CIRCLE
  8
_1-0_
  6
CONTINUOUS
 62
    7
 10
214.02443550728464
 20
161.28579217034419
 40
0.1323198466687589
  0
CIRCLE
  8
_1-0_
  6
CONTINUOUS
 62
    7
 10
212.66334327491555
 20
164.00798900707349
 40
0.1323198466687589
  0
CIRCLE
  8
_1-0_
  6
CONTINUOUS
 62
    7
 10
214.02443550728464
 20
162.94277294262037
 40
0.1323198466687589
  0
CIRCLE
  8
_1-0_
  6
CONTINUOUS
 62
    7
 10
213.13674514358109
 20
162.76524724187078
 40
0.1323198466687589
  0
CIRCLE
  8
_1-0_
  6
CONTINUOUS
 62
    7
 10
215.97730481946792
 20
162.52853393554687
 40
0.1323198466687589
  0
CIRCLE
  8
_1-0_
  6
CONTINUOUS
 62
    7
 10
215.62222867398651
 20
164.18551470782307
 40
0.1323198466687589
  0
CIRCLE
  8
_1-0_
  6
CONTINUOUS
 62
    7
 10
216.53505892366977
 20
161.24686988624367
 40
0.1323198466687589
  0
CIRCLE
  8
_1-0_
  6
CONTINUOUS
 62
    7
 10
217.18602360905828
 20
162.37126118428
 40
0.1323198466687589
  0
CIRCLE
  8
_1-0_
  6
CONTINUOUS
 62
    7
 10
215.88409423828125
 20
161.12851941907729
 40
0.1323198466687589
  0
CIRCLE
  8
_1-0_
  6
CONTINUOUS
 62
    7
 10
215.35148002005914
 20
160.65509280642948
 40
0.1323198466687589
  0
CIRCLE
  8
_1-0_
  6
CONTINUOUS
 62
    7
 10
215.41066762563347
 20
162.60797449060391
 40
0.1323198466687589
  0
CIRCLE
  8
_1-0_
  6
CONTINUOUS
 62
    7
 10
220.20412135768584
 20
161.06933181350297
 40
0.1323198466687589
  0
CIRCLE
  8
_1-0_
  6
CONTINUOUS
 62
    7
 10
218.48792823585305
 20
161.12851941907729
 40
0.1323198466687589
  0
CIRCLE
  8
_1-0_
  6
CONTINUOUS
 62
    7
 10
217.48191214896539
 20
161.06933181350297
 40
0.1323198466687589
  0
CIRCLE
  8
_1-0_
  6
CONTINUOUS
 62
    7
 10
217.42274928737334
 20
160.18166619378169
 40
0.1323198466687589
  0
CIRCLE
  8
_1-0_
  6
CONTINUOUS
 62
    7
 10
221.50602598448057
 20
159.82659004830026
 40
0.1323198466687589
  0
CIRCLE
  8
_1-0_
  6
CONTINUOUS
 62
    7
 10
223.04465628959039
 20
159.94495288745779
 40
0.1323198466687589
  0
CIRCLE
  8
_1-0_
  6
CONTINUOUS
 62
    7
 10
221.6835640572213
 20
162.66714972418708
 40
0.1323198466687589
  0
CIRCLE
  8
_1-0_
  6
CONTINUOUS
 62
    7
 10
223.04465628959039
 20
161.60193365973396
 40
0.1323198466687589
  0
CIRCLE
  8
_1-0_
  6
CONTINUOUS
 62
    7
 10
222.15696592588682
 20
161.42440795898437
 40
0.1323198466687589
  0
CIRCLE
  8
_1-0_
  6
CONTINUOUS
 62
    7
 10
224.99752560177367
 20
161.18769465266047
 40
0.1323198466687589
  0
CIRCLE
  8
_1-0_
  6
CONTINUOUS
 62
    7
 10
224.64244945629224
 20
162.84467542493667
 40
0.1323198466687589
  0
CIRCLE
  8
_1-0_
  6
CONTINUOUS
 62
    7
 10
229.82158763988599
 20
162.4658203125
 40
0.1323198466687589
  0
CIRCLE
  8
_1-0_
  6
CONTINUOUS
 62
    7
 10
230.47255232527451
 20
163.59021161053633
 40
0.1323198466687589
  0
CIRCLE
  8
_1-0_
  6
CONTINUOUS
 62
    7
 10
229.17062295449747
 20
162.34746984533362
 40
0.1323198466687589
  0
CIRCLE
  8
_1-0_
  6
CONTINUOUS
 62
    7
 10
228.63800873627534
 20
161.87404323268581
 40
0.1323198466687589
  0
CIRCLE
  8
_1-0_
  6
CONTINUOUS
 62
    7
 10
228.69719634184966
 20
163.82692491686024
 40
0.1323198466687589
  0
CIRCLE
  8
_1-0_
  6
CONTINUOUS
 62
    7
 10
233.49065007390203
 20
162.2882822397593
 40
0.1323198466687589
  0
CIRCLE
  8
_1-0_
  6
CONTINUOUS
 62
    7
 10
231.77445695206927
 20
162.34746984533362
 40
0.1323198466687589
  0
CIRCLE
  8
_1-0_
  6
CONTINUOUS
 62
    7
 10
230.76844086518159
 20
162.2882822397593
 40
0.1323198466687589
  0
CIRCLE
  8
_1-0_
  6
CONTINUOUS
 62
    7
 10
230.70927800358953
 20
161.40061662003802
 40
0.1323198466687589
  0
CIRCLE
  8
_1-0_
  6
CONTINUOUS
 62
    7
 10
234.7925547006968
 20
161.04554047455659
 40
0.1323198466687589
  0
CIRCLE
  8
_1-0_
  6
CONTINUOUS
 62
    7
 10
236.33118500580659
 20
161.16390331371412
 40
0.1323198466687589
  0
CIRCLE
  8
_1-0_
  6
CONTINUOUS
 62
    7
 10
234.9700927734375
 20
163.88610015044341
 40
0.1323198466687589
  0
CIRCLE
  8
_1-0_
  6
CONTINUOUS
 62
    7
 10
236.33118500580659
 20
162.82088408599029
 40
0.1323198466687589
  0
CIRCLE
  8
_1-0_
  6
CONTINUOUS
 62
    7
 10
235.44349464210305
 20
162.64335838524073
 40
0.1323198466687589
  0
CIRCLE
  8
_1-0_
  6
CONTINUOUS
 62
    7
 10
238.28405431798987
 20
162.40664507891682
 40
0.1323198466687589
  0
CIRCLE
  8
_1-0_
  6
CONTINUOUS
 62
    7
 10
237.92897817250847
 20
164.063625851193
 40
0.1323198466687589
  0
CIRCLE
  8
_1-0_
  6
CONTINUOUS
 62
    7
 10
238.9636972788218
 20
162.34393145586995
 40
0.1323198466687589
  0
CIRCLE
  8
_1-0_
  6
CONTINUOUS
 62
    7
 10
239.61466196421031
 20
163.46832275390625
 40
0.1323198466687589
  0
CIRCLE
  8
_1-0_
  6
CONTINUOUS
 62
    7
 10
238.31273259343328
 20
162.22558098870357
 40
0.1323198466687589
  0
CIRCLE
  8
_1-0_
  6
CONTINUOUS
 62
    7
 10
237.78011837521117
 20
161.75215437605576
 40
0.1323198466687589
  0
CIRCLE
  8
_1-0_
  6
CONTINUOUS
 62
    7
 10
237.8393059807855
 20
163.70503606023016
 40
0.1323198466687589
  0
CIRCLE
  8
_1-0_
  6
CONTINUOUS
 62
    7
 10
242.63275971283784
 20
162.16639338312922
 40
0.1323198466687589
  0
CIRCLE
  8
_1-0_
  6
CONTINUOUS
 62
    7
 10
240.91656659100508
 20
162.22558098870357
 40
0.1323198466687589
  0
CIRCLE
  8
_1-0_
  6
CONTINUOUS
 62
    7
 10
239.91055050411742
 20
162.16639338312922
 40
0.1323198466687589
  0
CIRCLE
  8
_1-0_
  6
CONTINUOUS
 62
    7
 10
239.85138764252534
 20
161.27872776340794
 40
0.1323198466687589
  0
CIRCLE
  8
_1-0_
  6
CONTINUOUS
 62
    7
 10
243.9346643396326
 20
160.92365161792654
 40
0.1323198466687589
  0
CIRCLE
  8
_1-0_
  6
CONTINUOUS
 62
    7
 10
245.47329464474242
 20
161.04201445708404
 40
0.1323198466687589
  0
CIRCLE
  8
_1-0_
  6
CONTINUOUS
 62
    7
 10
244.11220241237334
 20
163.76421129381336
 40
0.1323198466687589
  0
CIRCLE
  8
_1-0_
  6
CONTINUOUS
 62
    7
 10
245.47329464474242
 20
162.69899522936024
 40
0.1323198466687589
  0
CIRCLE
  8
_1-0_
  6
CONTINUOUS
 62
    7
 10
244.58560428103885
 20
162.52146952861065
 40
0.1323198466687589
  0
CIRCLE
  8
_1-0_
  6
CONTINUOUS
 62
    7
 10
247.42616395692568
 20
162.28475622228675
 40
0.1323198466687589
  0
CIRCLE
  8
_1-0_
  6
CONTINUOUS
 62
    7
 10
247.07108781144427
 20
163.94173699456294
 40
0.1323198466687589
  0
CIRCLE
  8
_1-0_
  6
CONTINUOUS
 62
    7
 10
229.33400746938347
 20
162.83151162637247
 40
0.1323198466687589
  0
CIRCLE
  8
_1-0_
  6
CONTINUOUS
 62
    7
 10
229.98497215477198
 20
163.9559029244088
 40
0.1323198466687589
  0
CIRCLE
  8
_1-0_
  6
CONTINUOUS
 62
    7
 10
228.68304278399495
 20
162.71316115920609
 40
0.1323198466687589
  0
CIRCLE
  8
_1-0_
  6
CONTINUOUS
 62
    7
 10
228.15045330975508
 20
162.23973454655828
 40
0.1323198466687589
  0
CIRCLE
  8
_1-0_
  6
CONTINUOUS
 62
    7
 10
228.2096409153294
 20
164.19261623073268
 40
0.1323198466687589
  0
CIRCLE
  8
_1-0_
  6
CONTINUOUS
 62
    7
 10
233.00304515941724
 20
162.65397355363177
 40
0.1323198466687589
  0
CIRCLE
  8
_1-0_
  6
CONTINUOUS
 62
    7
 10
231.28690152554901
 20
162.71316115920609
 40
0.1323198466687589
  0
CIRCLE
  8
_1-0_
  6
CONTINUOUS
 62
    7
 10
230.28086069467906
 20
162.65397355363177
 40
0.1323198466687589
  0
CIRCLE
  8
_1-0_
  6
CONTINUOUS
 62
    7
 10
230.22167308910474
 20
161.76630793391047
 40
0.1323198466687589
  0
CIRCLE
  8
_1-0_
  6
CONTINUOUS
 62
    7
 10
234.30497453019427
 20
161.41123178842906
 40
0.1323198466687589
  0
CIRCLE
  8
_1-0_
  6
CONTINUOUS
 62
    7
 10
235.84360483530406
 20
161.52959462758659
 40
0.1323198466687589
  0
CIRCLE
  8
_1-0_
  6
CONTINUOUS
 62
    7
 10
234.48248785895271
 20
164.25179146431589
 40
0.1323198466687589
  0
CIRCLE
  8
_1-0_
  6
CONTINUOUS
 62
    7
 10
235.84360483530406
 20
163.18657539986276
 40
0.1323198466687589
  0
CIRCLE
  8
_1-0_
  6
CONTINUOUS
 62
    7
 10
234.95593921558279
 20
163.00904969911318
 40
0.1323198466687589
  0
CIRCLE
  8
_1-0_
  6
CONTINUOUS
 62
    7
 10
237.79649889146961
 20
162.77233639278927
 40
0.1323198466687589
  0
CIRCLE
  8
_1-0_
  6
CONTINUOUS
 62
    7
 10
237.44142274598818
 20
164.42931716506547
 40
0.1323198466687589
  0
CIRCLE
  8
_1-0_
  6
CONTINUOUS
 62
    7
 10
257.36980541332349
 20
163.0752893396326
 40
0.1323198466687589
  0
CIRCLE
  8
_1-0_
  6
CONTINUOUS
 62
    7
 10
258.02077009871203
 20
164.19968063766893
 40
0.1323198466687589
  0
CIRCLE
  8
_1-0_
  6
CONTINUOUS
 62
    7
 10
256.718840727935
 20
162.95693887246622
 40
0.1323198466687589
  0
CIRCLE
  8
_1-0_
  6
CONTINUOUS
 62
    7
 10
256.18622650971287
 20
162.48351225981841
 40
0.1323198466687589
  0
CIRCLE
  8
_1-0_
  6
CONTINUOUS
 62
    7
 10
256.24541411528719
 20
164.43639394399284
 40
0.1323198466687589
  0
CIRCLE
  8
_1-0_
  6
CONTINUOUS
 62
    7
 10
261.03886784733953
 20
162.8977512668919
 40
0.1323198466687589
  0
CIRCLE
  8
_1-0_
  6
CONTINUOUS
 62
    7
 10
259.32267472550677
 20
162.95693887246622
 40
0.1323198466687589
  0
CIRCLE
  8
_1-0_
  6
CONTINUOUS
 62
    7
 10
258.31665863861912
 20
162.8977512668919
 40
0.1323198466687589
  0
CIRCLE
  8
_1-0_
  6
CONTINUOUS
 62
    7
 10
258.25749577702703
 20
162.01008564717063
 40
0.1323198466687589
  0
CIRCLE
  8
_1-0_
  6
CONTINUOUS
 62
    7
 10
262.34077247413433
 20
161.65500950168919
 40
0.1323198466687589
  0
CIRCLE
  8
_1-0_
  6
CONTINUOUS
 62
    7
 10
263.87940277924412
 20
161.77337234084672
 40
0.1323198466687589
  0
CIRCLE
  8
_1-0_
  6
CONTINUOUS
 62
    7
 10
262.518310546875
 20
164.49556917757602
 40
0.1323198466687589
  0
CIRCLE
  8
_1-0_
  6
CONTINUOUS
 62
    7
 10
263.87940277924412
 20
163.43035311312289
 40
0.1323198466687589
  0
CIRCLE
  8
_1-0_
  6
CONTINUOUS
 62
    7
 10
262.99171241554058
 20
163.25282741237331
 40
0.1323198466687589
  0
CIRCLE
  8
_1-0_
  6
CONTINUOUS
 62
    7
 10
265.8322720914274
 20
163.01611410604943
 40
0.1323198466687589
  0
CIRCLE
  8
_1-0_
  6
CONTINUOUS
 62
    7
 10
265.47719594594594
 20
164.6730948783256
 40
0.1323198466687589
  0
CIRCLE
  8
_1-0_
  6
CONTINUOUS
 62
    7
 10
249.69043628589529
 20
162.4658203125
 40
0.1323198466687589
  0
CIRCLE
  8
_1-0_
  6
CONTINUOUS
 62
    7
 10
250.3414009712838
 20
163.59021161053633
 40
0.1323198466687589
  0
CIRCLE
  8
_1-0_
  6
CONTINUOUS
 62
    7
 10
249.03947160050677
 20
162.34746984533362
 40
0.1323198466687589
  0
CIRCLE
  8
_1-0_
  6
CONTINUOUS
 62
    7
 10
248.5068821262669
 20
161.87404323268581
 40
0.1323198466687589
  0
CIRCLE
  8
_1-0_
  6
CONTINUOUS
 62
    7
 10
248.56606973184122
 20
163.82692491686024
 40
0.1323198466687589
  0
CIRCLE
  8
_1-0_
  6
CONTINUOUS
 62
    7
 10
253.35947397592906
 20
162.2882822397593
 40
0.1323198466687589
  0
CIRCLE
  8
_1-0_
  6
CONTINUOUS
 62
    7
 10
251.64333034206084
 20
162.34746984533362
 40
0.1323198466687589
  0
CIRCLE
  8
_1-0_
  6
CONTINUOUS
 62
    7
 10
250.63728951119089
 20
162.2882822397593
 40
0.1323198466687589
  0
CIRCLE
  8
_1-0_
  6
CONTINUOUS
 62
    7
 10
250.57810190561656
 20
161.40061662003802
 40
0.1323198466687589
  0
CIRCLE
  8
_1-0_
  6
CONTINUOUS
 62
    7
 10
254.66140334670609
 20
161.04554047455659
 40
0.1323198466687589
  0
CIRCLE
  8
_1-0_
  6
CONTINUOUS
 62
    7
 10
256.20003365181589
 20
161.16390331371412
 40
0.1323198466687589
  0
CIRCLE
  8
_1-0_
  6
CONTINUOUS
 62
    7
 10
254.83891667546453
 20
163.88610015044341
 40
0.1323198466687589
  0
CIRCLE
  8
_1-0_
  6
CONTINUOUS
 62
    7
 10
256.20003365181589
 20
162.82088408599029
 40
0.1323198466687589
  0
CIRCLE
  8
_1-0_
  6
CONTINUOUS
 62
    7
 10
255.31236803209461
 20
162.64335838524073
 40
0.1323198466687589
  0
CIRCLE
  8
_1-0_
  6
CONTINUOUS
 62
    7
 10
258.15292770798141
 20
162.40664507891682
 40
0.1323198466687589
  0
CIRCLE
  8
_1-0_
  6
CONTINUOUS
 62
    7
 10
257.7978515625
 20
164.063625851193
 40
0.1323198466687589
  0
CIRCLE
  8
_1-0_
  6
CONTINUOUS
 62
    7
 10
266.26813733899917
 20
161.61256120011615
 40
0.1323198466687589
  0
CIRCLE
  8
_1-0_
  6
CONTINUOUS
 62
    7
 10
266.91910202438771
 20
162.73695249815245
 40
0.1323198466687589
  0
CIRCLE
  8
_1-0_
  6
CONTINUOUS
 62
    7
 10
265.61717265361068
 20
161.49421073294977
 40
0.1323198466687589
  0
CIRCLE
  8
_1-0_
  6
CONTINUOUS
 62
    7
 10
265.08455843538854
 20
161.02078412030195
 40
0.1323198466687589
  0
CIRCLE
  8
_1-0_
  6
CONTINUOUS
 62
    7
 10
265.14374604096287
 20
162.97366580447635
 40
0.1323198466687589
  0
CIRCLE
  8
_1-0_
  6
CONTINUOUS
 62
    7
 10
269.93719977301521
 20
161.43502312737544
 40
0.1323198466687589
  0
CIRCLE
  8
_1-0_
  6
CONTINUOUS
 62
    7
 10
268.22100665118245
 20
161.49421073294977
 40
0.1323198466687589
  0
CIRCLE
  8
_1-0_
  6
CONTINUOUS
 62
    7
 10
267.21499056429479
 20
161.43502312737544
 40
0.1323198466687589
  0
CIRCLE
  8
_1-0_
  6
CONTINUOUS
 62
    7
 10
267.15582770270271
 20
160.54735750765414
 40
0.1323198466687589
  0
CIRCLE
  8
_1-0_
  6
CONTINUOUS
 62
    7
 10
271.23910439981
 20
160.19228136217274
 40
0.1323198466687589
  0
CIRCLE
  8
_1-0_
  6
CONTINUOUS
 62
    7
 10
272.77773470491979
 20
160.31064420133023
 40
0.1323198466687589
  0
CIRCLE
  8
_1-0_
  6
CONTINUOUS
 62
    7
 10
271.41664247255068
 20
163.03284103805956
 40
0.1323198466687589
  0
CIRCLE
  8
_1-0_
  6
CONTINUOUS
 62
    7
 10
272.77773470491979
 20
161.96762497360643
 40
0.1323198466687589
  0
CIRCLE
  8
_1-0_
  6
CONTINUOUS
 62
    7
 10
271.89004434121625
 20
161.79009927285685
 40
0.1323198466687589
  0
CIRCLE
  8
_1-0_
  6
CONTINUOUS
 62
    7
 10
274.73060401710308
 20
161.55338596653294
 40
0.1323198466687589
  0
CIRCLE
  8
_1-0_
  6
CONTINUOUS
 62
    7
 10
274.37552787162161
 20
163.21036673880914
 40
0.1323198466687589
  0
CIRCLE
  8
_1-0_
  6
CONTINUOUS
 62
    7
 10
282.23634462098818
 20
162.10014137061867
 40
0.1323198466687589
  0
CIRCLE
  8
_1-0_
  6
CONTINUOUS
 62
    7
 10
282.88730930637672
 20
163.224532668655
 40
0.1323198466687589
  0
CIRCLE
  8
_1-0_
  6
CONTINUOUS
 62
    7
 10
281.58537993559969
 20
161.98179090345229
 40
0.1323198466687589
  0
CIRCLE
  8
_1-0_
  6
CONTINUOUS
 62
    7
 10
281.05279046135979
 20
161.50836429080448
 40
0.1323198466687589
  0
CIRCLE
  8
_1-0_
  6
CONTINUOUS
 62
    7
 10
281.11197806693411
 20
163.46124597497891
 40
0.1323198466687589
  0
CIRCLE
  8
_1-0_
  6
CONTINUOUS
 62
    7
 10
285.90538231102198
 20
161.92260329787797
 40
0.1323198466687589
  0
CIRCLE
  8
_1-0_
  6
CONTINUOUS
 62
    7
 10
284.18923867715375
 20
161.98179090345229
 40
0.1323198466687589
  0
CIRCLE
  8
_1-0_
  6
CONTINUOUS
 62
    7
 10
283.1831978462838
 20
161.92260329787797
 40
0.1323198466687589
  0
CIRCLE
  8
_1-0_
  6
CONTINUOUS
 62
    7
 10
283.12401024070948
 20
161.03493767815669
 40
0.1323198466687589
  0
CIRCLE
  8
_1-0_
  6
CONTINUOUS
 62
    7
 10
287.20731168179901
 20
160.67986153267526
 40
0.1323198466687589
  0
CIRCLE
  8
_1-0_
  6
CONTINUOUS
 62
    7
 10
288.7459419869088
 20
160.79822437183279
 40
0.1323198466687589
  0
CIRCLE
  8
_1-0_
  6
CONTINUOUS
 62
    7
 10
287.38482501055745
 20
163.52042120856208
 40
0.1323198466687589
  0
CIRCLE
  8
_1-0_
  6
CONTINUOUS
 62
    7
 10
288.7459419869088
 20
162.45520514410896
 40
0.1323198466687589
  0
CIRCLE
  8
_1-0_
  6
CONTINUOUS
 62
    7
 10
287.8582763671875
 20
162.27767944335938
 40
0.1323198466687589
  0
CIRCLE
  8
_1-0_
  6
CONTINUOUS
 62
    7
 10
290.69883604307432
 20
162.04096613703547
 40
0.1323198466687589
  0
CIRCLE
  8
_1-0_
  6
CONTINUOUS
 62
    7
 10
290.34375989759292
 20
163.69794690931167
 40
0.1323198466687589
  0
CIRCLE
  8
_1-0_
  6
CONTINUOUS
 62
    7
 10
286.86834386877115
 20
162.83151162637247
 40
0.1323198466687589
  0
CIRCLE
  8
_1-0_
  6
CONTINUOUS
 62
    7
 10
287.51930855415964
 20
163.9559029244088
 40
0.1323198466687589
  0
CIRCLE
  8
_1-0_
  6
CONTINUOUS
 62
    7
 10
286.2173791833826
 20
162.71316115920609
 40
0.1323198466687589
  0
CIRCLE
  8
_1-0_
  6
CONTINUOUS
 62
    7
 10
285.68476496516047
 20
162.23973454655828
 40
0.1323198466687589
  0
CIRCLE
  8
_1-0_
  6
CONTINUOUS
 62
    7
 10
285.74395257073479
 20
164.19261623073268
 40
0.1323198466687589
  0
CIRCLE
  8
_1-0_
  6
CONTINUOUS
 62
    7
 10
290.53740630278719
 20
162.65397355363177
 40
0.1323198466687589
  0
CIRCLE
  8
_1-0_
  6
CONTINUOUS
 62
    7
 10
288.82121318095443
 20
162.71316115920609
 40
0.1323198466687589
  0
CIRCLE
  8
_1-0_
  6
CONTINUOUS
 62
    7
 10
287.81519709406672
 20
162.65397355363177
 40
0.1323198466687589
  0
CIRCLE
  8
_1-0_
  6
CONTINUOUS
 62
    7
 10
287.75603423247469
 20
161.76630793391047
 40
0.1323198466687589
  0
CIRCLE
  8
_1-0_
  6
CONTINUOUS
 62
    7
 10
291.83931092958193
 20
161.41123178842906
 40
0.1323198466687589
  0
CIRCLE
  8
_1-0_
  6
CONTINUOUS
 62
    7
 10
293.37794123469172
 20
161.52959462758659
 40
0.1323198466687589
  0
CIRCLE
  8
_1-0_
  6
CONTINUOUS
 62
    7
 10
292.01684900232266
 20
164.25179146431589
 40
0.1323198466687589
  0
CIRCLE
  8
_1-0_
  6
CONTINUOUS
 62
    7
 10
293.37794123469172
 20
163.18657539986276
 40
0.1323198466687589
  0
CIRCLE
  8
_1-0_
  6
CONTINUOUS
 62
    7
 10
292.49025087098818
 20
163.00904969911318
 40
0.1323198466687589
  0
CIRCLE
  8
_1-0_
  6
CONTINUOUS
 62
    7
 10
295.330810546875
 20
162.77233639278927
 40
0.1323198466687589
  0
CIRCLE
  8
_1-0_
  6
CONTINUOUS
 62
    7
 10
294.97573440139359
 20
164.42931716506547
 40
0.1323198466687589
  0
CIRCLE
  8
_1-0_
  6
CONTINUOUS
 62
    7
 10
296.86372499208193
 20
162.58770916913008
 40
0.1323198466687589
  0
CIRCLE
  8
_1-0_
  6
CONTINUOUS
 62
    7
 10
297.51468967747047
 20
163.71210046716641
 40
0.1323198466687589
  0
CIRCLE
  8
_1-0_
  6
CONTINUOUS
 62
    7
 10
296.21276030669344
 20
162.4693587019637
 40
0.1323198466687589
  0
CIRCLE
  8
_1-0_
  6
CONTINUOUS
 62
    7
 10
295.6801460884713
 20
161.99593208931589
 40
0.1323198466687589
  0
CIRCLE
  8
_1-0_
  6
CONTINUOUS
 62
    7
 10
295.73933369404563
 20
163.94881377349029
 40
0.1323198466687589
  0
CIRCLE
  8
_1-0_
  6
CONTINUOUS
 62
    7
 10
300.53278742609797
 20
162.41017109638938
 40
0.1323198466687589
  0
CIRCLE
  8
_1-0_
  6
CONTINUOUS
 62
    7
 10
298.81659430426521
 20
162.4693587019637
 40
0.1323198466687589
  0
CIRCLE
  8
_1-0_
  6
CONTINUOUS
 62
    7
 10
297.81057821737755
 20
162.41017109638938
 40
0.1323198466687589
  0
CIRCLE
  8
_1-0_
  6
CONTINUOUS
 62
    7
 10
297.75141535578547
 20
161.52250547666807
 40
0.1323198466687589
  0
CIRCLE
  8
_1-0_
  6
CONTINUOUS
 62
    7
 10
301.83469205289276
 20
161.16742933118667
 40
0.1323198466687589
  0
CIRCLE
  8
_1-0_
  6
CONTINUOUS
 62
    7
 10
303.37332235800255
 20
161.28579217034419
 40
0.1323198466687589
  0
CIRCLE
  8
_1-0_
  6
CONTINUOUS
 62
    7
 10
302.01223012563344
 20
164.00798900707349
 40
0.1323198466687589
  0
CIRCLE
  8
_1-0_
  6
CONTINUOUS
 62
    7
 10
303.37332235800255
 20
162.94277294262037
 40
0.1323198466687589
  0
CIRCLE
  8
_1-0_
  6
CONTINUOUS
 62
    7
 10
302.48563199429901
 20
162.76524724187078
 40
0.1323198466687589
  0
CIRCLE
  8
_1-0_
  6
CONTINUOUS
 62
    7
 10
305.32619167018584
 20
162.52853393554687
 40
0.1323198466687589
  0
CIRCLE
  8
_1-0_
  6
CONTINUOUS
 62
    7
 10
304.97111552470443
 20
164.18551470782307
 40
0.1323198466687589
  0
CIRCLE
  8
_1-0_
  6
CONTINUOUS
 62
    7
 10
306.49341480152026
 20
162.22203022724875
 40
0.1323198466687589
  0
CIRCLE
  8
_1-0_
  6
CONTINUOUS
 62
    7
 10
307.1443794869088
 20
163.34642152528505
 40
0.1323198466687589
  0
CIRCLE
  8
_1-0_
  6
CONTINUOUS
 62
    7
 10
305.84245011613177
 20
162.10367976008234
 40
0.1323198466687589
  0
CIRCLE
  8
_1-0_
  6
CONTINUOUS
 62
    7
 10
305.30986064189193
 20
161.63025314743456
 40
0.1323198466687589
  0
CIRCLE
  8
_1-0_
  6
CONTINUOUS
 62
    7
 10
305.36904824746625
 20
163.58313483160896
 40
0.1323198466687589
  0
CIRCLE
  8
_1-0_
  6
CONTINUOUS
 62
    7
 10
310.16245249155406
 20
162.04449215450802
 40
0.1323198466687589
  0
CIRCLE
  8
_1-0_
  6
CONTINUOUS
 62
    7
 10
308.44630885768584
 20
162.10367976008234
 40
0.1323198466687589
  0
CIRCLE
  8
_1-0_
  6
CONTINUOUS
 62
    7
 10
307.44026802681589
 20
162.04449215450802
 40
0.1323198466687589
  0
CIRCLE
  8
_1-0_
  6
CONTINUOUS
 62
    7
 10
307.38108042124156
 20
161.15682653478675
 40
0.1323198466687589
  0
CIRCLE
  8
_1-0_
  6
CONTINUOUS
 62
    7
 10
311.46438186233109
 20
160.80175038930534
 40
0.1323198466687589
  0
CIRCLE
  8
_1-0_
  6
CONTINUOUS
 62
    7
 10
313.00301216744089
 20
160.92011322846284
 40
0.1323198466687589
  0
CIRCLE
  8
_1-0_
  6
CONTINUOUS
 62
    7
 10
311.64189519108953
 20
163.64231006519216
 40
0.1323198466687589
  0
CIRCLE
  8
_1-0_
  6
CONTINUOUS
 62
    7
 10
313.00301216744089
 20
162.57709400073904
 40
0.1323198466687589
  0
CIRCLE
  8
_1-0_
  6
CONTINUOUS
 62
    7
 10
312.11534654771964
 20
162.39956829998945
 40
0.1323198466687589
  0
CIRCLE
  8
_1-0_
  6
CONTINUOUS
 62
    7
 10
314.95590622360646
 20
162.16285499366555
 40
0.1323198466687589
  0
CIRCLE
  8
_1-0_
  6
CONTINUOUS
 62
    7
 10
314.600830078125
 20
163.81983576594172
 40
0.1323198466687589
  0
CIRCLE
  8
_1-0_
  6
CONTINUOUS
 62
    7
 10
318.19531414959886
 20
162.70961039775128
 40
0.1323198466687589
  0
CIRCLE
  8
_1-0_
  6
CONTINUOUS
 62
    7
 10
318.84627883498734
 20
163.83400169578761
 40
0.1323198466687589
  0
CIRCLE
  8
_1-0_
  6
CONTINUOUS
 62
    7
 10
317.54434946421031
 20
162.5912599305849
 40
0.1323198466687589
  0
CIRCLE
  8
_1-0_
  6
CONTINUOUS
 62
    7
 10
317.01173524598818
 20
162.11783331793708
 40
0.1323198466687589
  0
CIRCLE
  8
_1-0_
  6
CONTINUOUS
 62
    7
 10
317.0709228515625
 20
164.07071500211148
 40
0.1323198466687589
  0
CIRCLE
  8
_1-0_
  6
CONTINUOUS
 62
    7
 10
321.8643765836149
 20
162.53207232501057
 40
0.1323198466687589
  0
CIRCLE
  8
_1-0_
  6
CONTINUOUS
 62
    7
 10
320.14818346178214
 20
162.5912599305849
 40
0.1323198466687589
  0
CIRCLE
  8
_1-0_
  6
CONTINUOUS
 62
    7
 10
319.14216737489443
 20
162.53207232501057
 40
0.1323198466687589
  0
CIRCLE
  8
_1-0_
  6
CONTINUOUS
 62
    7
 10
319.0830045133024
 20
161.64440670528927
 40
0.1323198466687589
  0
CIRCLE
  8
_1-0_
  6
CONTINUOUS
 62
    7
 10
323.16628121040964
 20
161.28933055980787
 40
0.1323198466687589
  0
CIRCLE
  8
_1-0_
  6
CONTINUOUS
 62
    7
 10
324.70491151551943
 20
161.40769339896539
 40
0.1323198466687589
  0
CIRCLE
  8
_1-0_
  6
CONTINUOUS
 62
    7
 10
323.34381928315037
 20
164.12989023569469
 40
0.1323198466687589
  0
CIRCLE
  8
_1-0_
  6
CONTINUOUS
 62
    7
 10
324.70491151551943
 20
163.06467417124156
 40
0.1323198466687589
  0
CIRCLE
  8
_1-0_
  6
CONTINUOUS
 62
    7
 10
323.81722115181589
 20
162.88714847049198
 40
0.1323198466687589
  0
CIRCLE
  8
_1-0_
  6
CONTINUOUS
 62
    7
 10
326.65778082770271
 20
162.65043516416807
 40
0.1323198466687589
  0
CIRCLE
  8
_1-0_
  6
CONTINUOUS
 62
    7
 10
326.3027046822213
 20
164.30741593644427
 40
0.1323198466687589
  0
CIRCLE
  8
_1-0_
  6
CONTINUOUS
 62
    7
 10
335.26059537320526
 20
162.34393145586995
 40
0.1323198466687589
  0
CIRCLE
  8
_1-0_
  6
CONTINUOUS
 62
    7
 10
335.91156005859375
 20
163.46832275390625
 40
0.1323198466687589
  0
CIRCLE
  8
_1-0_
  6
CONTINUOUS
 62
    7
 10
334.60963068781672
 20
162.22558098870357
 40
0.1323198466687589
  0
CIRCLE
  8
_1-0_
  6
CONTINUOUS
 62
    7
 10
334.07701646959464
 20
161.75215437605576
 40
0.1323198466687589
  0
CIRCLE
  8
_1-0_
  6
CONTINUOUS
 62
    7
 10
334.13620407516896
 20
163.70503606023016
 40
0.1323198466687589
  0
CIRCLE
  8
_1-0_
  6
CONTINUOUS
 62
    7
 10
338.9296578072213
 20
162.16639338312922
 40
0.1323198466687589
  0
CIRCLE
  8
_1-0_
  6
CONTINUOUS
 62
    7
 10
337.21346468538854
 20
162.22558098870357
 40
0.1323198466687589
  0
CIRCLE
  8
_1-0_
  6
CONTINUOUS
 62
    7
 10
336.20744859850089
 20
162.16639338312922
 40
0.1323198466687589
  0
CIRCLE
  8
_1-0_
  6
CONTINUOUS
 62
    7
 10
336.1482857369088
 20
161.27872776340794
 40
0.1323198466687589
  0
CIRCLE
  8
_1-0_
  6
CONTINUOUS
 62
    7
 10
340.23156243401604
 20
160.92365161792654
 40
0.1323198466687589
  0
CIRCLE
  8
_1-0_
  6
CONTINUOUS
 62
    7
 10
341.77019273912589
 20
161.04201445708404
 40
0.1323198466687589
  0
CIRCLE
  8
_1-0_
  6
CONTINUOUS
 62
    7
 10
340.40910050675677
 20
163.76421129381336
 40
0.1323198466687589
  0
CIRCLE
  8
_1-0_
  6
CONTINUOUS
 62
    7
 10
341.77019273912589
 20
162.69899522936024
 40
0.1323198466687589
  0
CIRCLE
  8
_1-0_
  6
CONTINUOUS
 62
    7
 10
340.88250237542229
 20
162.52146952861065
 40
0.1323198466687589
  0
CIRCLE
  8
_1-0_
  6
CONTINUOUS
 62
    7
 10
343.72306205130911
 20
162.28475622228675
 40
0.1323198466687589
  0
CIRCLE
  8
_1-0_
  6
CONTINUOUS
 62
    7
 10
343.36798590582771
 20
163.94173699456294
 40
0.1323198466687589
  0
CIRCLE
  8
_1-0_
  6
CONTINUOUS
 62
    7
 10
327.45931264516469
 20
162.34393145586995
 40
0.1323198466687589
  0
CIRCLE
  8
_1-0_
  6
CONTINUOUS
 62
    7
 10
328.11027733055323
 20
163.46832275390625
 40
0.1323198466687589
  0
CIRCLE
  8
_1-0_
  6
CONTINUOUS
 62
    7
 10
326.8083479597762
 20
162.22558098870357
 40
0.1323198466687589
  0
CIRCLE
  8
_1-0_
  6
CONTINUOUS
 62
    7
 10
326.27573374155406
 20
161.75215437605576
 40
0.1323198466687589
  0
CIRCLE
  8
_1-0_
  6
CONTINUOUS
 62
    7
 10
326.33492134712839
 20
163.70503606023016
 40
0.1323198466687589
  0
CIRCLE
  8
_1-0_
  6
CONTINUOUS
 62
    7
 10
331.12837507918078
 20
162.16639338312922
 40
0.1323198466687589
  0
CIRCLE
  8
_1-0_
  6
CONTINUOUS
 62
    7
 10
329.41218195734797
 20
162.22558098870357
 40
0.1323198466687589
  0
CIRCLE
  8
_1-0_
  6
CONTINUOUS
 62
    7
 10
328.40616587046031
 20
162.16639338312922
 40
0.1323198466687589
  0
CIRCLE
  8
_1-0_
  6
CONTINUOUS
 62
    7
 10
328.34700300886828
 20
161.27872776340794
 40
0.1323198466687589
  0
CIRCLE
  8
_1-0_
  6
CONTINUOUS
 62
    7
 10
332.43027970597552
 20
160.92365161792654
 40
0.1323198466687589
  0
CIRCLE
  8
_1-0_
  6
CONTINUOUS
 62
    7
 10
333.96891001108531
 20
161.04201445708404
 40
0.1323198466687589
  0
CIRCLE
  8
_1-0_
  6
CONTINUOUS
 62
    7
 10
332.60781777871625
 20
163.76421129381336
 40
0.1323198466687589
  0
CIRCLE
  8
_1-0_
  6
CONTINUOUS
 62
    7
 10
333.96891001108531
 20
162.69899522936024
 40
0.1323198466687589
  0
CIRCLE
  8
_1-0_
  6
CONTINUOUS
 62
    7
 10
333.08121964738177
 20
162.52146952861065
 40
0.1323198466687589
  0
CIRCLE
  8
_1-0_
  6
CONTINUOUS
 62
    7
 10
335.92177932326859
 20
162.28475622228675
 40
0.1323198466687589
  0
CIRCLE
  8
_1-0_
  6
CONTINUOUS
 62
    7
 10
335.56670317778719
 20
163.94173699456294
 40
0.1323198466687589
  0
CIRCLE
  8
_1-0_
  6
CONTINUOUS
 62
    7
 10
342.33049547350089
 20
162.4658203125
 40
0.1323198466687589
  0
CIRCLE
  8
_1-0_
  6
CONTINUOUS
 62
    7
 10
342.98146015888938
 20
163.59021161053633
 40
0.1323198466687589
  0
CIRCLE
  8
_1-0_
  6
CONTINUOUS
 62
    7
 10
341.67953078811234
 20
162.34746984533362
 40
0.1323198466687589
  0
CIRCLE
  8
_1-0_
  6
CONTINUOUS
 62
    7
 10
341.14691656989021
 20
161.87404323268581
 40
0.1323198466687589
  0
CIRCLE
  8
_1-0_
  6
CONTINUOUS
 62
    7
 10
341.20610417546453
 20
163.82692491686024
 40
0.1323198466687589
  0
CIRCLE
  8
_1-0_
  6
CONTINUOUS
 62
    7
 10
345.99955790751693
 20
162.2882822397593
 40
0.1323198466687589
  0
CIRCLE
  8
_1-0_
  6
CONTINUOUS
 62
    7
 10
344.28336478568411
 20
162.34746984533362
 40
0.1323198466687589
  0
CIRCLE
  8
_1-0_
  6
CONTINUOUS
 62
    7
 10
343.27734869879646
 20
162.2882822397593
 40
0.1323198466687589
  0
CIRCLE
  8
_1-0_
  6
CONTINUOUS
 62
    7
 10
343.21818583720443
 20
161.40061662003802
 40
0.1323198466687589
  0
CIRCLE
  8
_1-0_
  6
CONTINUOUS
 62
    7
 10
347.30146253431167
 20
161.04554047455659
 40
0.1323198466687589
  0
CIRCLE
  8
_1-0_
  6
CONTINUOUS
 62
    7
 10
348.84009283942146
 20
161.16390331371412
 40
0.1323198466687589
  0
CIRCLE
  8
_1-0_
  6
CONTINUOUS
 62
    7
 10
347.4790006070524
 20
163.88610015044341
 40
0.1323198466687589
  0
CIRCLE
  8
_1-0_
  6
CONTINUOUS
 62
    7
 10
348.84009283942146
 20
162.82088408599029
 40
0.1323198466687589
  0
CIRCLE
  8
_1-0_
  6
CONTINUOUS
 62
    7
 10
347.95240247571792
 20
162.64335838524073
 40
0.1323198466687589
  0
CIRCLE
  8
_1-0_
  6
CONTINUOUS
 62
    7
 10
350.79296215160474
 20
162.40664507891682
 40
0.1323198466687589
  0
CIRCLE
  8
_1-0_
  6
CONTINUOUS
 62
    7
 10
350.43788600612334
 20
164.063625851193
 40
0.1323198466687589
  0
CIRCLE
  8
_1-0_
  6
CONTINUOUS
 62
    7
 10
352.81343202333193
 20
162.22203022724875
 40
0.1323198466687589
  0
CIRCLE
  8
_1-0_
  6
CONTINUOUS
 62
    7
 10
353.46439670872047
 20
163.34642152528505
 40
0.1323198466687589
  0
CIRCLE
  8
_1-0_
  6
CONTINUOUS
 62
    7
 10
352.16246733794344
 20
162.10367976008234
 40
0.1323198466687589
  0
CIRCLE
  8
_1-0_
  6
CONTINUOUS
 62
    7
 10
351.6298531197213
 20
161.63025314743456
 40
0.1323198466687589
  0
CIRCLE
  8
_1-0_
  6
CONTINUOUS
 62
    7
 10
351.68904072529563
 20
163.58313483160896
 40
0.1323198466687589
  0
CIRCLE
  8
_1-0_
  6
CONTINUOUS
 62
    7
 10
356.48249445734797
 20
162.04449215450802
 40
0.1323198466687589
  0
CIRCLE
  8
_1-0_
  6
CONTINUOUS
 62
    7
 10
354.76630133551521
 20
162.10367976008234
 40
0.1323198466687589
  0
CIRCLE
  8
_1-0_
  6
CONTINUOUS
 62
    7
 10
353.76028524862755
 20
162.04449215450802
 40
0.1323198466687589
  0
CIRCLE
  8
_1-0_
  6
CONTINUOUS
 62
    7
 10
353.70112238703547
 20
161.15682653478675
 40
0.1323198466687589
  0
CIRCLE
  8
_1-0_
  6
CONTINUOUS
 62
    7
 10
357.78439908414276
 20
160.80175038930534
 40
0.1323198466687589
  0
CIRCLE
  8
_1-0_
  6
CONTINUOUS
 62
    7
 10
359.32302938925255
 20
160.92011322846284
 40
0.1323198466687589
  0
CIRCLE
  8
_1-0_
  6
CONTINUOUS
 62
    7
 10
357.96193715688349
 20
163.64231006519216
 40
0.1323198466687589
  0
CIRCLE
  8
_1-0_
  6
CONTINUOUS
 62
    7
 10
359.32302938925255
 20
162.57709400073904
 40
0.1323198466687589
  0
CIRCLE
  8
_1-0_
  6
CONTINUOUS
 62
    7
 10
358.43533902554901
 20
162.39956829998945
 40
0.1323198466687589
  0
CIRCLE
  8
_1-0_
  6
CONTINUOUS
 62
    7
 10
361.27589870143584
 20
162.16285499366555
 40
0.1323198466687589
  0
CIRCLE
  8
_1-0_
  6
CONTINUOUS
 62
    7
 10
360.92082255595443
 20
163.81983576594172
 40
0.1323198466687589
  0
CIRCLE
  8
_1-0_
  6
CONTINUOUS
 62
    7
 10
360.73660360800255
 20
161.97824014199747
 40
0.1323198466687589
  0
CIRCLE
  8
_1-0_
  6
CONTINUOUS
 62
    7
 10
361.38756829339104
 20
163.1026314400338
 40
0.1323198466687589
  0
CIRCLE
  8
_1-0_
  6
CONTINUOUS
 62
    7
 10
360.08563892261407
 20
161.85988967483109
 40
0.1323198466687589
  0
CIRCLE
  8
_1-0_
  6
CONTINUOUS
 62
    7
 10
359.55302470439193
 20
161.38646306218328
 40
0.1323198466687589
  0
CIRCLE
  8
_1-0_
  6
CONTINUOUS
 62
    7
 10
359.61221230996625
 20
163.33934474635768
 40
0.1323198466687589
  0
CIRCLE
  8
_1-0_
  6
CONTINUOUS
 62
    7
 10
364.40566604201859
 20
161.80070206925677
 40
0.1323198466687589
  0
CIRCLE
  8
_1-0_
  6
CONTINUOUS
 62
    7
 10
362.68947292018584
 20
161.85988967483109
 40
0.1323198466687589
  0
CIRCLE
  8
_1-0_
  6
CONTINUOUS
 62
    7
 10
361.68345683329818
 20
161.80070206925677
 40
0.1323198466687589
  0
CIRCLE
  8
_1-0_
  6
CONTINUOUS
 62
    7
 10
361.62429397170609
 20
160.91303644953547
 40
0.1323198466687589
  0
CIRCLE
  8
_1-0_
  6
CONTINUOUS
 62
    7
 10
365.70757066881339
 20
160.55796030405406
 40
0.1323198466687589
  0
CIRCLE
  8
_1-0_
  6
CONTINUOUS
 62
    7
 10
367.24620097392318
 20
160.67632314321159
 40
0.1323198466687589
  0
CIRCLE
  8
_1-0_
  6
CONTINUOUS
 62
    7
 10
365.88510874155406
 20
163.39851997994089
 40
0.1323198466687589
  0
CIRCLE
  8
_1-0_
  6
CONTINUOUS
 62
    7
 10
367.24620097392318
 20
162.33330391548776
 40
0.1323198466687589
  0
CIRCLE
  8
_1-0_
  6
CONTINUOUS
 62
    7
 10
366.35851061021964
 20
162.15577821473818
 40
0.1323198466687589
  0
CIRCLE
  8
_1-0_
  6
CONTINUOUS
 62
    7
 10
369.19907028610646
 20
161.91906490841427
 40
0.1323198466687589
  0
CIRCLE
  8
_1-0_
  6
CONTINUOUS
 62
    7
 10
368.843994140625
 20
163.57604568069047
 40
0.1323198466687589
  0
CIRCLE
  8
_1-0_
  6
CONTINUOUS
 62
    7
 10
367.92839256492823
 20
162.58770916913008
 40
0.1323198466687589
  0
CIRCLE
  8
_1-0_
  6
CONTINUOUS
 62
    7
 10
368.57935725031672
 20
163.71210046716641
 40
0.1323198466687589
  0
CIRCLE
  8
_1-0_
  6
CONTINUOUS
 62
    7
 10
367.27742787953974
 20
162.4693587019637
 40
0.1323198466687589
  0
CIRCLE
  8
_1-0_
  6
CONTINUOUS
 62
    7
 10
366.74481366131761
 20
161.99593208931589
 40
0.1323198466687589
  0
CIRCLE
  8
_1-0_
  6
CONTINUOUS
 62
    7
 10
366.80400126689193
 20
163.94881377349029
 40
0.1323198466687589
  0
CIRCLE
  8
_1-0_
  6
CONTINUOUS
 62
    7
 10
371.59745499894427
 20
162.41017109638938
 40
0.1323198466687589
  0
CIRCLE
  8
_1-0_
  6
CONTINUOUS
 62
    7
 10
369.88126187711151
 20
162.4693587019637
 40
0.1323198466687589
  0
CIRCLE
  8
_1-0_
  6
CONTINUOUS
 62
    7
 10
368.87524579022386
 20
162.41017109638938
 40
0.1323198466687589
  0
CIRCLE
  8
_1-0_
  6
CONTINUOUS
 62
    7
 10
368.81608292863177
 20
161.52250547666807
 40
0.1323198466687589
  0
CIRCLE
  8
_1-0_
  6
CONTINUOUS
 62
    7
 10
372.89935962573907
 20
161.16742933118667
 40
0.1323198466687589
  0
CIRCLE
  8
_1-0_
  6
CONTINUOUS
 62
    7
 10
374.43798993084886
 20
161.28579217034419
 40
0.1323198466687589
  0
CIRCLE
  8
_1-0_
  6
CONTINUOUS
 62
    7
 10
373.07689769847974
 20
164.00798900707349
 40
0.1323198466687589
  0
CIRCLE
  8
_1-0_
  6
CONTINUOUS
 62
    7
 10
374.43798993084886
 20
162.94277294262037
 40
0.1323198466687589
  0
CIRCLE
  8
_1-0_
  6
CONTINUOUS
 62
    7
 10
373.55029956714532
 20
162.76524724187078
 40
0.1323198466687589
  0
CIRCLE
  8
_1-0_
  6
CONTINUOUS
 62
    7
 10
376.39085924303214
 20
162.52853393554687
 40
0.1323198466687589
  0
CIRCLE
  8
_1-0_
  6
CONTINUOUS
 62
    7
 10
376.03578309755068
 20
164.18551470782307
 40
0.1323198466687589
  0
ARC
  8
_1-0_
  6
CONTINUOUS
 62
    7
 10
121.4538945378484
 20
227.90118243243245
 40
3.0328316301912874
 50
124.27395629882812
 51
222.03982543945315
  0
TEXT
  8
_0-0_
 62
    7
 10
147.56756962956609
 20
22.702702702702709
 40
2.5
 41
1
 50
0
  1
図名
  0
TEXT
  8
_0-0_
 62
    7
 10
147.56756962956609
 20
12.972972972972968
 40
2.5
 41
1
 50
0
  1
縮尺
  0
TEXT
  8
_0-0_
 62
    7
 10
382.77784605284
 20
21.243871740392734
 40
2.5
 41
1
 50
0
  1
ＮＯ
  0
TEXT
  8
_0-0_
 62
    7
 10
20.270270012520456
 20
22.702702702702709
 40
2.5
 41
1
 50
0
  1
Ｆ形
  0
TEXT
  8
_0-0_
 62
    7
 10
389.99062615471917
 20
16.178650211643514
 40
2.5
 41
1
 50
0
  1
Ｆ
  0
TEXT
  8
_0-0_
 62
    7
 10
171.37221877639359
 20
12.362518826046511
 40
2.5
 41
1
 50
0
  1
1/5
  0
TEXT
  8
_0-1_
 62
    7
 10
283.31418836438979
 20
123.33247004328548
 40
2.5
 41
1
 50
0
  1
桟瓦
  0
TEXT
  8
_0-1_
 62
    7
 10
45.397583729511979
 20
13.77361400707349
 40
2.5
 41
1
 50
0
  1
壁際　1
  0
TEXT
  8
_1-3_
 62
    7
 10
133.87095683329815
 20
121.01398364917652
 40
2.5
 41
1
 50
0
  1
200
  0
TEXT
  8
_0-1_
 62
    7
 10
148.75091140334672
 20
230.55517248205237
 40
2.5
 41
1
 50
0
  1
壁際水切鉄板
  0
TEXT
  8
_0-1_
 62
    7
 10
151.731190037083
 20
212.1475549646326
 40
2.5
 41
1
 50
0
  1
発泡弾性シール材
  0
TEXT
  8
_0-1_
 62
    7
 10
149.2768468083562
 20
197.59679433461784
 40
2.5
 41
1
 50
0
  1
捨谷
  0
TEXT
  8
_0-1_
 62
    7
 10
31.231870393495313
 20
18.589955922719582
 40
2.5
 41
1
 50
0
  1
ＲＣ
  0
TEXT
  8
_1-0_
 62
    7
 10
283.31419248838682
 20
95.126266479492187
 40
2.5
 41
1
 50
0
  1
パーライト系モルタル　　ｔ＝50
  0
TEXT
  8
_0-1_
 62
    7
 10
399.51686137431375
 20
13.672652373442787
 40
2.5
 41
1
 50
0
  1
21
  0
TEXT
  8
_1-0_
 62
    7
 10
132.83685220254435
 20
242.44193412162164
 40
2.5
 41
1
 50
0
  1
コーキング
  0
TEXT
  8
_1-3_
 62
    7
 10
82.818028218037384
 20
183.53238904798354
 40
2.5
 41
1
 50
90
  1
150
  0
TEXT
  8
_1-3_
 62
    7
 10
73.060436764278933
 20
198.53238904798354
 40
2.5
 41
1
 50
90
  1
300
  0
TEXT
  8
_1-0_
 62
    7
 10
283.31419661238385
 20
116.03203026024072
 40
2.5
 41
1
 50
0
  1
瓦桟　　
  0
TEXT
  8
_1-3_
 62
    7
 10
295.47266779719172
 20
111.92946562895904
 40
2.5
 41
1
 50
0
  1
※　地域により瓦桟木の大きさは、異なります
  0
POINT
  8
_1-3_
 62
    7
 10
115.74595270930111
 20
120.51398199957771
  0
POINT
  8
_1-3_
 62
    7
 10
155.74594858530406
 20
120.51398199957771
  0
POINT
  8
_1-3_
 62
    7
 10
83.318029867636199
 20
170.40738904798354
  0
POINT
  8
_1-3_
 62
    7
 10
83.318029867636199
 20
200.40738904798354
  0
POINT
  8
_1-3_
 62
    7
 10
73.560432227882188
 20
170.40738904798354
  0
POINT
  8
_1-3_
 62
    7
 10
73.560432227882188
 20
230.40740141997466
  0
TEXT
  8
_1-3_
 62
    7
 10
295.58361981366136
 20
115.56316891232053
 40
2.5
 41
1
 50
0
  1
15×21以上　（防腐処理）
  0
TEXT
  8
_0-1_
 62
    7
 10
283.31419248838682
 20
108.89752362225508
 40
2.5
 41
1
 50
0
  1
縦桟
  0
TEXT
  8
_1-0_
 62
    7
 10
283.48950360272386
 20
102.60043994800465
 40
2.5
 41
1
 50
0
  1
ルーフィング
  0
TEXT
  8
_1-3_
 62
    7
 10
42.616472545757063
 20
193.55849625623961
 40
2.5
 41
1
 50
0
  1
ルーフィング立上がり寸法
  0
TEXT
  8
_0-1_
 62
    7
 10
72.807560316139757
 20
117.86200083194674
 40
2.5
 41
1
 50
0
  1
２重貼り
  0
TEXT
  8
_1-0_
 62
    7
 10
54.576227121464228
 20
118.00785149750416
 40
2.5
 41
1
 50
0
  1
ルーフィング
  0
ENDSEC
  0
EOF
